  0
SECTION
  2
HEADER
  9
$ACADVER
  1
AC1014
  9
$ACADMAINTVER
 70
     9
  9
$DWGCODEPAGE
  3
ANSI_1252
  9
$INSBASE
 10
13.30245946397687
 20
13.95284536682964
 30
0.0
  9
$EXTMIN
 10
11.68291748486692
 20
11.32327944188564
 30
0.0
  9
$EXTMAX
 10
15.16813680661407
 20
15.09160910816899
 30
0.0
  9
$LIMMIN
 10
0.0
 20
0.0
  9
$LIMMAX
 10
18.0
 20
12.0
  9
$ORTHOMODE
 70
     1
  9
$REGENMODE
 70
     1
  9
$FILLMODE
 70
     1
  9
$QTEXTMODE
 70
     0
  9
$MIRRTEXT
 70
     0
  9
$DRAGMODE
 70
     2
  9
$LTSCALE
 40
1.0
  9
$OSMODE
 70
    39
  9
$ATTMODE
 70
     1
  9
$TEXTSIZE
 40
0.125
  9
$TRACEWID
 40
0.05
  9
$TEXTSTYLE
  7
ROMANS
  9
$CLAYER
  8
0
  9
$CELTYPE
  6
BYLAYER
  9
$CECOLOR
 62
   256
  9
$CELTSCALE
 40
1.0
  9
$DELOBJ
 70
     1
  9
$DISPSILH
 70
     1
  9
$DIMSCALE
 40
1.0
  9
$DIMASZ
 40
0.125
  9
$DIMEXO
 40
0.125
  9
$DIMDLI
 40
0.375
  9
$DIMRND
 40
0.0
  9
$DIMDLE
 40
0.0
  9
$DIMEXE
 40
0.125
  9
$DIMTP
 40
0.0
  9
$DIMTM
 40
0.0
  9
$DIMTXT
 40
0.125
  9
$DIMCEN
 40
-0.125
  9
$DIMTSZ
 40
0.0
  9
$DIMTOL
 70
     0
  9
$DIMLIM
 70
     0
  9
$DIMTIH
 70
     1
  9
$DIMTOH
 70
     1
  9
$DIMSE1
 70
     0
  9
$DIMSE2
 70
     0
  9
$DIMTAD
 70
     0
  9
$DIMZIN
 70
     4
  9
$DIMBLK
  1

  9
$DIMASO
 70
     1
  9
$DIMSHO
 70
     1
  9
$DIMPOST
  1

  9
$DIMAPOST
  1

  9
$DIMALT
 70
     0
  9
$DIMALTD
 70
     2
  9
$DIMALTF
 40
25.4
  9
$DIMLFAC
 40
1.0
  9
$DIMTOFL
 70
     0
  9
$DIMTVP
 40
0.0
  9
$DIMTIX
 70
     1
  9
$DIMSOXD
 70
     0
  9
$DIMSAH
 70
     0
  9
$DIMBLK1
  1

  9
$DIMBLK2
  1

  9
$DIMSTYLE
  2
STANDARD
  9
$DIMCLRD
 70
     0
  9
$DIMCLRE
 70
     0
  9
$DIMCLRT
 70
     0
  9
$DIMTFAC
 40
1.0
  9
$DIMGAP
 40
0.09
  9
$DIMJUST
 70
     0
  9
$DIMSD1
 70
     0
  9
$DIMSD2
 70
     0
  9
$DIMTOLJ
 70
     1
  9
$DIMTZIN
 70
     4
  9
$DIMALTZ
 70
     0
  9
$DIMALTTZ
 70
     0
  9
$DIMFIT
 70
     3
  9
$DIMUPT
 70
     0
  9
$DIMUNIT
 70
     2
  9
$DIMDEC
 70
     3
  9
$DIMTDEC
 70
     3
  9
$DIMALTU
 70
     2
  9
$DIMALTTD
 70
     2
  9
$DIMTXSTY
  7
ROMANS
  9
$DIMAUNIT
 70
     0
  9
$LUNITS
 70
     2
  9
$LUPREC
 70
     3
  9
$SKETCHINC
 40
0.1
  9
$FILLETRAD
 40
0.03125
  9
$AUNITS
 70
     0
  9
$AUPREC
 70
     0
  9
$MENU
  1
ACAD
  9
$ELEVATION
 40
0.0
  9
$PELEVATION
 40
0.0
  9
$THICKNESS
 40
0.0
  9
$LIMCHECK
 70
     0
  9
$BLIPMODE
 70
     0
  9
$CHAMFERA
 40
0.0
  9
$CHAMFERB
 40
0.0
  9
$CHAMFERC
 40
0.0
  9
$CHAMFERD
 40
0.0
  9
$SKPOLY
 70
     0
  9
$TDCREATE
 40
2448994.650599999
  9
$TDUPDATE
 40
2452458.311533009
  9
$TDINDWG
 40
0.0015658333
  9
$TDUSRTIMER
 40
0.0015658333
  9
$USRTIMER
 70
     1
  9
$ANGBASE
 50
0.0
  9
$ANGDIR
 70
     0
  9
$PDMODE
 70
     0
  9
$PDSIZE
 40
0.0
  9
$PLINEWID
 40
0.0
  9
$COORDS
 70
     2
  9
$SPLFRAME
 70
     0
  9
$SPLINETYPE
 70
     6
  9
$SPLINESEGS
 70
     8
  9
$ATTDIA
 70
     0
  9
$ATTREQ
 70
     1
  9
$HANDLING
 70
 22529
  9
$HANDSEED
  5
7DE1B343D9E124B
  9
$SURFTAB1
 70
     6
  9
$SURFTAB2
 70
     6
  9
$SURFTYPE
 70
     6
  9
$SURFU
 70
     6
  9
$SURFV
 70
     6
  9
$UCSNAME
  2

  9
$UCSORG
 10
0.0
 20
0.0
 30
0.0
  9
$UCSXDIR
 10
1.0
 20
0.0
 30
0.0
  9
$UCSYDIR
 10
0.0
 20
1.0
 30
0.0
  9
$PUCSNAME
  2

  9
$PUCSORG
 10
0.0
 20
0.0
 30
0.0
  9
$PUCSXDIR
 10
1.0
 20
0.0
 30
0.0
  9
$PUCSYDIR
 10
0.0
 20
1.0
 30
0.0
  9
$USERI1
 70
     0
  9
$USERI2
 70
     0
  9
$USERI3
 70
     0
  9
$USERI4
 70
     0
  9
$USERI5
 70
     0
  9
$USERR1
 40
0.0
  9
$USERR2
 40
0.0
  9
$USERR3
 40
0.0
  9
$USERR4
 40
0.0
  9
$USERR5
 40
0.0
  9
$WORLDVIEW
 70
     1
  9
$SHADEDGE
 70
     3
  9
$SHADEDIF
 70
    70
  9
$TILEMODE
 70
     1
  9
$MAXACTVP
 70
    16
  9
$PINSBASE
 10
6.939506815596386
 20
50.00000000000001
 30
10.1190040920034
  9
$PLIMCHECK
 70
     0
  9
$PEXTMIN
 10
1.000000000000000E+20
 20
1.000000000000000E+20
 30
1.000000000000000E+20
  9
$PEXTMAX
 10
-1.000000000000000E+20
 20
-1.000000000000000E+20
 30
-1.000000000000000E+20
  9
$PLIMMIN
 10
0.0
 20
0.0
  9
$PLIMMAX
 10
12.0
 20
9.0
  9
$UNITMODE
 70
     0
  9
$VISRETAIN
 70
     0
  9
$PLINEGEN
 70
     1
  9
$PSLTSCALE
 70
     0
  9
$TREEDEPTH
 70
  3020
  9
$PICKSTYLE
 70
     1
  9
$CMLSTYLE
  2
STANDARD
  9
$CMLJUST
 70
     0
  9
$CMLSCALE
 40
1.0
  9
$PROXYGRAPHICS
 70
     1
  9
$MEASUREMENT
 70
     0
  0
ENDSEC
  0
SECTION
  2
CLASSES
  0
CLASS
  1
LWPOLYLINE
  2
AcDbPolyline
  3
AutoCAD 2000
 90
        0
280
     0
281
     1
  0
CLASS
  1
ACDBDICTIONARYWDFLT
  2
AcDbDictionaryWithDefault
  3
AutoCAD 2000
 90
        0
280
     0
281
     0
  0
CLASS
  1
ACDBPLACEHOLDER
  2
AcDbPlaceHolder
  3
AutoCAD 2000
 90
        0
280
     0
281
     0
  0
CLASS
  1
LAYOUT
  2
AcDbLayout
  3
AutoCAD 2000
 90
        0
280
     0
281
     0
  0
CLASS
  1
DICTIONARYVAR
  2
AcDbDictionaryVar
  3
AutoCAD 2000
 90
        0
280
     0
281
     0
  0
CLASS
  1
LONG_TRANSACTION
  2
AcDbLongTransaction
  3
AutoCAD 2000
 90
        0
280
     0
281
     0
  0
CLASS
  1
LWPOLYLINE
  2
AcDbPolyline
  3
AutoCAD 2000
 90
        0
280
     0
281
     1
  0
CLASS
  1
HATCH
  2
AcDbHatch
  3
AutoCAD 2000
 90
        0
280
     0
281
     1
  0
CLASS
  1
XRECORD
  2
AcDbXrecord
  3
AutoCAD 2000
 90
        0
280
     0
281
     0
  0
ENDSEC
  0
SECTION
  2
TABLES
  0
TABLE
  2
VPORT
  5
7DE1B343D9E11D7
330
0
100
AcDbSymbolTable
 70
     2
  0
VPORT
  5
7DE1B343D9E1226
330
7DE1B343D9E11D7
100
AcDbSymbolTableRecord
100
AcDbViewportTableRecord
  2
*ACTIVE
 70
     0
 10
0.0
 20
0.0
 11
1.0
 21
1.0
 12
18.97445920477468
 22
13.20723052849648
 13
0.0
 23
0.0
 14
0.015625
 24
0.015625
 15
0.0
 25
0.0
 16
0.0
 26
0.0
 36
1.0
 17
0.0
 27
0.0
 37
0.0
 40
4.25572719064143
 41
4.320930232558139
 42
50.0
 43
0.0
 44
0.0
 50
0.0
 51
0.0
 71
     0
 72
  2000
 73
     1
 74
     0
 75
     0
 76
     0
 77
     0
 78
     0
  0
ENDTAB
  0
TABLE
  2
LTYPE
  5
7DE1B343D9E11D4
330
0
100
AcDbSymbolTable
 70
     1
  0
LTYPE
  5
7DE1B343D9E11E1
330
7DE1B343D9E11D4
100
AcDbSymbolTableRecord
100
AcDbLinetypeTableRecord
  2
BYBLOCK
 70
     0
  3

 72
    65
 73
     0
 40
0.0
  0
LTYPE
  5
7DE1B343D9E11E2
330
7DE1B343D9E11D4
100
AcDbSymbolTableRecord
100
AcDbLinetypeTableRecord
  2
BYLAYER
 70
     0
  3

 72
    65
 73
     0
 40
0.0
  0
LTYPE
  5
7DE1B343D9E11E3
330
7DE1B343D9E11D4
100
AcDbSymbolTableRecord
100
AcDbLinetypeTableRecord
  2
CONTINUOUS
 70
     0
  3
Solid line
 72
    65
 73
     0
 40
0.0
  0
ENDTAB
  0
TABLE
  2
LAYER
  5
7DE1B343D9E11D1
330
0
100
AcDbSymbolTable
 70
     3
  0
LAYER
  5
7DE1B343D9E11DE
330
7DE1B343D9E11D1
100
AcDbSymbolTableRecord
100
AcDbLayerTableRecord
  2
0
 70
     0
 62
     7
  6
CONTINUOUS
  0
LAYER
  5
7DE1B343D9E11EE
330
7DE1B343D9E11D1
100
AcDbSymbolTableRecord
100
AcDbLayerTableRecord
  2
TEXT
 70
     0
 62
     3
  6
CONTINUOUS
  0
LAYER
  5
7DE1B343D9E11FE
330
7DE1B343D9E11D1
100
AcDbSymbolTableRecord
100
AcDbLayerTableRecord
  2
ASHADE
 70
     4
 62
     7
  6
CONTINUOUS
  0
ENDTAB
  0
TABLE
  2
STYLE
  5
7DE1B343D9E11D2
330
0
100
AcDbSymbolTable
 70
     4
  0
STYLE
  5
7DE1B343D9E11DF
330
7DE1B343D9E11D2
100
AcDbSymbolTableRecord
100
AcDbTextStyleTableRecord
  2
STANDARD
 70
     0
 40
0.0
 41
1.0
 50
0.0
 71
     0
 42
0.3125
  3
txt
  4

  0
STYLE
  5
7DE1B343D9E11EB
330
7DE1B343D9E11D2
100
AcDbSymbolTableRecord
100
AcDbTextStyleTableRecord
  2
ITALICC
 70
     0
 40
0.0
 41
1.0
 50
0.0
 71
     0
 42
0.125
  3
italicc
  4

  0
STYLE
  5
7DE1B343D9E11FB
330
7DE1B343D9E11D2
100
AcDbSymbolTableRecord
100
AcDbTextStyleTableRecord
  2
ASHADE
 70
     0
 40
0.2
 41
1.0
 50
0.0
 71
     0
 42
0.3125
  3
simplex
  4

  0
STYLE
  5
7DE1B343D9E1216
330
7DE1B343D9E11D2
100
AcDbSymbolTableRecord
100
AcDbTextStyleTableRecord
  2
ROMANS
 70
     0
 40
0.0
 41
1.0
 50
0.0
 71
     0
 42
0.125
  3
romans.shx
  4

  0
ENDTAB
  0
TABLE
  2
VIEW
  5
7DE1B343D9E11D5
330
0
100
AcDbSymbolTable
 70
     0
  0
ENDTAB
  0
TABLE
  2
UCS
  5
7DE1B343D9E11D6
330
0
100
AcDbSymbolTable
 70
     0
  0
ENDTAB
  0
TABLE
  2
APPID
  5
7DE1B343D9E11D8
330
0
100
AcDbSymbolTable
 70
     6
  0
APPID
  5
7DE1B343D9E11E0
330
7DE1B343D9E11D8
100
AcDbSymbolTableRecord
100
AcDbRegAppTableRecord
  2
ACAD
 70
     0
  0
APPID
  5
7DE1B343D9E11FC
330
7DE1B343D9E11D8
100
AcDbSymbolTableRecord
100
AcDbRegAppTableRecord
  2
AVE_RENDER
 70
     0
  0
APPID
  5
7DE1B343D9E11FD
330
7DE1B343D9E11D8
100
AcDbSymbolTableRecord
100
AcDbRegAppTableRecord
  2
AVE_ENTITY_MATERIAL
 70
     0
  0
APPID
  5
7DE1B343D9E120A
330
7DE1B343D9E11D8
100
AcDbSymbolTableRecord
100
AcDbRegAppTableRecord
  2
AVE_FINISH
 70
     0
  0
APPID
  5
7DE1B343D9E120B
330
7DE1B343D9E11D8
100
AcDbSymbolTableRecord
100
AcDbRegAppTableRecord
  2
AVE_MATERIAL
 70
     0
  0
APPID
  5
7DE1B343D9E120C
330
7DE1B343D9E11D8
100
AcDbSymbolTableRecord
100
AcDbRegAppTableRecord
  2
AVE_GLOBAL
 70
     0
  0
ENDTAB
  0
TABLE
  2
DIMSTYLE
  5
7DE1B343D9E11D9
330
0
100
AcDbSymbolTable
 70
     1
  0
DIMSTYLE
105
7DE1B343D9E11F3
330
7DE1B343D9E11D9
100
AcDbSymbolTableRecord
100
AcDbDimStyleTableRecord
  2
STANDARD
 70
     0
  3

  4

  5

  6

  7

 40
1.0
 41
0.125
 42
0.125
 43
0.375
 44
0.125
 45
0.0
 46
0.0
 47
0.0
 48
0.0
140
0.125
141
-0.125
142
0.0
143
25.4
144
1.0
145
0.0
146
1.0
147
0.09
 71
     0
 72
     0
 73
     1
 74
     1
 75
     0
 76
     0
 77
     0
 78
     4
170
     0
171
     2
172
     0
173
     0
174
     1
175
     0
176
     0
177
     0
178
     0
270
     2
271
     3
272
     3
273
     2
274
     2
340
7DE1B343D9E1216
275
     0
280
     0
281
     0
282
     0
283
     1
284
     4
285
     0
286
     0
287
     3
288
     0
  0
ENDTAB
  0
TABLE
  2
BLOCK_RECORD
  5
7DE1B343D9E11D0
330
0
100
AcDbSymbolTable
 70
     2
  0
BLOCK_RECORD
  5
7DE1B343D9E11E7
102
{ACAD_XDICTIONARY
360
7DE1B343D9E1249
102
}
330
7DE1B343D9E11D0
100
AcDbSymbolTableRecord
100
AcDbBlockTableRecord
  2
*MODEL_SPACE
  0
BLOCK_RECORD
  5
7DE1B343D9E11E4
102
{ACAD_XDICTIONARY
360
7DE1B343D9E1247
102
}
330
7DE1B343D9E11D0
100
AcDbSymbolTableRecord
100
AcDbBlockTableRecord
  2
*PAPER_SPACE
  0
BLOCK_RECORD
  5
7DE1B343D9E11FF
330
7DE1B343D9E11D0
100
AcDbSymbolTableRecord
100
AcDbBlockTableRecord
  2
AVE_RENDER
  0
BLOCK_RECORD
  5
7DE1B343D9E120D
330
7DE1B343D9E11D0
100
AcDbSymbolTableRecord
100
AcDbBlockTableRecord
  2
AVE_GLOBAL
  0
ENDTAB
  0
ENDSEC
  0
SECTION
  2
BLOCKS
  0
BLOCK
  5
7DE1B343D9E11F1
330
7DE1B343D9E11E7
100
AcDbEntity
  8
0
100
AcDbBlockBegin
  2
*MODEL_SPACE
 70
     0
 10
0.0
 20
0.0
 30
0.0
  3
*MODEL_SPACE
  1

  0
ENDBLK
  5
7DE1B343D9E11F2
330
7DE1B343D9E11E7
100
AcDbEntity
  8
0
100
AcDbBlockEnd
  0
BLOCK
  5
7DE1B343D9E11EF
330
7DE1B343D9E11E4
100
AcDbEntity
 67
     1
  8
0
100
AcDbBlockBegin
  2
*PAPER_SPACE
 70
     0
 10
0.0
 20
0.0
 30
0.0
  3
*PAPER_SPACE
  1

  0
ENDBLK
  5
7DE1B343D9E11F0
330
7DE1B343D9E11E4
100
AcDbEntity
 67
     1
  8
0
100
AcDbBlockEnd
  0
BLOCK
  5
7DE1B343D9E1200
330
7DE1B343D9E11FF
100
AcDbEntity
  8
0
100
AcDbBlockBegin
  2
AVE_RENDER
 70
     0
 10
0.0
 20
0.0
 30
0.0
  3
AVE_RENDER
  1
AVE_RENDER
  0
ENDBLK
  5
7DE1B343D9E1201
330
7DE1B343D9E11FF
100
AcDbEntity
  8
0
100
AcDbBlockEnd
  0
BLOCK
  5
7DE1B343D9E120E
330
7DE1B343D9E120D
100
AcDbEntity
  8
0
100
AcDbBlockBegin
  2
AVE_GLOBAL
 70
     0
 10
0.0
 20
0.0
 30
0.0
  3
AVE_GLOBAL
  1
AVE_GLOBAL
  0
ENDBLK
  5
7DE1B343D9E120F
330
7DE1B343D9E120D
100
AcDbEntity
  8
0
100
AcDbBlockEnd
  0
ENDSEC
  0
SECTION
  2
ENTITIES
  0
LWPOLYLINE
  5
7DE1B343D9DFE04
330
7DE1B343D9E11E7
100
AcDbEntity
  8
0
100
AcDbPolyline
 90
       31
 70
     1
 43
0.0
 10
12.98827406409405
 20
14.9618695708209
 42
-0.2679491924311439
 10
12.97277406409405
 20
14.98871635833822
 10
12.97277406409406
 20
15.02910910816899
 10
12.94152406409406
 20
15.02910910816899
 42
-1.0
 10
12.94152406409406
 20
15.09160910816899
 10
13.91027406409406
 20
15.09160910816899
 10
13.91027406409406
 20
14.40410910816899
 42
-0.4142135623730951
 10
13.59777406409406
 20
14.09160910816899
 10
13.56652406409406
 20
14.09160910816899
 10
13.56652406409406
 20
13.40410910816899
 42
-0.4142135623730951
 10
13.25402406409406
 20
13.09160910816899
 10
13.25402406409406
 20
12.40410910816899
 42
-0.4142135623730935
 10
12.94152406409406
 20
12.09160910816899
 42
-1.0
 10
12.94152406409406
 20
12.15410910816899
 42
0.414213562373091
 10
13.19152406409406
 20
12.40410910816899
 10
13.19152406409406
 20
12.80973585951494
 10
12.97277406409406
 20
12.80973585951494
 10
12.97277406409405
 20
12.88075185799976
 42
-0.2679491924311364
 10
12.98827406409405
 20
12.90759864551708
 10
13.03527406409405
 20
12.93473410816899
 10
13.03527406409405
 20
12.87223585951494
 10
13.19152406409406
 20
12.87223585951494
 10
13.19152406409406
 20
13.15410910816899
 10
13.25402406409406
 20
13.15410910816899
 42
0.4142135623730951
 10
13.50402406409406
 20
13.40410910816899
 10
13.50402406409406
 20
14.15410910816899
 10
13.59777406409406
 20
14.15410910816899
 42
0.4142135623730951
 10
13.84777406409406
 20
14.40410910816899
 10
13.84777406409406
 20
15.02910910816899
 10
13.03527406409406
 20
15.02910910816899
 10
13.03527406409405
 20
14.93473410816899
  0
TEXT
  5
7DE1B343D9E1092
330
7DE1B343D9E11E7
100
AcDbEntity
  8
TEXT
100
AcDbText
 10
12.67292287361787
 20
11.78129804596822
 30
0.0
 40
0.125
  1
PART #110420
  7
ITALICC
 72
     1
 11
13.42589906409406
 21
11.78129804596822
 31
0.0
100
AcDbText
  0
TEXT
  5
7DE1B343D9E1093
330
7DE1B343D9E11E7
100
AcDbEntity
  8
TEXT
100
AcDbText
 10
13.83920422234438
 20
11.33437540329585
 30
0.0
 40
0.0522247191011236
  1
Phone  1-800-328-2495
 41
1.272321428571429
 72
     5
 11
15.16813680661404
 21
11.33437540329585
 31
0.0
100
AcDbText
  0
TEXT
  5
7DE1B343D9E1094
330
7DE1B343D9E11E7
100
AcDbEntity
  8
TEXT
100
AcDbText
 10
13.83920422234438
 20
11.61415068419472
 30
0.0
 40
0.0522247191011236
  1
Stylmark  Incorporated
 41
1.221428571428573
 72
     5
 11
15.16813680661404
 21
11.61415068419472
 31
0.0
100
AcDbText
  0
TEXT
  5
7DE1B343D9E1095
330
7DE1B343D9E11E7
100
AcDbEntity
  8
TEXT
100
AcDbText
 10
13.83920422234438
 20
11.52089225722843
 30
0.0
 40
0.0522247191011236
  1
6536 Main St. N.E. * P.O. Box 32008
 41
0.8388932496075366
 72
     5
 11
15.16813680661404
 21
11.52089225722843
 31
0.0
100
AcDbText
  0
TEXT
  5
7DE1B343D9E1096
330
7DE1B343D9E11E7
100
AcDbEntity
  8
TEXT
100
AcDbText
 10
13.83920422234438
 20
11.42763383026214
 30
0.0
 40
0.0522247191011236
  1
Minneapolis, MN 55432-0008
 41
1.11444212721585
 72
     5
 11
15.16813680661404
 21
11.42763383026214
 31
0.0
100
AcDbText
  0
LWPOLYLINE
  5
7DE1B343D9E1097
330
7DE1B343D9E11E7
100
AcDbEntity
  8
TEXT
100
AcDbPolyline
 90
        3
 70
     0
 43
0.0006660908203125
 10
11.68325053027707
 20
11.44802016593328
 10
11.68325053027707
 20
11.33478472648015
 10
11.79648596973019
 20
11.33478472648015
  0
LWPOLYLINE
  5
7DE1B343D9E109C
330
7DE1B343D9E11E7
100
AcDbEntity
  8
TEXT
100
AcDbPolyline
 90
        3
 70
     0
 43
0.0006660908203125
 10
11.70989416308957
 20
11.44802016593328
 10
11.70989416308957
 20
11.36142835929266
 10
11.79648596973019
 20
11.36142835929266
  0
LWPOLYLINE
  5
7DE1B343D9E10A1
330
7DE1B343D9E11E7
100
AcDbEntity
  8
TEXT
100
AcDbPolyline
 90
        2
 70
     0
 43
0.0001332181640625
 10
11.75652052051145
 20
11.45801152823797
 10
11.68325053027707
 20
11.44802016593328
  0
LWPOLYLINE
  5
7DE1B343D9E10A5
330
7DE1B343D9E11E7
100
AcDbEntity
  8
TEXT
100
AcDbPolyline
 90
        2
 70
     0
 43
0.0001332181640625
 10
11.70989416308957
 20
11.44802016593328
 10
11.7698423369177
 20
11.45801152823797
  0
LWPOLYLINE
  5
7DE1B343D9E10A9
330
7DE1B343D9E11E7
100
AcDbEntity
  8
TEXT
100
AcDbPolyline
 90
        2
 70
     0
 43
0.0001332181640625
 10
11.70989416308957
 20
11.36142835929266
 10
11.7698423369177
 20
11.42137653312078
  0
LWPOLYLINE
  5
7DE1B343D9E10AD
330
7DE1B343D9E11E7
100
AcDbEntity
  8
TEXT
100
AcDbPolyline
 90
        3
 70
     0
 43
0.0006660908203125
 10
11.79648596973019
 20
11.60122105460516
 10
11.68325053027707
 20
11.60122105460516
 10
11.68325053027707
 20
11.48798561515203
  0
LWPOLYLINE
  5
7DE1B343D9E10B2
330
7DE1B343D9E11E7
100
AcDbEntity
  8
TEXT
100
AcDbPolyline
 90
        3
 70
     0
 43
0.0006660908203125
 10
11.79648596973019
 20
11.57457742179266
 10
11.70989416308957
 20
11.57457742179266
 10
11.70989416308957
 20
11.48798561515203
  0
LWPOLYLINE
  5
7DE1B343D9E10B7
330
7DE1B343D9E11E7
100
AcDbEntity
  8
TEXT
100
AcDbPolyline
 90
        2
 70
     0
 43
0.0001332181640625
 10
11.70989416308957
 20
11.57457742179266
 10
11.7698423369177
 20
11.51462924796453
  0
LWPOLYLINE
  5
7DE1B343D9E10BB
330
7DE1B343D9E11E7
100
AcDbEntity
  8
TEXT
100
AcDbPolyline
 90
        2
 70
     0
 43
0.0001332181640625
 10
11.70989416308957
 20
11.48798561515203
 10
11.7698423369177
 20
11.47799425284734
  0
LWPOLYLINE
  5
7DE1B343D9E10BF
330
7DE1B343D9E11E7
100
AcDbEntity
  8
TEXT
100
AcDbPolyline
 90
        2
 70
     0
 43
0.0001332181640625
 10
11.68325053027707
 20
11.48798561515203
 10
11.75652052051145
 20
11.47799425284734
  0
LWPOLYLINE
  5
7DE1B343D9E10C3
330
7DE1B343D9E11E7
100
AcDbEntity
  8
TEXT
100
AcDbPolyline
 90
        2
 70
     0
 43
0.0006660908203125
 10
11.70989416308957
 20
11.44802016593328
 10
11.68325053027707
 20
11.44802016593328
  0
LWPOLYLINE
  5
7DE1B343D9E10C7
330
7DE1B343D9E11E7
100
AcDbEntity
  8
TEXT
100
AcDbPolyline
 90
        2
 70
     0
 43
0.0006660908203125
 10
11.70989416308957
 20
11.48798561515203
 10
11.68325053027707
 20
11.48798561515203
  0
LINE
  5
7DE1B343D9E10CB
330
7DE1B343D9E11E7
100
AcDbEntity
  8
TEXT
100
AcDbLine
 10
13.19844095940357
 20
11.53694435994839
 30
0.0
 11
13.09123468601628
 21
11.53694435994839
 31
0.0
  0
LINE
  5
7DE1B343D9E10CC
330
7DE1B343D9E11E7
100
AcDbEntity
  8
TEXT
100
AcDbLine
 10
13.22747185774805
 20
11.60122105460515
 30
0.0
 11
13.09263994853099
 21
11.60122105460515
 31
0.0
  0
ARC
  5
7DE1B343D9E10CD
330
7DE1B343D9E11E7
100
AcDbEntity
  8
TEXT
100
AcDbCircle
 10
13.15195404492431
 20
11.43198380534214
 30
0.0
 40
0.0676855811441166
100
AcDbArc
 50
90.0
 51
153.7768192527749
  0
LWPOLYLINE
  5
7DE1B343D9E10CE
330
7DE1B343D9E11E7
100
AcDbEntity
  8
TEXT
100
AcDbPolyline
 90
        2
 70
     0
 43
0.0
 10
13.09020219056147
 20
11.37823896656708
 42
0.2901071551932823
 10
13.13327812342911
 20
11.33474802161664
 42
5.328517124445801
  0
ARC
  5
7DE1B343D9E10D2
330
7DE1B343D9E11E7
100
AcDbEntity
  8
TEXT
100
AcDbCircle
 10
12.44682266725282
 20
11.39454041295469
 30
0.0
 40
0.0601160179737537
100
AcDbArc
 50
180.0000000000003
 51
264.0521544866073
  0
LINE
  5
7DE1B343D9E10D3
330
7DE1B343D9E11E7
100
AcDbEntity
  8
TEXT
100
AcDbLine
 10
12.45033802287837
 20
11.63560897219929
 30
0.0
 11
12.39029541803436
 21
11.63560897219929
 31
0.0
  0
ARC
  5
7DE1B343D9E10D4
330
7DE1B343D9E11E7
100
AcDbEntity
  8
TEXT
100
AcDbCircle
 10
12.21456366513585
 20
11.51913359515865
 30
0.0
 40
0.0820874594465043
100
AcDbArc
 50
90.0
 51
270.0
  0
LWPOLYLINE
  5
7DE1B343D9E10D5
330
7DE1B343D9E11E7
100
AcDbEntity
  8
TEXT
100
AcDbPolyline
 90
        2
 70
     0
 43
0.0001332181640625
 10
11.80647733203489
 20
11.52795106437078
 10
11.79648596973019
 20
11.60122105460516
  0
LWPOLYLINE
  5
7DE1B343D9E10D9
330
7DE1B343D9E11E7
100
AcDbEntity
  8
TEXT
100
AcDbPolyline
 90
        2
 70
     0
 43
0.0001332181640625
 10
11.79648596973019
 20
11.57457742179266
 10
11.80647733203489
 20
11.51462924796453
  0
LWPOLYLINE
  5
7DE1B343D9E10DD
330
7DE1B343D9E11E7
100
AcDbEntity
  8
TEXT
100
AcDbPolyline
 90
        3
 70
     0
 43
0.0006660908203125
 10
11.94968685840207
 20
11.48798561515203
 10
11.94968685840207
 20
11.60122105460516
 10
11.83645141894895
 20
11.60122105460516
  0
LWPOLYLINE
  5
7DE1B343D9E10E2
330
7DE1B343D9E11E7
100
AcDbEntity
  8
TEXT
100
AcDbPolyline
 90
        3
 70
     0
 43
0.0006660908203125
 10
11.92304322558957
 20
11.48798561515203
 10
11.92304322558957
 20
11.57457742179266
 10
11.83645141894895
 20
11.57457742179266
  0
LWPOLYLINE
  5
7DE1B343D9E10E7
330
7DE1B343D9E11E7
100
AcDbEntity
  8
TEXT
100
AcDbPolyline
 90
        2
 70
     0
 43
0.0001332181640625
 10
11.92304322558957
 20
11.57457742179266
 10
11.86309505176145
 20
11.51462924796453
  0
LWPOLYLINE
  5
7DE1B343D9E10EB
330
7DE1B343D9E11E7
100
AcDbEntity
  8
TEXT
100
AcDbPolyline
 90
        2
 70
     0
 43
0.0001332181640625
 10
11.83645141894895
 20
11.57457742179266
 10
11.82646005664426
 20
11.51462924796453
  0
LWPOLYLINE
  5
7DE1B343D9E10EF
330
7DE1B343D9E11E7
100
AcDbEntity
  8
TEXT
100
AcDbPolyline
 90
        2
 70
     0
 43
0.0001332181640625
 10
11.83645141894895
 20
11.60122105460516
 10
11.82646005664426
 20
11.52795106437078
  0
LWPOLYLINE
  5
7DE1B343D9E10F3
330
7DE1B343D9E11E7
100
AcDbEntity
  8
TEXT
100
AcDbPolyline
 90
        2
 70
     0
 43
0.0001332181640625
 10
11.8764168681677
 20
11.47799425284734
 10
11.94968685840207
 20
11.48798561515203
  0
LWPOLYLINE
  5
7DE1B343D9E10F7
330
7DE1B343D9E11E7
100
AcDbEntity
  8
TEXT
100
AcDbPolyline
 90
        2
 70
     0
 43
0.0001332181640625
 10
11.92304322558957
 20
11.48798561515203
 10
11.86309505176145
 20
11.47799425284734
  0
LWPOLYLINE
  5
7DE1B343D9E10FB
330
7DE1B343D9E11E7
100
AcDbEntity
  8
TEXT
100
AcDbPolyline
 90
        2
 70
     0
 43
0.0001332181640625
 10
11.94968685840207
 20
11.44802016593328
 10
11.8764168681677
 20
11.45801152823797
  0
LWPOLYLINE
  5
7DE1B343D9E10FF
330
7DE1B343D9E11E7
100
AcDbEntity
  8
TEXT
100
AcDbPolyline
 90
        2
 70
     0
 43
0.0001332181640625
 10
11.92304322558957
 20
11.44802016593328
 10
11.86309505176145
 20
11.45801152823797
  0
LWPOLYLINE
  5
7DE1B343D9E1103
330
7DE1B343D9E11E7
100
AcDbEntity
  8
TEXT
100
AcDbPolyline
 90
        2
 70
     0
 43
0.0001332181640625
 10
11.92304322558957
 20
11.36142835929266
 10
11.86309505176145
 20
11.42137653312078
  0
LWPOLYLINE
  5
7DE1B343D9E1107
330
7DE1B343D9E11E7
100
AcDbEntity
  8
TEXT
100
AcDbPolyline
 90
        3
 70
     0
 43
0.0006660908203125
 10
11.83645141894895
 20
11.36142835929266
 10
11.92304322558957
 20
11.36142835929266
 10
11.92304322558957
 20
11.44802016593328
  0
LWPOLYLINE
  5
7DE1B343D9E110C
330
7DE1B343D9E11E7
100
AcDbEntity
  8
TEXT
100
AcDbPolyline
 90
        3
 70
     0
 43
0.0006660908203125
 10
11.83645141894895
 20
11.33478472648015
 10
11.94968685840207
 20
11.33478472648015
 10
11.94968685840207
 20
11.44802016593328
  0
LWPOLYLINE
  5
7DE1B343D9E1111
330
7DE1B343D9E11E7
100
AcDbEntity
  8
TEXT
100
AcDbPolyline
 90
        5
 70
     0
 43
0.0001332181640625
 10
11.80647733203489
 20
11.40805471671453
 10
11.80647733203489
 20
11.42137653312078
 10
11.7698423369177
 20
11.42137653312078
 10
11.7698423369177
 20
11.45801152823797
 10
11.75652052051145
 20
11.45801152823797
  0
LWPOLYLINE
  5
7DE1B343D9E1118
330
7DE1B343D9E11E7
100
AcDbEntity
  8
TEXT
100
AcDbPolyline
 90
        2
 70
     0
 43
0.0006660908203125
 10
11.79648596973019
 20
11.36142835929266
 10
11.79648596973019
 20
11.33478472648015
  0
LWPOLYLINE
  5
7DE1B343D9E111C
330
7DE1B343D9E11E7
100
AcDbEntity
  8
TEXT
100
AcDbPolyline
 90
        2
 70
     0
 43
0.0001332181640625
 10
11.79648596973019
 20
11.36142835929266
 10
11.80647733203489
 20
11.42137653312078
  0
LWPOLYLINE
  5
7DE1B343D9E1120
330
7DE1B343D9E11E7
100
AcDbEntity
  8
TEXT
100
AcDbPolyline
 90
        2
 70
     0
 43
0.0001332181640625
 10
11.79648596973019
 20
11.33478472648015
 10
11.80647733203489
 20
11.40805471671453
  0
LWPOLYLINE
  5
7DE1B343D9E1124
330
7DE1B343D9E11E7
100
AcDbEntity
  8
TEXT
100
AcDbPolyline
 90
        5
 70
     0
 43
0.0001332181640625
 10
11.75652052051145
 20
11.47799425284734
 10
11.7698423369177
 20
11.47799425284734
 10
11.7698423369177
 20
11.51462924796453
 10
11.80647733203489
 20
11.51462924796453
 10
11.80647733203489
 20
11.52795106437078
  0
LWPOLYLINE
  5
7DE1B343D9E112B
330
7DE1B343D9E11E7
100
AcDbEntity
  8
TEXT
100
AcDbPolyline
 90
        5
 70
     0
 43
0.0001332181640625
 10
11.82646005664426
 20
11.52795106437078
 10
11.82646005664426
 20
11.51462924796453
 10
11.86309505176145
 20
11.51462924796453
 10
11.86309505176145
 20
11.47799425284734
 10
11.8764168681677
 20
11.47799425284734
  0
LWPOLYLINE
  5
7DE1B343D9E1132
330
7DE1B343D9E11E7
100
AcDbEntity
  8
TEXT
100
AcDbPolyline
 90
        2
 70
     0
 43
0.0001332181640625
 10
11.83645141894895
 20
11.36142835929266
 10
11.82646005664426
 20
11.42137653312078
  0
LWPOLYLINE
  5
7DE1B343D9E1136
330
7DE1B343D9E11E7
100
AcDbEntity
  8
TEXT
100
AcDbPolyline
 90
        2
 70
     0
 43
0.0001332181640625
 10
11.82646005664426
 20
11.40805471671453
 10
11.83645141894895
 20
11.33478472648015
  0
LWPOLYLINE
  5
7DE1B343D9E113A
330
7DE1B343D9E11E7
100
AcDbEntity
  8
TEXT
100
AcDbPolyline
 90
        2
 70
     0
 43
0.0006660908203125
 10
11.83645141894895
 20
11.36142835929266
 10
11.83645141894895
 20
11.33478472648015
  0
LWPOLYLINE
  5
7DE1B343D9E113E
330
7DE1B343D9E11E7
100
AcDbEntity
  8
TEXT
100
AcDbPolyline
 90
        5
 70
     0
 43
0.0001332181640625
 10
11.8764168681677
 20
11.45801152823797
 10
11.86309505176145
 20
11.45801152823797
 10
11.86309505176145
 20
11.42137653312078
 10
11.82646005664426
 20
11.42137653312078
 10
11.82646005664426
 20
11.40805471671453
  0
LWPOLYLINE
  5
7DE1B343D9E1145
330
7DE1B343D9E11E7
100
AcDbEntity
  8
TEXT
100
AcDbPolyline
 90
        2
 70
     0
 43
0.0006660908203125
 10
11.92304322558957
 20
11.48798561515203
 10
11.94968685840207
 20
11.48798561515203
  0
LWPOLYLINE
  5
7DE1B343D9E1149
330
7DE1B343D9E11E7
100
AcDbEntity
  8
TEXT
100
AcDbPolyline
 90
        2
 70
     0
 43
0.0006660908203125
 10
11.92304322558957
 20
11.44802016593328
 10
11.94968685840207
 20
11.44802016593328
  0
LINE
  5
7DE1B343D9E114D
330
7DE1B343D9E11E7
100
AcDbEntity
  8
TEXT
100
AcDbLine
 10
12.2198009952501
 20
11.53694435994839
 30
0.0
 11
12.38670664927907
 21
11.53694435994839
 31
0.0
  0
LINE
  5
7DE1B343D9E114E
330
7DE1B343D9E11E7
100
AcDbEntity
  8
TEXT
100
AcDbLine
 10
12.2854011314944
 20
11.50113963833776
 30
0.0
 11
12.2198009952501
 21
11.50113963833776
 31
0.0
  0
LINE
  5
7DE1B343D9E114F
330
7DE1B343D9E11E7
100
AcDbEntity
  8
TEXT
100
AcDbLine
 10
12.13247620568935
 20
11.33474802161664
 30
0.0
 11
12.2854011314944
 21
11.33474802161664
 31
0.0
  0
LINE
  5
7DE1B343D9E1150
330
7DE1B343D9E11E7
100
AcDbEntity
  8
TEXT
100
AcDbLine
 10
12.29034150540068
 20
11.40310502795008
 30
0.0
 11
12.13247620568934
 21
11.40310502795008
 31
0.0
  0
LINE
  5
7DE1B343D9E1151
330
7DE1B343D9E11E7
100
AcDbEntity
  8
TEXT
100
AcDbLine
 10
12.21456366513585
 20
11.43704613571215
 30
0.0
 11
12.29034150540068
 21
11.43704613571215
 31
0.0
  0
ARC
  5
7DE1B343D9E1152
330
7DE1B343D9E11E7
100
AcDbEntity
  8
TEXT
100
AcDbCircle
 10
12.2198009952501
 20
11.51904199914308
 30
0.0
 40
0.017902360805315
100
AcDbArc
 50
90.0
 51
270.0
  0
LINE
  5
7DE1B343D9E1153
330
7DE1B343D9E11E7
100
AcDbEntity
  8
TEXT
100
AcDbLine
 10
12.13247620568934
 20
11.40310502795008
 30
0.0
 11
12.13247620568935
 21
11.33474802161664
 31
0.0
  0
LINE
  5
7DE1B343D9E1154
330
7DE1B343D9E11E7
100
AcDbEntity
  8
TEXT
100
AcDbLine
 10
12.38670664927907
 20
11.53694435994839
 30
0.0
 11
12.38670664927907
 21
11.39454041295469
 31
0.0
  0
ARC
  5
7DE1B343D9E1155
330
7DE1B343D9E11E7
100
AcDbEntity
  8
TEXT
100
AcDbCircle
 10
12.2854011314944
 20
11.4179438299772
 30
0.0
 40
0.0831958083605586
100
AcDbArc
 50
270.0
 51
90.0
  0
ARC
  5
7DE1B343D9E1156
330
7DE1B343D9E11E7
100
AcDbEntity
  8
TEXT
100
AcDbCircle
 10
12.29034150540068
 20
11.42007558183112
 30
0.0
 40
0.0169705538810321
100
AcDbArc
 50
270.0
 51
90.0
  0
LWPOLYLINE
  5
7DE1B343D9E1157
330
7DE1B343D9E11E7
100
AcDbEntity
  8
TEXT
100
AcDbPolyline
 90
        2
 70
     0
 43
0.0006660908203125
 10
11.79648596973019
 20
11.57457742179266
 10
11.79648596973019
 20
11.60122105460516
  0
LWPOLYLINE
  5
7DE1B343D9E115B
330
7DE1B343D9E11E7
100
AcDbEntity
  8
TEXT
100
AcDbPolyline
 90
        2
 70
     0
 43
0.0006660908203125
 10
11.83645141894895
 20
11.57457742179266
 10
11.83645141894895
 20
11.60122105460516
  0
LINE
  5
7DE1B343D9E115F
330
7DE1B343D9E11E7
100
AcDbEntity
  8
TEXT
100
AcDbLine
 10
12.39029541803436
 20
11.60122105460515
 30
0.0
 11
12.21456366513585
 21
11.60122105460515
 31
0.0
  0
LINE
  5
7DE1B343D9E1160
330
7DE1B343D9E11E7
100
AcDbEntity
  8
TEXT
100
AcDbLine
 10
12.39029541803436
 20
11.63560897219929
 30
0.0
 11
12.39029541803436
 21
11.60122105460515
 31
0.0
  0
LINE
  5
7DE1B343D9E1161
330
7DE1B343D9E11E7
100
AcDbEntity
  8
TEXT
100
AcDbLine
 10
12.58076731005421
 20
11.50034905849203
 30
0.0
 11
12.52213698902228
 21
11.60122105460515
 31
0.0
  0
LINE
  5
7DE1B343D9E1162
330
7DE1B343D9E11E7
100
AcDbEntity
  8
TEXT
100
AcDbLine
 10
12.63951587286008
 20
11.60122105460515
 30
0.0
 11
12.58076731005421
 21
11.50034905849203
 31
0.0
  0
LINE
  5
7DE1B343D9E1163
330
7DE1B343D9E11E7
100
AcDbEntity
  8
TEXT
100
AcDbLine
 10
12.73644649821982
 20
11.41713585971964
 30
0.0
 11
12.73644649821982
 21
11.66923253234396
 31
0.0
  0
LINE
  5
7DE1B343D9E1164
330
7DE1B343D9E11E7
100
AcDbEntity
  8
TEXT
100
AcDbLine
 10
12.76875835235748
 20
11.60122105460515
 30
0.0
 11
12.76875835235748
 21
11.40035684787275
 31
0.0
  0
LINE
  5
7DE1B343D9E1165
330
7DE1B343D9E11E7
100
AcDbEntity
  8
TEXT
100
AcDbLine
 10
12.76875835235748
 20
11.40035684787275
 30
0.0
 11
12.75176471547288
 21
11.40035684787275
 31
0.0
  0
LINE
  5
7DE1B343D9E1166
330
7DE1B343D9E11E7
100
AcDbEntity
  8
TEXT
100
AcDbLine
 10
12.73758607171602
 20
11.33474802161664
 30
0.0
 11
12.83558940541545
 21
11.33474802161664
 31
0.0
  0
LINE
  5
7DE1B343D9E1167
330
7DE1B343D9E11E7
100
AcDbEntity
  8
TEXT
100
AcDbLine
 10
12.57116707305726
 20
11.35470652772166
 30
0.0
 11
12.6684667791507
 21
11.51905673865692
 31
0.0
  0
ARC
  5
7DE1B343D9E1168
330
7DE1B343D9E11E7
100
AcDbEntity
  8
TEXT
100
AcDbCircle
 10
12.53712351314505
 20
11.37429574389034
 30
0.0
 40
0.0392772371940762
100
AcDbArc
 50
270.1604552698595
 51
330.0831797321295
  0
LINE
  5
7DE1B343D9E1169
330
7DE1B343D9E11E7
100
AcDbEntity
  8
TEXT
100
AcDbLine
 10
12.44059325675918
 20
11.33474802161664
 30
0.0
 11
12.53723350783417
 21
11.33501866071493
 31
0.0
  0
LWPOLYLINE
  5
7DE1B343D9E116A
330
7DE1B343D9E11E7
100
AcDbEntity
  8
TEXT
100
AcDbPolyline
 90
        6
 70
     1
 43
0.0
 10
12.48311706033432
 20
11.53694435994839
 10
12.45280046611412
 20
11.53694435994839
 10
12.45280046611412
 20
11.41383336189349
 42
0.407328721240804
 10
12.46434411727559
 20
11.40201444721711
 10
12.52496581632033
 20
11.40201444721711
 10
12.54243115672764
 20
11.43482667626059
  0
LINE
  5
7DE1B343D9E1172
330
7DE1B343D9E11E7
100
AcDbEntity
  8
TEXT
100
AcDbLine
 10
12.6684667791507
 20
11.51905673865692
 30
0.0
 11
12.6684667791507
 21
11.38629936383157
 31
0.0
  0
ARC
  5
7DE1B343D9E1173
330
7DE1B343D9E11E7
100
AcDbEntity
  8
TEXT
100
AcDbCircle
 10
12.75176471547288
 20
11.41573865411617
 30
0.0
 40
0.0153818062434269
100
AcDbArc
 50
174.7883570302258
 51
270.0
  0
LWPOLYLINE
  5
7DE1B343D9E1174
330
7DE1B343D9E11E7
100
AcDbEntity
  8
TEXT
100
AcDbPolyline
 90
        2
 70
     0
 43
0.0
 10
12.6684667791507
 20
11.38629936383157
 42
0.3318488747599744
 10
12.73758607171602
 20
11.33474802161664
 42
-6.868794160588311
  0
LINE
  5
7DE1B343D9E1178
330
7DE1B343D9E11E7
100
AcDbEntity
  8
TEXT
100
AcDbLine
 10
12.89297847440471
 20
11.33474802161664
 30
0.0
 11
12.96003652118655
 21
11.33474802161664
 31
0.0
  0
LINE
  5
7DE1B343D9E1179
330
7DE1B343D9E11E7
100
AcDbEntity
  8
TEXT
100
AcDbLine
 10
12.89297847440471
 20
11.52939057078228
 30
0.0
 11
12.89297847440471
 21
11.33474802161664
 31
0.0
  0
LINE
  5
7DE1B343D9E117A
330
7DE1B343D9E11E7
100
AcDbEntity
  8
TEXT
100
AcDbLine
 10
12.83558940541545
 20
11.53694435994839
 30
0.0
 11
12.8854246852386
 21
11.53694435994839
 31
0.0
  0
LINE
  5
7DE1B343D9E117B
330
7DE1B343D9E11E7
100
AcDbEntity
  8
TEXT
100
AcDbLine
 10
12.83558940541545
 20
11.33474802161664
 30
0.0
 11
12.83558940541545
 21
11.53694435994839
 31
0.0
  0
LWPOLYLINE
  5
7DE1B343D9E117C
330
7DE1B343D9E11E7
100
AcDbEntity
  8
TEXT
100
AcDbPolyline
 90
        2
 70
     0
 43
0.0
 10
12.8854246852386
 20
11.53694435994839
 42
-0.4142135623731017
 10
12.89297847440471
 20
11.52939057078228
 42
-0.9999999999999998
  0
LINE
  5
7DE1B343D9E1180
330
7DE1B343D9E11E7
100
AcDbEntity
  8
TEXT
100
AcDbLine
 10
13.09123468601628
 20
11.53694435994839
 30
0.0
 11
13.09123468601628
 21
11.46189195387418
 31
0.0
  0
LINE
  5
7DE1B343D9E1181
330
7DE1B343D9E11E7
100
AcDbEntity
  8
TEXT
100
AcDbLine
 10
12.96003652118655
 20
11.53694435994839
 30
0.0
 11
13.0141701181075
 21
11.53694435994839
 31
0.0
  0
LINE
  5
7DE1B343D9E1182
330
7DE1B343D9E11E7
100
AcDbEntity
  8
TEXT
100
AcDbLine
 10
12.96003652118655
 20
11.33474802161664
 30
0.0
 11
12.96003652118655
 21
11.53694435994839
 31
0.0
  0
LWPOLYLINE
  5
7DE1B343D9E1183
330
7DE1B343D9E11E7
100
AcDbEntity
  8
TEXT
100
AcDbPolyline
 90
        2
 70
     0
 43
0.0
 10
13.0141701181075
 20
11.53694435994839
 42
-0.4142135623731017
 10
13.02172390727361
 20
11.52939057078228
 42
-0.9999999999999998
  0
LWPOLYLINE
  5
7DE1B343D9E1187
330
7DE1B343D9E11E7
100
AcDbEntity
  8
TEXT
100
AcDbPolyline
 90
        4
 70
     0
 43
0.0
 10
13.02172390727361
 20
11.52939057078228
 10
13.02172390727361
 20
11.33474802161664
 10
13.09020219056147
 20
11.33474802161664
 10
13.09020219056147
 20
11.37823896656708
 42
-1.714843617202739
  0
LINE
  5
7DE1B343D9E118D
330
7DE1B343D9E11E7
100
AcDbEntity
  8
TEXT
100
AcDbLine
 10
12.45033802287837
 20
11.60122105460515
 30
0.0
 11
12.45033802287837
 21
11.63560897219929
 31
0.0
  0
LINE
  5
7DE1B343D9E118E
330
7DE1B343D9E11E7
100
AcDbEntity
  8
TEXT
100
AcDbLine
 10
12.52213698902228
 20
11.60122105460515
 30
0.0
 11
12.45033802287837
 21
11.60122105460515
 31
0.0
  0
LINE
  5
7DE1B343D9E118F
330
7DE1B343D9E11E7
100
AcDbEntity
  8
TEXT
100
AcDbLine
 10
12.66963778565346
 20
11.60122105460515
 30
0.0
 11
12.63951587286008
 21
11.60122105460515
 31
0.0
  0
LINE
  5
7DE1B343D9E1190
330
7DE1B343D9E11E7
100
AcDbEntity
  8
TEXT
100
AcDbLine
 10
12.66963778565346
 20
11.66923253234396
 30
0.0
 11
12.66963778565346
 21
11.60122105460515
 31
0.0
  0
LINE
  5
7DE1B343D9E1191
330
7DE1B343D9E11E7
100
AcDbEntity
  8
TEXT
100
AcDbLine
 10
12.73644649821982
 20
11.66923253234396
 30
0.0
 11
12.66963778565346
 21
11.66923253234396
 31
0.0
  0
LWPOLYLINE
  5
7DE1B343D9E1192
330
7DE1B343D9E11E7
100
AcDbEntity
  8
TEXT
100
AcDbPolyline
 90
        3
 70
     0
 43
0.0
 10
13.05685825781782
 20
11.60122105460516
 10
12.93855809900178
 20
11.60122105460516
 10
12.93855809900178
 20
11.57405355784426
 42
-1.960274751411753
  0
LINE
  5
7DE1B343D9E1197
330
7DE1B343D9E11E7
100
AcDbEntity
  8
TEXT
100
AcDbLine
 10
12.90277640828862
 20
11.60122105460515
 30
0.0
 11
12.76875835235748
 21
11.60122105460515
 31
0.0
  0
LWPOLYLINE
  5
7DE1B343D9E1198
330
7DE1B343D9E11E7
100
AcDbEntity
  8
TEXT
100
AcDbPolyline
 90
        2
 70
     0
 43
0.0
 10
12.90277640828862
 20
11.60122105460516
 42
-0.3328679258950098
 10
12.93855809900178
 20
11.57405355784426
 42
6.772930709997214
  0
LINE
  5
7DE1B343D9E119C
330
7DE1B343D9E11E7
100
AcDbEntity
  8
TEXT
100
AcDbLine
 10
13.09263994853099
 20
11.60122105460515
 30
0.0
 11
13.09263994853099
 21
11.57289850883551
 31
0.0
  0
LWPOLYLINE
  5
7DE1B343D9E119D
330
7DE1B343D9E11E7
100
AcDbEntity
  8
TEXT
100
AcDbPolyline
 90
        2
 70
     0
 43
0.0
 10
13.05685825781782
 20
11.60122105460516
 42
-0.3277054968067132
 10
13.09263994853099
 20
11.57289850883551
 42
6.667889725900311
  0
LINE
  5
7DE1B343D9E11A1
330
7DE1B343D9E11E7
100
AcDbEntity
  8
TEXT
100
AcDbLine
 10
13.30643179662309
 20
11.49600907605173
 30
0.0
 11
13.26268102544119
 21
11.57825935204787
 31
0.0
  0
LINE
  5
7DE1B343D9E11A2
330
7DE1B343D9E11E7
100
AcDbEntity
  8
TEXT
100
AcDbLine
 10
13.30643179662309
 20
11.60122105460515
 30
0.0
 11
13.30643179662309
 21
11.49600907605173
 31
0.0
  0
LINE
  5
7DE1B343D9E11A3
330
7DE1B343D9E11E7
100
AcDbEntity
  8
TEXT
100
AcDbLine
 10
13.53411553556146
 20
11.52535572819362
 30
0.0
 11
13.53411553556146
 21
11.66668526037275
 31
0.0
  0
LINE
  5
7DE1B343D9E11A4
330
7DE1B343D9E11E7
100
AcDbEntity
  8
TEXT
100
AcDbLine
 10
13.58121369411744
 20
11.60122105460515
 30
0.0
 11
13.53411553556146
 21
11.52535572819362
 31
0.0
  0
LINE
  5
7DE1B343D9E11A5
330
7DE1B343D9E11E7
100
AcDbEntity
  8
TEXT
100
AcDbLine
 10
13.59164841088137
 20
11.49132781166418
 30
0.0
 11
13.65620552684707
 21
11.60122105460515
 31
0.0
  0
LINE
  5
7DE1B343D9E11A6
330
7DE1B343D9E11E7
100
AcDbEntity
  8
TEXT
100
AcDbLine
 10
13.47028054433869
 20
11.33474802161664
 30
0.0
 11
13.53465872865731
 21
11.33474802161664
 31
0.0
  0
LWPOLYLINE
  5
7DE1B343D9E11A7
330
7DE1B343D9E11E7
100
AcDbEntity
  8
TEXT
100
AcDbPolyline
 90
        2
 70
     0
 43
0.0
 10
13.31037147392813
 20
11.37823896656708
 42
-0.2901071551932486
 10
13.26729554106048
 20
11.33474802161664
 42
-5.328517124445184
  0
ARC
  5
7DE1B343D9E11AB
330
7DE1B343D9E11E7
100
AcDbEntity
  8
TEXT
100
AcDbCircle
 10
13.19844095940357
 20
11.50858498494839
 30
0.0
 40
0.028359375
100
AcDbArc
 50
25.78218179591245
 51
90.0
  0
LINE
  5
7DE1B343D9E11AC
330
7DE1B343D9E11E7
100
AcDbEntity
  8
TEXT
100
AcDbLine
 10
13.23424203470769
 20
11.49966938648626
 30
0.0
 11
13.22397727429413
 21
11.52091992605895
 31
0.0
  0
LINE
  5
7DE1B343D9E11AD
330
7DE1B343D9E11E7
100
AcDbEntity
  8
TEXT
100
AcDbLine
 10
13.15195404492431
 20
11.49966938648626
 30
0.0
 11
13.23424203470769
 21
11.49966938648626
 31
0.0
  0
LWPOLYLINE
  5
7DE1B343D9E11AE
330
7DE1B343D9E11E7
100
AcDbEntity
  8
TEXT
100
AcDbPolyline
 90
        4
 70
     1
 43
0.0
 10
13.24717307599059
 20
11.43771199960067
 10
13.15851275733073
 20
11.43771199960067
 42
0.9999999999999998
 10
13.15851275733073
 20
11.39531345909681
 10
13.24717307599059
 20
11.39531345909681
 42
1.0
  0
LWPOLYLINE
  5
7DE1B343D9E11B4
330
7DE1B343D9E11E7
100
AcDbEntity
  8
TEXT
100
AcDbPolyline
 90
        2
 70
     0
 43
0.0
 10
13.13327812342911
 20
11.33474802161664
 10
13.26729554106048
 20
11.33474802161664
 42
0.9999999999999998
  0
LINE
  5
7DE1B343D9E11B8
330
7DE1B343D9E11E7
100
AcDbEntity
  8
TEXT
100
AcDbLine
 10
13.39363256304612
 20
11.53694435994839
 30
0.0
 11
13.47028054433868
 21
11.53694435994839
 31
0.0
  0
LINE
  5
7DE1B343D9E11B9
330
7DE1B343D9E11E7
100
AcDbEntity
  8
TEXT
100
AcDbLine
 10
13.47028054433868
 20
11.53694435994839
 30
0.0
 11
13.47028054433869
 21
11.33474802161664
 31
0.0
  0
ARC
  5
7DE1B343D9E11BA
330
7DE1B343D9E11E7
100
AcDbEntity
  8
TEXT
100
AcDbCircle
 10
13.39363256304612
 20
11.51203848466572
 30
0.0
 40
0.0249058752826653
100
AcDbArc
 50
89.99971217465335
 51
179.9999999999985
  0
LINE
  5
7DE1B343D9E11BB
330
7DE1B343D9E11E7
100
AcDbEntity
  8
TEXT
100
AcDbLine
 10
13.36872668776346
 20
11.33474802161664
 30
0.0
 11
13.36872668776346
 21
11.51203852704811
 31
0.0
  0
LWPOLYLINE
  5
7DE1B343D9E11BC
330
7DE1B343D9E11E7
100
AcDbEntity
  8
TEXT
100
AcDbPolyline
 90
        2
 70
     0
 43
0.0
 10
13.31037147392813
 20
11.33474802161664
 10
13.36872668776346
 20
11.33474802161664
  0
LWPOLYLINE
  5
7DE1B343D9E11C0
330
7DE1B343D9E11E7
100
AcDbEntity
  8
TEXT
100
AcDbPolyline
 90
        2
 70
     0
 43
0.0
 10
13.31037147392813
 20
11.37823896656708
 10
13.31037147392813
 20
11.33474802161664
  0
LINE
  5
7DE1B343D9E11C4
330
7DE1B343D9E11E7
100
AcDbEntity
  8
TEXT
100
AcDbLine
 10
13.68714063424498
 20
11.33474802161664
 30
0.0
 11
13.59164841088137
 21
11.49132781166418
 31
0.0
  0
LINE
  5
7DE1B343D9E11C5
330
7DE1B343D9E11E7
100
AcDbEntity
  8
TEXT
100
AcDbLine
 10
13.61056226186877
 20
11.33474802161664
 30
0.0
 11
13.68714063424498
 21
11.33474802161664
 31
0.0
  0
LINE
  5
7DE1B343D9E11C6
330
7DE1B343D9E11E7
100
AcDbEntity
  8
TEXT
100
AcDbLine
 10
13.53465872865731
 20
11.46632759009282
 30
0.0
 11
13.61056226186877
 21
11.33474802161664
 31
0.0
  0
LINE
  5
7DE1B343D9E11C7
330
7DE1B343D9E11E7
100
AcDbEntity
  8
TEXT
100
AcDbLine
 10
13.53465872865731
 20
11.33474802161664
 30
0.0
 11
13.53465872865731
 21
11.46632759009282
 31
0.0
  0
LINE
  5
7DE1B343D9E11C8
330
7DE1B343D9E11E7
100
AcDbEntity
  8
TEXT
100
AcDbLine
 10
13.53411553556146
 20
11.66668526037275
 30
0.0
 11
13.46580065701219
 21
11.66668526037275
 31
0.0
  0
ARC
  5
7DE1B343D9E11C9
330
7DE1B343D9E11E7
100
AcDbEntity
  8
TEXT
100
AcDbCircle
 10
13.22544491797098
 20
11.55963748748425
 30
0.0
 40
0.0416329381542859
100
AcDbArc
 50
26.56974201007528
 51
87.20939649401342
  0
LINE
  5
7DE1B343D9E11CA
330
7DE1B343D9E11E7
100
AcDbEntity
  8
TEXT
100
AcDbLine
 10
13.37032870292259
 20
11.60122105460515
 30
0.0
 11
13.30643179662309
 21
11.60122105460515
 31
0.0
  0
LINE
  5
7DE1B343D9E11CB
330
7DE1B343D9E11E7
100
AcDbEntity
  8
TEXT
100
AcDbLine
 10
13.37032870292259
 20
11.57367340474428
 30
0.0
 11
13.37032870292259
 21
11.60122105460515
 31
0.0
  0
ARC
  5
7DE1B343D9E11CC
330
7DE1B343D9E11E7
100
AcDbEntity
  8
TEXT
100
AcDbCircle
 10
13.4015215199857
 20
11.56997532732289
 30
0.0
 40
0.0314112657011332
100
AcDbArc
 50
95.88484768694724
 51
173.2388340632136
  0
LINE
  5
7DE1B343D9E11CD
330
7DE1B343D9E11E7
100
AcDbEntity
  8
TEXT
100
AcDbLine
 10
13.46580065701218
 20
11.60122105460515
 30
0.0
 11
13.39830093936266
 21
11.60122105460515
 31
0.0
  0
LINE
  5
7DE1B343D9E11CE
330
7DE1B343D9E11E7
100
AcDbEntity
  8
TEXT
100
AcDbLine
 10
13.46580065701219
 20
11.66668526037275
 30
0.0
 11
13.46580065701218
 21
11.60122105460515
 31
0.0
  0
LINE
  5
7DE1B343D9E11CF
330
7DE1B343D9E11E7
100
AcDbEntity
  8
TEXT
100
AcDbLine
 10
13.65620552684707
 20
11.60122105460515
 30
0.0
 11
13.58121369411745
 21
11.60122105460515
 31
0.0
  0
INSERT
  5
7DE1B343D9E1202
330
7DE1B343D9E11E7
100
AcDbEntity
  8
ASHADE
 62
     1
100
AcDbBlockReference
  2
AVE_RENDER
 10
0.0
 20
0.0
 30
0.0
1001
AVE_RENDER
1002
{
1070
     6
1000
Pref
1070
    30
1070
    20
1070
     1
1070
     0
1000

1070
    10
1070
     1
1070
    30
1040
1.0
1070
     1
1040
0.3
1040
0.7
1040
0.0
1040
10.0
1010
-1.0
1020
-1.0
1030
-1.0
1040
0.3
1070
    49
1070
     0
1070
     0
1010
1.0
1020
1.0
1030
1.0
1040
45.0
1070
     1
1070
     0
1000
WCS
1040
0.0
1002
}
  0
INSERT
  5
7DE1B343D9E1203
330
7DE1B343D9E11E7
100
AcDbEntity
  8
ASHADE
 62
     3
100
AcDbBlockReference
  2
AVE_RENDER
 10
0.0
 20
0.0
 30
0.0
1001
AVE_RENDER
1002
{
1070
     0
1000
Full Opt
1070
     0
1070
     1
1070
     1
1070
     1
1070
     0
1070
     0
1070
     0
1070
     1
1070
     1
1040
0.0001
1040
0.0001
1002
}
  0
INSERT
  5
7DE1B343D9E1204
330
7DE1B343D9E11E7
100
AcDbEntity
  8
ASHADE
 62
     4
100
AcDbBlockReference
  2
AVE_RENDER
 10
0.0
 20
0.0
 30
0.0
1001
AVE_RENDER
1002
{
1070
     0
1000
Quick Opt
1070
     0
1070
     1
1070
     1
1070
     1
1070
     0
1070
     0
1070
     1
1002
}
  0
INSERT
  5
7DE1B343D9E1205
330
7DE1B343D9E11E7
100
AcDbEntity
  8
ASHADE
 62
     5
100
AcDbBlockReference
  2
AVE_RENDER
 10
0.0
 20
0.0
 30
0.0
1001
AVE_RENDER
1002
{
1070
     1
1000
Scanl Opt
1070
     2
1070
     0
1070
     2
1040
2.0
1040
4.0
1070
     0
1070
     1
1070
     0
1040
0.03
1002
}
  0
INSERT
  5
7DE1B343D9E1206
330
7DE1B343D9E11E7
100
AcDbEntity
  8
ASHADE
 62
     6
100
AcDbBlockReference
  2
AVE_RENDER
 10
0.0
 20
0.0
 30
0.0
1001
AVE_RENDER
1002
{
1070
     2
1000
Raytr Opt
1070
     2
1070
     0
1070
     2
1040
2.0
1040
4.0
1070
     0
1070
     1
1070
     1
1040
0.03
1070
     3
1040
0.03
1002
}
  0
INSERT
  5
7DE1B343D9E1207
330
7DE1B343D9E11E7
100
AcDbEntity
  8
ASHADE
 62
     7
100
AcDbBlockReference
  2
AVE_RENDER
 10
0.0
 20
0.0
 30
0.0
1001
AVE_RENDER
1002
{
1070
     0
1000
RFile Opt
1070
     5
1070
   640
1070
   480
1070
 10000
1070
     3
1070
    32
1070
    24
1070
     0
1070
     0
1070
     0
1070
     1
1070
     0
1070
     0
1070
     0
1002
}
  0
INSERT
  5
7DE1B343D9E1208
330
7DE1B343D9E11E7
100
AcDbEntity
  8
ASHADE
 62
     8
100
AcDbBlockReference
  2
AVE_RENDER
 10
0.0
 20
0.0
 30
0.0
1001
AVE_RENDER
1002
{
1070
     0
1000
Fog Opt
1070
     0
1070
     0
1040
0.0
1040
1.0
1040
0.0
1040
1.0
1010
0.5
1020
0.5
1030
0.5
1002
}
  0
INSERT
  5
7DE1B343D9E1209
330
7DE1B343D9E11E7
100
AcDbEntity
  8
ASHADE
 62
     9
100
AcDbBlockReference
  2
AVE_RENDER
 10
0.0
 20
0.0
 30
0.0
1001
AVE_RENDER
1002
{
1070
     0
1000
BG Opt
1070
     0
1070
     1
1010
0.0
1020
0.0
1030
0.0
1010
1.0
1020
0.0
1030
0.0
1010
0.0
1020
1.0
1030
0.0
1010
0.0
1020
0.0
1030
1.0
1040
0.5
1040
0.33
1040
0.0
1000

1070
     1
1000

1070
     1
1070
     1
1040
1.0
1040
1.0
1040
0.0
1040
0.0
1070
     0
1002
}
  0
INSERT
  5
7DE1B343D9E1210
330
7DE1B343D9E11E7
100
AcDbEntity
  8
ASHADE
 62
     1
100
AcDbBlockReference
  2
AVE_GLOBAL
 10
0.0
 20
0.0
 30
0.0
1001
AVE_MATERIAL
1002
{
1000
*GLOBAL*
1000
1
1000
Global finish.
1002
{
1002
}
1002
{
1070
    63
1002
{
1002
{
1010
-1.0
1020
-1.0
1030
-1.0
1002
}
1040
0.1000000014901161
1000

1040
0.0
1002
{
1002
}
1040
0.0
1002
{
1002
}
1040
0.0
1002
}
1002
{
1002
{
1010
-1.0
1020
-1.0
1030
-1.0
1002
}
1040
0.6999999880790711
1000

1040
0.0
1002
{
1002
}
1040
0.0
1002
{
1002
}
1040
0.0
1002
}
1002
{
1002
{
1010
-1.0
1020
-1.0
1030
-1.0
1002
}
1040
0.2000000029802322
1000

1040
0.0
1002
{
1002
}
1040
0.0
1002
{
1002
}
1040
0.0
1002
}
1002
{
1070
     0
1002
{
1070
     1
1002
{
1040
1.0
1040
1.0
1000

1040
0.0
1002
{
1002
}
1040
0.0
1002
{
1002
}
1040
0.0
1002
}
1002
}
1040
1.0
1040
0.0
1040
0.0
1002
}
1002
{
1040
1.0
1040
1.0
1000

1040
0.0
1002
{
1002
}
1040
0.0
1002
{
1002
}
1040
0.0
1002
}
1002
{
1040
0.5
1040
1.0
1000

1040
0.0
1002
{
1002
}
1040
0.0
1002
{
1002
}
1040
0.0
1002
}
1002
{
1070
     0
1040
0.0
1002
{
1002
}
1040
1.0
1002
{
1002
}
1040
0.0
1002
}
1002
{
1040
0.0
1002
{
1002
{
1010
0.0
1020
0.0
1030
0.0
1002
}
1040
1.0
1000

1040
0.0
1002
{
1002
}
1040
0.0
1002
{
1002
}
1040
0.0
1002
}
1002
}
1002
{
1002
{
1070
     1
1002
{
1040
0.0
1040
1.0
1000

1040
0.0
1002
{
1002
}
1040
0.0
1002
{
1002
}
1040
0.0
1002
}
1002
}
1040
0.0
1002
{
1002
}
1010
1.0
1020
0.0
1030
0.0
1010
0.0
1020
1.0
1030
0.0
1010
0.0
1020
0.0
1030
1.0
1070
     0
1002
}
1002
{
1002
{
1040
1.0
1040
1.0
1002
{
1070
     1
1002
{
1040
1.0
1040
1.0
1000

1040
0.0
1002
{
1002
}
1040
0.0
1002
{
1002
}
1040
0.0
1002
}
1002
}
1002
}
1070
     0
1040
0.0
1002
{
1002
}
1002
}
1002
{
1002
}
1002
}
1002
{
1071
        3
1070
     3
1070
     0
1002
{
1070
     2
1070
     0
1070
     0
1040
0.0
1002
}
1070
     0
1070
     2
1002
{
1002
}
1002
}
1002
{
1040
8030.0
1040
190.3000030517578
1040
0.3050000071525574
1040
228.0
1040
545.0
1040
14.0
1040
17.39999961853027
1040
0.4560000002384186
1002
}
1002
}
  0
ENDSEC
  0
SECTION
  2
OBJECTS
  0
DICTIONARY
  5
7DE1B343D9E11DB
330
0
100
AcDbDictionary
  3
ACAD_GROUP
350
7DE1B343D9E11DC
  3
ACAD_LAYOUT
350
7DE1B343D9E121C
  3
ACAD_MLINESTYLE
350
7DE1B343D9E11DD
  3
ACAD_PLOTSETTINGS
350
7DE1B343D9E121D
  3
ACAD_PLOTSTYLENAME
350
7DE1B343D9E121A
  3
ACDBHEADERROUNDTRIPXREC
350
7DE1B343D9E1227
  3
ACDBVARIABLEDICTIONARY
350
7DE1B343D9E1224
  0
DICTIONARY
  5
7DE1B343D9E1249
330
7DE1B343D9E11E7
100
AcDbDictionary
280
     1
  3
ACAD_LAYOUTSELFREF
360
7DE1B343D9E124A
  0
DICTIONARY
  5
7DE1B343D9E1247
330
7DE1B343D9E11E4
100
AcDbDictionary
280
     1
  3
ACAD_LAYOUTSELFREF
360
7DE1B343D9E1248
  0
DICTIONARY
  5
7DE1B343D9E11DC
102
{ACAD_REACTORS
330
7DE1B343D9E11DB
102
}
330
7DE1B343D9E11DB
100
AcDbDictionary
  0
DICTIONARY
  5
7DE1B343D9E121C
102
{ACAD_REACTORS
330
7DE1B343D9E11DB
102
}
330
7DE1B343D9E11DB
100
AcDbDictionary
  0
DICTIONARY
  5
7DE1B343D9E11DD
102
{ACAD_REACTORS
330
7DE1B343D9E11DB
102
}
330
7DE1B343D9E11DB
100
AcDbDictionary
  3
STANDARD
350
7DE1B343D9E11EA
  0
DICTIONARY
  5
7DE1B343D9E121D
102
{ACAD_REACTORS
330
7DE1B343D9E11DB
102
}
330
7DE1B343D9E11DB
100
AcDbDictionary
  0
ACDBDICTIONARYWDFLT
  5
7DE1B343D9E121A
102
{ACAD_REACTORS
330
7DE1B343D9E11DB
102
}
330
7DE1B343D9E11DB
100
AcDbDictionary
281
     1
  3
Normal
350
7DE1B343D9E121B
100
AcDbDictionaryWithDefault
340
7DE1B343D9E121B
  0
DICTIONARY
  5
7DE1B343D9E1227
102
{ACAD_REACTORS
330
7DE1B343D9E11DB
102
}
330
7DE1B343D9E11DB
100
AcDbDictionary
  3
CEPSNTYPE
350
7DE1B343D9E1231
  3
FINGERPRINTGUID
350
7DE1B343D9E1232
  3
HYPERLINKBASE
350
7DE1B343D9E122A
  3
INSUNITS
350
7DE1B343D9E1230
  3
LAYOUTDICT
350
7DE1B343D9E122C
  3
LWETCUNION
350
7DE1B343D9E122F
  3
PLOTSETDICT
350
7DE1B343D9E122D
  3
PLOTSTYLNAMDICT
350
7DE1B343D9E122E
  3
PSVPSCALE
350
7DE1B343D9E1234
  3
PUCSBASE
350
7DE1B343D9E1237
  3
PUCSORGBACK
350
7DE1B343D9E123D
  3
PUCSORGBOTTOM
350
7DE1B343D9E1239
  3
PUCSORGFRONT
350
7DE1B343D9E123C
  3
PUCSORGLEFT
350
7DE1B343D9E123A
  3
PUCSORGRIGHT
350
7DE1B343D9E123B
  3
PUCSORGTOP
350
7DE1B343D9E1238
  3
PUCSORTHOREF
350
7DE1B343D9E1235
  3
PUCSORTHOVIEW
350
7DE1B343D9E1236
  3
STYLESHEET
350
7DE1B343D9E122B
  3
TSTACKALIGN
350
7DE1B343D9E1228
  3
TSTACKSIZE
350
7DE1B343D9E1229
  3
UCSBASE
350
7DE1B343D9E1240
  3
UCSORGBACK
350
7DE1B343D9E1246
  3
UCSORGBOTTOM
350
7DE1B343D9E1242
  3
UCSORGFRONT
350
7DE1B343D9E1245
  3
UCSORGLEFT
350
7DE1B343D9E1243
  3
UCSORGRIGHT
350
7DE1B343D9E1244
  3
UCSORGTOP
350
7DE1B343D9E1241
  3
UCSORTHOREF
350
7DE1B343D9E123E
  3
UCSORTHOVIEW
350
7DE1B343D9E123F
  3
VERSIONGUID
350
7DE1B343D9E1233
  0
DICTIONARY
  5
7DE1B343D9E1224
102
{ACAD_REACTORS
330
7DE1B343D9E11DB
102
}
330
7DE1B343D9E11DB
100
AcDbDictionary
  3
DIMASSOC
350
7DE1B343D9E1225
  0
XRECORD
  5
7DE1B343D9E124A
102
{ACAD_REACTORS
330
7DE1B343D9E1249
102
}
330
7DE1B343D9E1249
100
AcDbXrecord
340
7DE1B343D9E11E7
  0
XRECORD
  5
7DE1B343D9E1248
102
{ACAD_REACTORS
330
7DE1B343D9E1247
102
}
330
7DE1B343D9E1247
100
AcDbXrecord
340
7DE1B343D9E11E4
  0
MLINESTYLE
  5
7DE1B343D9E11EA
102
{ACAD_REACTORS
330
7DE1B343D9E11DD
102
}
330
7DE1B343D9E11DD
100
AcDbMlineStyle
  2
STANDARD
 70
     0
  3

 62
     0
 51
90.0
 52
90.0
 71
     2
 49
0.5
 62
   256
  6
BYLAYER
 49
-0.5
 62
   256
  6
BYLAYER
  0
ACDBPLACEHOLDER
  5
7DE1B343D9E121B
102
{ACAD_REACTORS
330
7DE1B343D9E121A
102
}
330
7DE1B343D9E121A
100
AcDbPlaceHolder
280
     0
  0
XRECORD
  5
7DE1B343D9E1231
102
{ACAD_REACTORS
330
7DE1B343D9E1227
102
}
330
7DE1B343D9E1227
100
AcDbXrecord
 90
        0
  0
XRECORD
  5
7DE1B343D9E1232
102
{ACAD_REACTORS
330
7DE1B343D9E1227
102
}
330
7DE1B343D9E1227
100
AcDbXrecord
  1
{397DF3E0-8DB7-11D6-88E6-0090279574E7}
  0
XRECORD
  5
7DE1B343D9E122A
102
{ACAD_REACTORS
330
7DE1B343D9E1227
102
}
330
7DE1B343D9E1227
100
AcDbXrecord
  1

  0
XRECORD
  5
7DE1B343D9E1230
102
{ACAD_REACTORS
330
7DE1B343D9E1227
102
}
330
7DE1B343D9E1227
100
AcDbXrecord
 90
        0
  0
XRECORD
  5
7DE1B343D9E122C
102
{ACAD_REACTORS
330
7DE1B343D9E1227
102
}
330
7DE1B343D9E1227
100
AcDbXrecord
340
7DE1B343D9E121C
  0
XRECORD
  5
7DE1B343D9E122F
102
{ACAD_REACTORS
330
7DE1B343D9E1227
102
}
330
7DE1B343D9E1227
100
AcDbXrecord
 90
    14877
  0
XRECORD
  5
7DE1B343D9E122D
102
{ACAD_REACTORS
330
7DE1B343D9E1227
102
}
330
7DE1B343D9E1227
100
AcDbXrecord
340
7DE1B343D9E121D
  0
XRECORD
  5
7DE1B343D9E122E
102
{ACAD_REACTORS
330
7DE1B343D9E1227
102
}
330
7DE1B343D9E1227
100
AcDbXrecord
340
7DE1B343D9E121A
  0
XRECORD
  5
7DE1B343D9E1234
102
{ACAD_REACTORS
330
7DE1B343D9E1227
102
}
330
7DE1B343D9E1227
100
AcDbXrecord
 40
0.0
  0
XRECORD
  5
7DE1B343D9E1237
102
{ACAD_REACTORS
330
7DE1B343D9E1227
102
}
330
7DE1B343D9E1227
100
AcDbXrecord
340
0
  0
XRECORD
  5
7DE1B343D9E123D
102
{ACAD_REACTORS
330
7DE1B343D9E1227
102
}
330
7DE1B343D9E1227
100
AcDbXrecord
 10
0.0
 20
0.0
 30
0.0
  0
XRECORD
  5
7DE1B343D9E1239
102
{ACAD_REACTORS
330
7DE1B343D9E1227
102
}
330
7DE1B343D9E1227
100
AcDbXrecord
 10
0.0
 20
0.0
 30
0.0
  0
XRECORD
  5
7DE1B343D9E123C
102
{ACAD_REACTORS
330
7DE1B343D9E1227
102
}
330
7DE1B343D9E1227
100
AcDbXrecord
 10
0.0
 20
0.0
 30
0.0
  0
XRECORD
  5
7DE1B343D9E123A
102
{ACAD_REACTORS
330
7DE1B343D9E1227
102
}
330
7DE1B343D9E1227
100
AcDbXrecord
 10
0.0
 20
0.0
 30
0.0
  0
XRECORD
  5
7DE1B343D9E123B
102
{ACAD_REACTORS
330
7DE1B343D9E1227
102
}
330
7DE1B343D9E1227
100
AcDbXrecord
 10
0.0
 20
0.0
 30
0.0
  0
XRECORD
  5
7DE1B343D9E1238
102
{ACAD_REACTORS
330
7DE1B343D9E1227
102
}
330
7DE1B343D9E1227
100
AcDbXrecord
 10
0.0
 20
0.0
 30
0.0
  0
XRECORD
  5
7DE1B343D9E1235
102
{ACAD_REACTORS
330
7DE1B343D9E1227
102
}
330
7DE1B343D9E1227
100
AcDbXrecord
340
0
  0
XRECORD
  5
7DE1B343D9E1236
102
{ACAD_REACTORS
330
7DE1B343D9E1227
102
}
330
7DE1B343D9E1227
100
AcDbXrecord
 70
     0
  0
XRECORD
  5
7DE1B343D9E122B
102
{ACAD_REACTORS
330
7DE1B343D9E1227
102
}
330
7DE1B343D9E1227
100
AcDbXrecord
  1

  0
XRECORD
  5
7DE1B343D9E1228
102
{ACAD_REACTORS
330
7DE1B343D9E1227
102
}
330
7DE1B343D9E1227
100
AcDbXrecord
 90
        1
  0
XRECORD
  5
7DE1B343D9E1229
102
{ACAD_REACTORS
330
7DE1B343D9E1227
102
}
330
7DE1B343D9E1227
100
AcDbXrecord
 90
       70
  0
XRECORD
  5
7DE1B343D9E1240
102
{ACAD_REACTORS
330
7DE1B343D9E1227
102
}
330
7DE1B343D9E1227
100
AcDbXrecord
340
0
  0
XRECORD
  5
7DE1B343D9E1246
102
{ACAD_REACTORS
330
7DE1B343D9E1227
102
}
330
7DE1B343D9E1227
100
AcDbXrecord
 10
0.0
 20
0.0
 30
0.0
  0
XRECORD
  5
7DE1B343D9E1242
102
{ACAD_REACTORS
330
7DE1B343D9E1227
102
}
330
7DE1B343D9E1227
100
AcDbXrecord
 10
0.0
 20
0.0
 30
0.0
  0
XRECORD
  5
7DE1B343D9E1245
102
{ACAD_REACTORS
330
7DE1B343D9E1227
102
}
330
7DE1B343D9E1227
100
AcDbXrecord
 10
0.0
 20
0.0
 30
0.0
  0
XRECORD
  5
7DE1B343D9E1243
102
{ACAD_REACTORS
330
7DE1B343D9E1227
102
}
330
7DE1B343D9E1227
100
AcDbXrecord
 10
0.0
 20
0.0
 30
0.0
  0
XRECORD
  5
7DE1B343D9E1244
102
{ACAD_REACTORS
330
7DE1B343D9E1227
102
}
330
7DE1B343D9E1227
100
AcDbXrecord
 10
0.0
 20
0.0
 30
0.0
  0
XRECORD
  5
7DE1B343D9E1241
102
{ACAD_REACTORS
330
7DE1B343D9E1227
102
}
330
7DE1B343D9E1227
100
AcDbXrecord
 10
0.0
 20
0.0
 30
0.0
  0
XRECORD
  5
7DE1B343D9E123E
102
{ACAD_REACTORS
330
7DE1B343D9E1227
102
}
330
7DE1B343D9E1227
100
AcDbXrecord
340
0
  0
XRECORD
  5
7DE1B343D9E123F
102
{ACAD_REACTORS
330
7DE1B343D9E1227
102
}
330
7DE1B343D9E1227
100
AcDbXrecord
 70
     0
  0
XRECORD
  5
7DE1B343D9E1233
102
{ACAD_REACTORS
330
7DE1B343D9E1227
102
}
330
7DE1B343D9E1227
100
AcDbXrecord
  1
{397DF3E2-8DB7-11D6-88E6-0090279574E7}
  0
DICTIONARYVAR
  5
7DE1B343D9E1225
102
{ACAD_REACTORS
330
7DE1B343D9E1224
102
}
330
7DE1B343D9E1224
100
DictionaryVariables
280
     0
  1
1
  0
ENDSEC
  0
EOF
