  0
SECTION
  2
HEADER
  9
$ACADVER
  1
AC1014
  9
$ACADMAINTVER
 70
     9
  9
$DWGCODEPAGE
  3
ANSI_1252
  9
$INSBASE
 10
5.249488912398151
 20
5.047142831246612
 30
0.0
  9
$EXTMIN
 10
3.444007333171007
 20
2.761510876828099
 30
0.0
  9
$EXTMAX
 10
6.929226654918142
 20
6.547142831246612
 30
0.0
  9
$LIMMIN
 10
0.0
 20
0.0
  9
$LIMMAX
 10
18.0
 20
12.0
  9
$ORTHOMODE
 70
     1
  9
$REGENMODE
 70
     1
  9
$FILLMODE
 70
     1
  9
$QTEXTMODE
 70
     0
  9
$MIRRTEXT
 70
     0
  9
$DRAGMODE
 70
     2
  9
$LTSCALE
 40
1.0
  9
$OSMODE
 70
    39
  9
$ATTMODE
 70
     1
  9
$TEXTSIZE
 40
0.125
  9
$TRACEWID
 40
0.05
  9
$TEXTSTYLE
  7
ROMANS
  9
$CLAYER
  8
0
  9
$CELTYPE
  6
BYLAYER
  9
$CECOLOR
 62
   256
  9
$CELTSCALE
 40
1.0
  9
$DELOBJ
 70
     1
  9
$DISPSILH
 70
     1
  9
$DIMSCALE
 40
1.0
  9
$DIMASZ
 40
0.125
  9
$DIMEXO
 40
0.125
  9
$DIMDLI
 40
0.375
  9
$DIMRND
 40
0.0
  9
$DIMDLE
 40
0.0
  9
$DIMEXE
 40
0.125
  9
$DIMTP
 40
0.0
  9
$DIMTM
 40
0.0
  9
$DIMTXT
 40
0.125
  9
$DIMCEN
 40
-0.125
  9
$DIMTSZ
 40
0.0
  9
$DIMTOL
 70
     0
  9
$DIMLIM
 70
     0
  9
$DIMTIH
 70
     1
  9
$DIMTOH
 70
     1
  9
$DIMSE1
 70
     0
  9
$DIMSE2
 70
     0
  9
$DIMTAD
 70
     0
  9
$DIMZIN
 70
     4
  9
$DIMBLK
  1

  9
$DIMASO
 70
     1
  9
$DIMSHO
 70
     1
  9
$DIMPOST
  1

  9
$DIMAPOST
  1

  9
$DIMALT
 70
     0
  9
$DIMALTD
 70
     2
  9
$DIMALTF
 40
25.4
  9
$DIMLFAC
 40
1.0
  9
$DIMTOFL
 70
     0
  9
$DIMTVP
 40
0.0
  9
$DIMTIX
 70
     1
  9
$DIMSOXD
 70
     0
  9
$DIMSAH
 70
     0
  9
$DIMBLK1
  1

  9
$DIMBLK2
  1

  9
$DIMSTYLE
  2
STANDARD
  9
$DIMCLRD
 70
     0
  9
$DIMCLRE
 70
     0
  9
$DIMCLRT
 70
     0
  9
$DIMTFAC
 40
1.0
  9
$DIMGAP
 40
0.09
  9
$DIMJUST
 70
     0
  9
$DIMSD1
 70
     0
  9
$DIMSD2
 70
     0
  9
$DIMTOLJ
 70
     1
  9
$DIMTZIN
 70
     4
  9
$DIMALTZ
 70
     0
  9
$DIMALTTZ
 70
     0
  9
$DIMFIT
 70
     3
  9
$DIMUPT
 70
     0
  9
$DIMUNIT
 70
     2
  9
$DIMDEC
 70
     3
  9
$DIMTDEC
 70
     3
  9
$DIMALTU
 70
     2
  9
$DIMALTTD
 70
     2
  9
$DIMTXSTY
  7
ROMANS
  9
$DIMAUNIT
 70
     0
  9
$LUNITS
 70
     2
  9
$LUPREC
 70
     3
  9
$SKETCHINC
 40
0.1
  9
$FILLETRAD
 40
0.03125
  9
$AUNITS
 70
     0
  9
$AUPREC
 70
     0
  9
$MENU
  1
ACAD
  9
$ELEVATION
 40
0.0
  9
$PELEVATION
 40
0.0
  9
$THICKNESS
 40
0.0
  9
$LIMCHECK
 70
     0
  9
$BLIPMODE
 70
     0
  9
$CHAMFERA
 40
0.0
  9
$CHAMFERB
 40
0.0
  9
$CHAMFERC
 40
0.0
  9
$CHAMFERD
 40
0.0
  9
$SKPOLY
 70
     0
  9
$TDCREATE
 40
2448994.649525694
  9
$TDUPDATE
 40
2452458.311445498
  9
$TDINDWG
 40
0.0005428009
  9
$TDUSRTIMER
 40
0.0005428009
  9
$USRTIMER
 70
     1
  9
$ANGBASE
 50
0.0
  9
$ANGDIR
 70
     0
  9
$PDMODE
 70
     0
  9
$PDSIZE
 40
0.0
  9
$PLINEWID
 40
0.0
  9
$COORDS
 70
     2
  9
$SPLFRAME
 70
     0
  9
$SPLINETYPE
 70
     6
  9
$SPLINESEGS
 70
     8
  9
$ATTDIA
 70
     0
  9
$ATTREQ
 70
     1
  9
$HANDLING
 70
 22529
  9
$HANDSEED
  5
7DE1B343D9E0B68
  9
$SURFTAB1
 70
     6
  9
$SURFTAB2
 70
     6
  9
$SURFTYPE
 70
     6
  9
$SURFU
 70
     6
  9
$SURFV
 70
     6
  9
$UCSNAME
  2

  9
$UCSORG
 10
0.0
 20
0.0
 30
0.0
  9
$UCSXDIR
 10
1.0
 20
0.0
 30
0.0
  9
$UCSYDIR
 10
0.0
 20
1.0
 30
0.0
  9
$PUCSNAME
  2

  9
$PUCSORG
 10
0.0
 20
0.0
 30
0.0
  9
$PUCSXDIR
 10
1.0
 20
0.0
 30
0.0
  9
$PUCSYDIR
 10
0.0
 20
1.0
 30
0.0
  9
$USERI1
 70
     0
  9
$USERI2
 70
     0
  9
$USERI3
 70
     0
  9
$USERI4
 70
     0
  9
$USERI5
 70
     0
  9
$USERR1
 40
0.0
  9
$USERR2
 40
0.0
  9
$USERR3
 40
0.0
  9
$USERR4
 40
0.0
  9
$USERR5
 40
0.0
  9
$WORLDVIEW
 70
     1
  9
$SHADEDGE
 70
     3
  9
$SHADEDIF
 70
    70
  9
$TILEMODE
 70
     1
  9
$MAXACTVP
 70
    16
  9
$PINSBASE
 10
3.362131903486197
 20
50.00000000000001
 30
5.129194643211081
  9
$PLIMCHECK
 70
     0
  9
$PEXTMIN
 10
1.000000000000000E+20
 20
1.000000000000000E+20
 30
1.000000000000000E+20
  9
$PEXTMAX
 10
-1.000000000000000E+20
 20
-1.000000000000000E+20
 30
-1.000000000000000E+20
  9
$PLIMMIN
 10
0.0
 20
0.0
  9
$PLIMMAX
 10
12.0
 20
9.0
  9
$UNITMODE
 70
     0
  9
$VISRETAIN
 70
     0
  9
$PLINEGEN
 70
     1
  9
$PSLTSCALE
 70
     0
  9
$TREEDEPTH
 70
  3020
  9
$PICKSTYLE
 70
     1
  9
$CMLSTYLE
  2
STANDARD
  9
$CMLJUST
 70
     0
  9
$CMLSCALE
 40
1.0
  9
$PROXYGRAPHICS
 70
     1
  9
$MEASUREMENT
 70
     0
  0
ENDSEC
  0
SECTION
  2
CLASSES
  0
CLASS
  1
LWPOLYLINE
  2
AcDbPolyline
  3
AutoCAD 2000
 90
        0
280
     0
281
     1
  0
CLASS
  1
ACDBDICTIONARYWDFLT
  2
AcDbDictionaryWithDefault
  3
AutoCAD 2000
 90
        0
280
     0
281
     0
  0
CLASS
  1
ACDBPLACEHOLDER
  2
AcDbPlaceHolder
  3
AutoCAD 2000
 90
        0
280
     0
281
     0
  0
CLASS
  1
LAYOUT
  2
AcDbLayout
  3
AutoCAD 2000
 90
        0
280
     0
281
     0
  0
CLASS
  1
DICTIONARYVAR
  2
AcDbDictionaryVar
  3
AutoCAD 2000
 90
        0
280
     0
281
     0
  0
CLASS
  1
LONG_TRANSACTION
  2
AcDbLongTransaction
  3
AutoCAD 2000
 90
        0
280
     0
281
     0
  0
CLASS
  1
LWPOLYLINE
  2
AcDbPolyline
  3
AutoCAD 2000
 90
        0
280
     0
281
     1
  0
CLASS
  1
HATCH
  2
AcDbHatch
  3
AutoCAD 2000
 90
        0
280
     0
281
     1
  0
CLASS
  1
XRECORD
  2
AcDbXrecord
  3
AutoCAD 2000
 90
        0
280
     0
281
     0
  0
ENDSEC
  0
SECTION
  2
TABLES
  0
TABLE
  2
VPORT
  5
7DE1B343D9E0B0F
330
0
100
AcDbSymbolTable
 70
     2
  0
VPORT
  5
7DE1B343D9E0B43
330
7DE1B343D9E0B0F
100
AcDbSymbolTableRecord
100
AcDbViewportTableRecord
  2
*ACTIVE
 70
     0
 10
0.0
 20
0.0
 11
1.0
 21
1.0
 12
10.76102637976141
 22
4.65417483106043
 13
0.0
 23
0.0
 14
0.015625
 24
0.015625
 15
0.0
 25
0.0
 16
0.0
 26
0.0
 36
1.0
 17
0.0
 27
0.0
 37
0.0
 40
4.274854462244741
 41
4.320930232558139
 42
50.0
 43
0.0
 44
0.0
 50
0.0
 51
0.0
 71
     0
 72
  2000
 73
     1
 74
     0
 75
     0
 76
     0
 77
     0
 78
     0
  0
ENDTAB
  0
TABLE
  2
LTYPE
  5
7DE1B343D9E0B0C
330
0
100
AcDbSymbolTable
 70
     1
  0
LTYPE
  5
7DE1B343D9E0B19
330
7DE1B343D9E0B0C
100
AcDbSymbolTableRecord
100
AcDbLinetypeTableRecord
  2
BYBLOCK
 70
     0
  3

 72
    65
 73
     0
 40
0.0
  0
LTYPE
  5
7DE1B343D9E0B1A
330
7DE1B343D9E0B0C
100
AcDbSymbolTableRecord
100
AcDbLinetypeTableRecord
  2
BYLAYER
 70
     0
  3

 72
    65
 73
     0
 40
0.0
  0
LTYPE
  5
7DE1B343D9E0B1B
330
7DE1B343D9E0B0C
100
AcDbSymbolTableRecord
100
AcDbLinetypeTableRecord
  2
CONTINUOUS
 70
     0
  3
Solid line
 72
    65
 73
     0
 40
0.0
  0
ENDTAB
  0
TABLE
  2
LAYER
  5
7DE1B343D9E0B09
330
0
100
AcDbSymbolTable
 70
     2
  0
LAYER
  5
7DE1B343D9E0B16
330
7DE1B343D9E0B09
100
AcDbSymbolTableRecord
100
AcDbLayerTableRecord
  2
0
 70
     0
 62
     7
  6
CONTINUOUS
  0
LAYER
  5
7DE1B343D9E0B26
330
7DE1B343D9E0B09
100
AcDbSymbolTableRecord
100
AcDbLayerTableRecord
  2
TEXT
 70
     0
 62
     3
  6
CONTINUOUS
  0
ENDTAB
  0
TABLE
  2
STYLE
  5
7DE1B343D9E0B0A
330
0
100
AcDbSymbolTable
 70
     3
  0
STYLE
  5
7DE1B343D9E0B17
330
7DE1B343D9E0B0A
100
AcDbSymbolTableRecord
100
AcDbTextStyleTableRecord
  2
STANDARD
 70
     0
 40
0.0
 41
1.0
 50
0.0
 71
     0
 42
0.3125
  3
txt
  4

  0
STYLE
  5
7DE1B343D9E0B23
330
7DE1B343D9E0B0A
100
AcDbSymbolTableRecord
100
AcDbTextStyleTableRecord
  2
ITALICC
 70
     0
 40
0.0
 41
1.0
 50
0.0
 71
     0
 42
0.125
  3
italicc
  4

  0
STYLE
  5
7DE1B343D9E0B33
330
7DE1B343D9E0B0A
100
AcDbSymbolTableRecord
100
AcDbTextStyleTableRecord
  2
ROMANS
 70
     0
 40
0.0
 41
1.0
 50
0.0
 71
     0
 42
0.125
  3
romans.shx
  4

  0
ENDTAB
  0
TABLE
  2
VIEW
  5
7DE1B343D9E0B0D
330
0
100
AcDbSymbolTable
 70
     0
  0
ENDTAB
  0
TABLE
  2
UCS
  5
7DE1B343D9E0B0E
330
0
100
AcDbSymbolTable
 70
     0
  0
ENDTAB
  0
TABLE
  2
APPID
  5
7DE1B343D9E0B10
330
0
100
AcDbSymbolTable
 70
     1
  0
APPID
  5
7DE1B343D9E0B18
330
7DE1B343D9E0B10
100
AcDbSymbolTableRecord
100
AcDbRegAppTableRecord
  2
ACAD
 70
     0
  0
ENDTAB
  0
TABLE
  2
DIMSTYLE
  5
7DE1B343D9E0B11
330
0
100
AcDbSymbolTable
 70
     1
  0
DIMSTYLE
105
7DE1B343D9E0B2B
330
7DE1B343D9E0B11
100
AcDbSymbolTableRecord
100
AcDbDimStyleTableRecord
  2
STANDARD
 70
     0
  3

  4

  5

  6

  7

 40
1.0
 41
0.125
 42
0.125
 43
0.375
 44
0.125
 45
0.0
 46
0.0
 47
0.0
 48
0.0
140
0.125
141
-0.125
142
0.0
143
25.4
144
1.0
145
0.0
146
1.0
147
0.09
 71
     0
 72
     0
 73
     1
 74
     1
 75
     0
 76
     0
 77
     0
 78
     4
170
     0
171
     2
172
     0
173
     0
174
     1
175
     0
176
     0
177
     0
178
     0
270
     2
271
     3
272
     3
273
     2
274
     2
340
7DE1B343D9E0B33
275
     0
280
     0
281
     0
282
     0
283
     1
284
     4
285
     0
286
     0
287
     3
288
     0
  0
ENDTAB
  0
TABLE
  2
BLOCK_RECORD
  5
7DE1B343D9E0B08
330
0
100
AcDbSymbolTable
 70
     0
  0
BLOCK_RECORD
  5
7DE1B343D9E0B1F
102
{ACAD_XDICTIONARY
360
7DE1B343D9E0B66
102
}
330
7DE1B343D9E0B08
100
AcDbSymbolTableRecord
100
AcDbBlockTableRecord
  2
*MODEL_SPACE
  0
BLOCK_RECORD
  5
7DE1B343D9E0B1C
102
{ACAD_XDICTIONARY
360
7DE1B343D9E0B64
102
}
330
7DE1B343D9E0B08
100
AcDbSymbolTableRecord
100
AcDbBlockTableRecord
  2
*PAPER_SPACE
  0
ENDTAB
  0
ENDSEC
  0
SECTION
  2
BLOCKS
  0
BLOCK
  5
7DE1B343D9E0B29
330
7DE1B343D9E0B1F
100
AcDbEntity
  8
0
100
AcDbBlockBegin
  2
*MODEL_SPACE
 70
     0
 10
0.0
 20
0.0
 30
0.0
  3
*MODEL_SPACE
  1

  0
ENDBLK
  5
7DE1B343D9E0B2A
330
7DE1B343D9E0B1F
100
AcDbEntity
  8
0
100
AcDbBlockEnd
  0
BLOCK
  5
7DE1B343D9E0B27
330
7DE1B343D9E0B1C
100
AcDbEntity
 67
     1
  8
0
100
AcDbBlockBegin
  2
*PAPER_SPACE
 70
     0
 10
0.0
 20
0.0
 30
0.0
  3
*PAPER_SPACE
  1

  0
ENDBLK
  5
7DE1B343D9E0B28
330
7DE1B343D9E0B1C
100
AcDbEntity
 67
     1
  8
0
100
AcDbBlockEnd
  0
ENDSEC
  0
SECTION
  2
ENTITIES
  0
LWPOLYLINE
  5
7DE1B343D9DF74B
330
7DE1B343D9E0B1F
100
AcDbEntity
  8
0
100
AcDbPolyline
 90
        4
 70
     1
 43
0.0
 10
5.124488912398151
 20
3.547142831246612
 10
5.249488912398151
 20
3.547142831246612
 10
5.249488912398151
 20
6.547142831246612
 10
5.124488912398151
 20
6.547142831246612
  0
TEXT
  5
7DE1B343D9E09CA
330
7DE1B343D9E0B1F
100
AcDbEntity
  8
TEXT
100
AcDbText
 10
4.43401272192196
 20
3.21952948091068
 30
0.0
 40
0.125
  1
PART #110419
  7
ITALICC
 72
     1
 11
5.186988912398151
 21
3.21952948091068
 31
0.0
100
AcDbText
  0
TEXT
  5
7DE1B343D9E09CB
330
7DE1B343D9E0B1F
100
AcDbEntity
  8
TEXT
100
AcDbText
 10
5.600294070648471
 20
2.772606838238305
 30
0.0
 40
0.0522247191011236
  1
Phone  1-800-328-2495
 41
1.272321428571429
 72
     5
 11
6.929226654918135
 21
2.772606838238305
 31
0.0
100
AcDbText
  0
TEXT
  5
7DE1B343D9E09CC
330
7DE1B343D9E0B1F
100
AcDbEntity
  8
TEXT
100
AcDbText
 10
5.600294070648471
 20
3.052382119137182
 30
0.0
 40
0.0522247191011236
  1
Stylmark  Incorporated
 41
1.221428571428573
 72
     5
 11
6.929226654918135
 21
3.052382119137182
 31
0.0
100
AcDbText
  0
TEXT
  5
7DE1B343D9E09CD
330
7DE1B343D9E0B1F
100
AcDbEntity
  8
TEXT
100
AcDbText
 10
5.600294070648471
 20
2.959123692170889
 30
0.0
 40
0.0522247191011236
  1
6536 Main St. N.E. * P.O. Box 32008
 41
0.8388932496075366
 72
     5
 11
6.929226654918135
 21
2.959123692170889
 31
0.0
100
AcDbText
  0
TEXT
  5
7DE1B343D9E09CE
330
7DE1B343D9E0B1F
100
AcDbEntity
  8
TEXT
100
AcDbText
 10
5.600294070648471
 20
2.865865265204597
 30
0.0
 40
0.0522247191011236
  1
Minneapolis, MN 55432-0008
 41
1.11444212721585
 72
     5
 11
6.929226654918135
 21
2.865865265204597
 31
0.0
100
AcDbText
  0
LWPOLYLINE
  5
7DE1B343D9E09CF
330
7DE1B343D9E0B1F
100
AcDbEntity
  8
TEXT
100
AcDbPolyline
 90
        3
 70
     0
 43
0.0006660908203125
 10
3.444340378581164
 20
2.88625160087574
 10
3.444340378581164
 20
2.773016161422612
 10
3.557575818034286
 20
2.773016161422612
  0
LWPOLYLINE
  5
7DE1B343D9E09D4
330
7DE1B343D9E0B1F
100
AcDbEntity
  8
TEXT
100
AcDbPolyline
 90
        3
 70
     0
 43
0.0006660908203125
 10
3.470984011393661
 20
2.88625160087574
 10
3.470984011393661
 20
2.799659794235113
 10
3.557575818034286
 20
2.799659794235113
  0
LWPOLYLINE
  5
7DE1B343D9E09D9
330
7DE1B343D9E0B1F
100
AcDbEntity
  8
TEXT
100
AcDbPolyline
 90
        2
 70
     0
 43
0.0001332181640625
 10
3.517610368815538
 20
2.896242963180425
 10
3.444340378581164
 20
2.88625160087574
  0
LWPOLYLINE
  5
7DE1B343D9E09DD
330
7DE1B343D9E0B1F
100
AcDbEntity
  8
TEXT
100
AcDbPolyline
 90
        2
 70
     0
 43
0.0001332181640625
 10
3.470984011393661
 20
2.88625160087574
 10
3.530932185221788
 20
2.896242963180425
  0
LWPOLYLINE
  5
7DE1B343D9E09E1
330
7DE1B343D9E0B1F
100
AcDbEntity
  8
TEXT
100
AcDbPolyline
 90
        2
 70
     0
 43
0.0001332181640625
 10
3.470984011393661
 20
2.799659794235113
 10
3.530932185221788
 20
2.859607968063239
  0
LWPOLYLINE
  5
7DE1B343D9E09E5
330
7DE1B343D9E0B1F
100
AcDbEntity
  8
TEXT
100
AcDbPolyline
 90
        3
 70
     0
 43
0.0006660908203125
 10
3.557575818034286
 20
3.039452489547616
 10
3.444340378581164
 20
3.039452489547616
 10
3.444340378581164
 20
2.926217050094488
  0
LWPOLYLINE
  5
7DE1B343D9E09EA
330
7DE1B343D9E0B1F
100
AcDbEntity
  8
TEXT
100
AcDbPolyline
 90
        3
 70
     0
 43
0.0006660908203125
 10
3.557575818034286
 20
3.012808856735115
 10
3.470984011393661
 20
3.012808856735115
 10
3.470984011393661
 20
2.926217050094488
  0
LWPOLYLINE
  5
7DE1B343D9E09EF
330
7DE1B343D9E0B1F
100
AcDbEntity
  8
TEXT
100
AcDbPolyline
 90
        2
 70
     0
 43
0.0001332181640625
 10
3.470984011393661
 20
3.012808856735115
 10
3.530932185221787
 20
2.952860682906989
  0
LWPOLYLINE
  5
7DE1B343D9E09F3
330
7DE1B343D9E0B1F
100
AcDbEntity
  8
TEXT
100
AcDbPolyline
 90
        2
 70
     0
 43
0.0001332181640625
 10
3.470984011393661
 20
2.926217050094488
 10
3.530932185221787
 20
2.916225687789799
  0
LWPOLYLINE
  5
7DE1B343D9E09F7
330
7DE1B343D9E0B1F
100
AcDbEntity
  8
TEXT
100
AcDbPolyline
 90
        2
 70
     0
 43
0.0001332181640625
 10
3.444340378581164
 20
2.926217050094488
 10
3.517610368815538
 20
2.916225687789799
  0
LWPOLYLINE
  5
7DE1B343D9E09FB
330
7DE1B343D9E0B1F
100
AcDbEntity
  8
TEXT
100
AcDbPolyline
 90
        2
 70
     0
 43
0.0006660908203125
 10
3.470984011393661
 20
2.88625160087574
 10
3.444340378581164
 20
2.88625160087574
  0
LWPOLYLINE
  5
7DE1B343D9E09FF
330
7DE1B343D9E0B1F
100
AcDbEntity
  8
TEXT
100
AcDbPolyline
 90
        2
 70
     0
 43
0.0006660908203125
 10
3.470984011393661
 20
2.926217050094488
 10
3.444340378581164
 20
2.926217050094488
  0
LINE
  5
7DE1B343D9E0A03
330
7DE1B343D9E0B1F
100
AcDbEntity
  8
TEXT
100
AcDbLine
 10
4.959530807707661
 20
2.975175794890846
 30
0.0
 11
4.852324534320372
 21
2.975175794890846
 31
0.0
  0
LINE
  5
7DE1B343D9E0A04
330
7DE1B343D9E0B1F
100
AcDbEntity
  8
TEXT
100
AcDbLine
 10
4.98856170605214
 20
3.039452489547612
 30
0.0
 11
4.85372979683508
 21
3.039452489547612
 31
0.0
  0
ARC
  5
7DE1B343D9E0A05
330
7DE1B343D9E0B1F
100
AcDbEntity
  8
TEXT
100
AcDbCircle
 10
4.913043893228397
 20
2.870215240284596
 30
0.0
 40
0.0676855811441166
100
AcDbArc
 50
90.0
 51
153.7768192527749
  0
LWPOLYLINE
  5
7DE1B343D9E0A06
330
7DE1B343D9E0B1F
100
AcDbEntity
  8
TEXT
100
AcDbPolyline
 90
        2
 70
     0
 43
0.0
 10
4.851292038865562
 20
2.816470401509539
 42
0.2901071551932823
 10
4.894367971733197
 20
2.772979456559101
 42
5.328517124445801
  0
ARC
  5
7DE1B343D9E0A0A
330
7DE1B343D9E0B1F
100
AcDbEntity
  8
TEXT
100
AcDbCircle
 10
4.207912515556912
 20
2.832771847897151
 30
0.0
 40
0.0601160179737537
100
AcDbArc
 50
180.0000000000003
 51
264.0521544866073
  0
LINE
  5
7DE1B343D9E0A0B
330
7DE1B343D9E0B1F
100
AcDbEntity
  8
TEXT
100
AcDbLine
 10
4.211427871182459
 20
3.07384040714175
 30
0.0
 11
4.151385266338452
 21
3.07384040714175
 31
0.0
  0
ARC
  5
7DE1B343D9E0A0C
330
7DE1B343D9E0B1F
100
AcDbEntity
  8
TEXT
100
AcDbCircle
 10
3.975653513439941
 20
2.95736503010111
 30
0.0
 40
0.0820874594465043
100
AcDbArc
 50
90.0
 51
270.0
  0
LWPOLYLINE
  5
7DE1B343D9E0A0D
330
7DE1B343D9E0B1F
100
AcDbEntity
  8
TEXT
100
AcDbPolyline
 90
        2
 70
     0
 43
0.0001332181640625
 10
3.567567180338977
 20
2.966182499313236
 10
3.557575818034286
 20
3.039452489547616
  0
LWPOLYLINE
  5
7DE1B343D9E0A11
330
7DE1B343D9E0B1F
100
AcDbEntity
  8
TEXT
100
AcDbPolyline
 90
        2
 70
     0
 43
0.0001332181640625
 10
3.557575818034286
 20
3.012808856735115
 10
3.567567180338977
 20
2.952860682906989
  0
LWPOLYLINE
  5
7DE1B343D9E0A15
330
7DE1B343D9E0B1F
100
AcDbEntity
  8
TEXT
100
AcDbPolyline
 90
        3
 70
     0
 43
0.0006660908203125
 10
3.710776706706163
 20
2.926217050094488
 10
3.710776706706163
 20
3.039452489547616
 10
3.597541267253038
 20
3.039452489547616
  0
LWPOLYLINE
  5
7DE1B343D9E0A1A
330
7DE1B343D9E0B1F
100
AcDbEntity
  8
TEXT
100
AcDbPolyline
 90
        3
 70
     0
 43
0.0006660908203125
 10
3.684133073893662
 20
2.926217050094488
 10
3.684133073893662
 20
3.012808856735115
 10
3.597541267253038
 20
3.012808856735115
  0
LWPOLYLINE
  5
7DE1B343D9E0A1F
330
7DE1B343D9E0B1F
100
AcDbEntity
  8
TEXT
100
AcDbPolyline
 90
        2
 70
     0
 43
0.0001332181640625
 10
3.684133073893662
 20
3.012808856735115
 10
3.624184900065539
 20
2.952860682906989
  0
LWPOLYLINE
  5
7DE1B343D9E0A23
330
7DE1B343D9E0B1F
100
AcDbEntity
  8
TEXT
100
AcDbPolyline
 90
        2
 70
     0
 43
0.0001332181640625
 10
3.597541267253038
 20
3.012808856735115
 10
3.587549904948349
 20
2.952860682906989
  0
LWPOLYLINE
  5
7DE1B343D9E0A27
330
7DE1B343D9E0B1F
100
AcDbEntity
  8
TEXT
100
AcDbPolyline
 90
        2
 70
     0
 43
0.0001332181640625
 10
3.597541267253038
 20
3.039452489547616
 10
3.587549904948349
 20
2.966182499313236
  0
LWPOLYLINE
  5
7DE1B343D9E0A2B
330
7DE1B343D9E0B1F
100
AcDbEntity
  8
TEXT
100
AcDbPolyline
 90
        2
 70
     0
 43
0.0001332181640625
 10
3.637506716471787
 20
2.916225687789799
 10
3.710776706706163
 20
2.926217050094488
  0
LWPOLYLINE
  5
7DE1B343D9E0A2F
330
7DE1B343D9E0B1F
100
AcDbEntity
  8
TEXT
100
AcDbPolyline
 90
        2
 70
     0
 43
0.0001332181640625
 10
3.684133073893662
 20
2.926217050094488
 10
3.624184900065539
 20
2.916225687789799
  0
LWPOLYLINE
  5
7DE1B343D9E0A33
330
7DE1B343D9E0B1F
100
AcDbEntity
  8
TEXT
100
AcDbPolyline
 90
        2
 70
     0
 43
0.0001332181640625
 10
3.710776706706163
 20
2.88625160087574
 10
3.637506716471787
 20
2.896242963180425
  0
LWPOLYLINE
  5
7DE1B343D9E0A37
330
7DE1B343D9E0B1F
100
AcDbEntity
  8
TEXT
100
AcDbPolyline
 90
        2
 70
     0
 43
0.0001332181640625
 10
3.684133073893662
 20
2.88625160087574
 10
3.624184900065539
 20
2.896242963180425
  0
LWPOLYLINE
  5
7DE1B343D9E0A3B
330
7DE1B343D9E0B1F
100
AcDbEntity
  8
TEXT
100
AcDbPolyline
 90
        2
 70
     0
 43
0.0001332181640625
 10
3.684133073893662
 20
2.799659794235113
 10
3.624184900065539
 20
2.859607968063239
  0
LWPOLYLINE
  5
7DE1B343D9E0A3F
330
7DE1B343D9E0B1F
100
AcDbEntity
  8
TEXT
100
AcDbPolyline
 90
        3
 70
     0
 43
0.0006660908203125
 10
3.597541267253038
 20
2.799659794235113
 10
3.684133073893662
 20
2.799659794235113
 10
3.684133073893662
 20
2.88625160087574
  0
LWPOLYLINE
  5
7DE1B343D9E0A44
330
7DE1B343D9E0B1F
100
AcDbEntity
  8
TEXT
100
AcDbPolyline
 90
        3
 70
     0
 43
0.0006660908203125
 10
3.597541267253038
 20
2.773016161422612
 10
3.710776706706163
 20
2.773016161422612
 10
3.710776706706163
 20
2.88625160087574
  0
LWPOLYLINE
  5
7DE1B343D9E0A49
330
7DE1B343D9E0B1F
100
AcDbEntity
  8
TEXT
100
AcDbPolyline
 90
        5
 70
     0
 43
0.0001332181640625
 10
3.567567180338977
 20
2.846286151656988
 10
3.567567180338977
 20
2.859607968063239
 10
3.530932185221788
 20
2.859607968063239
 10
3.530932185221788
 20
2.896242963180425
 10
3.517610368815538
 20
2.896242963180425
  0
LWPOLYLINE
  5
7DE1B343D9E0A50
330
7DE1B343D9E0B1F
100
AcDbEntity
  8
TEXT
100
AcDbPolyline
 90
        2
 70
     0
 43
0.0006660908203125
 10
3.557575818034286
 20
2.799659794235113
 10
3.557575818034286
 20
2.773016161422612
  0
LWPOLYLINE
  5
7DE1B343D9E0A54
330
7DE1B343D9E0B1F
100
AcDbEntity
  8
TEXT
100
AcDbPolyline
 90
        2
 70
     0
 43
0.0001332181640625
 10
3.557575818034286
 20
2.799659794235113
 10
3.567567180338977
 20
2.859607968063239
  0
LWPOLYLINE
  5
7DE1B343D9E0A58
330
7DE1B343D9E0B1F
100
AcDbEntity
  8
TEXT
100
AcDbPolyline
 90
        2
 70
     0
 43
0.0001332181640625
 10
3.557575818034286
 20
2.773016161422612
 10
3.567567180338977
 20
2.846286151656988
  0
LWPOLYLINE
  5
7DE1B343D9E0A5C
330
7DE1B343D9E0B1F
100
AcDbEntity
  8
TEXT
100
AcDbPolyline
 90
        5
 70
     0
 43
0.0001332181640625
 10
3.517610368815538
 20
2.916225687789799
 10
3.530932185221787
 20
2.916225687789799
 10
3.530932185221787
 20
2.952860682906989
 10
3.567567180338977
 20
2.952860682906989
 10
3.567567180338977
 20
2.966182499313236
  0
LWPOLYLINE
  5
7DE1B343D9E0A63
330
7DE1B343D9E0B1F
100
AcDbEntity
  8
TEXT
100
AcDbPolyline
 90
        5
 70
     0
 43
0.0001332181640625
 10
3.587549904948349
 20
2.966182499313236
 10
3.587549904948349
 20
2.952860682906989
 10
3.624184900065539
 20
2.952860682906989
 10
3.624184900065539
 20
2.916225687789799
 10
3.637506716471787
 20
2.916225687789799
  0
LWPOLYLINE
  5
7DE1B343D9E0A6A
330
7DE1B343D9E0B1F
100
AcDbEntity
  8
TEXT
100
AcDbPolyline
 90
        2
 70
     0
 43
0.0001332181640625
 10
3.597541267253038
 20
2.799659794235113
 10
3.587549904948349
 20
2.859607968063239
  0
LWPOLYLINE
  5
7DE1B343D9E0A6E
330
7DE1B343D9E0B1F
100
AcDbEntity
  8
TEXT
100
AcDbPolyline
 90
        2
 70
     0
 43
0.0001332181640625
 10
3.587549904948349
 20
2.846286151656988
 10
3.597541267253038
 20
2.773016161422612
  0
LWPOLYLINE
  5
7DE1B343D9E0A72
330
7DE1B343D9E0B1F
100
AcDbEntity
  8
TEXT
100
AcDbPolyline
 90
        2
 70
     0
 43
0.0006660908203125
 10
3.597541267253038
 20
2.799659794235113
 10
3.597541267253038
 20
2.773016161422612
  0
LWPOLYLINE
  5
7DE1B343D9E0A76
330
7DE1B343D9E0B1F
100
AcDbEntity
  8
TEXT
100
AcDbPolyline
 90
        5
 70
     0
 43
0.0001332181640625
 10
3.637506716471787
 20
2.896242963180425
 10
3.624184900065539
 20
2.896242963180425
 10
3.624184900065539
 20
2.859607968063239
 10
3.587549904948349
 20
2.859607968063239
 10
3.587549904948349
 20
2.846286151656988
  0
LWPOLYLINE
  5
7DE1B343D9E0A7D
330
7DE1B343D9E0B1F
100
AcDbEntity
  8
TEXT
100
AcDbPolyline
 90
        2
 70
     0
 43
0.0006660908203125
 10
3.684133073893662
 20
2.926217050094488
 10
3.710776706706163
 20
2.926217050094488
  0
LWPOLYLINE
  5
7DE1B343D9E0A81
330
7DE1B343D9E0B1F
100
AcDbEntity
  8
TEXT
100
AcDbPolyline
 90
        2
 70
     0
 43
0.0006660908203125
 10
3.684133073893662
 20
2.88625160087574
 10
3.710776706706163
 20
2.88625160087574
  0
LINE
  5
7DE1B343D9E0A85
330
7DE1B343D9E0B1F
100
AcDbEntity
  8
TEXT
100
AcDbLine
 10
3.980890843554188
 20
2.975175794890846
 30
0.0
 11
4.14779649758316
 21
2.975175794890846
 31
0.0
  0
LINE
  5
7DE1B343D9E0A86
330
7DE1B343D9E0B1F
100
AcDbEntity
  8
TEXT
100
AcDbLine
 10
4.046490979798489
 20
2.939371073280219
 30
0.0
 11
3.980890843554188
 21
2.939371073280219
 31
0.0
  0
LINE
  5
7DE1B343D9E0A87
330
7DE1B343D9E0B1F
100
AcDbEntity
  8
TEXT
100
AcDbLine
 10
3.893566053993437
 20
2.772979456559101
 30
0.0
 11
4.046490979798489
 21
2.772979456559101
 31
0.0
  0
LINE
  5
7DE1B343D9E0A88
330
7DE1B343D9E0B1F
100
AcDbEntity
  8
TEXT
100
AcDbLine
 10
4.051431353704769
 20
2.84133646289254
 30
0.0
 11
3.893566053993435
 21
2.84133646289254
 31
0.0
  0
LINE
  5
7DE1B343D9E0A89
330
7DE1B343D9E0B1F
100
AcDbEntity
  8
TEXT
100
AcDbLine
 10
3.97565351343994
 20
2.875277570654605
 30
0.0
 11
4.051431353704769
 21
2.875277570654605
 31
0.0
  0
ARC
  5
7DE1B343D9E0A8A
330
7DE1B343D9E0B1F
100
AcDbEntity
  8
TEXT
100
AcDbCircle
 10
3.980890843554189
 20
2.957273434085534
 30
0.0
 40
0.017902360805315
100
AcDbArc
 50
90.0
 51
270.0
  0
LINE
  5
7DE1B343D9E0A8B
330
7DE1B343D9E0B1F
100
AcDbEntity
  8
TEXT
100
AcDbLine
 10
3.893566053993435
 20
2.84133646289254
 30
0.0
 11
3.893566053993437
 21
2.772979456559101
 31
0.0
  0
LINE
  5
7DE1B343D9E0A8C
330
7DE1B343D9E0B1F
100
AcDbEntity
  8
TEXT
100
AcDbLine
 10
4.14779649758316
 20
2.975175794890846
 30
0.0
 11
4.14779649758316
 21
2.832771847897151
 31
0.0
  0
ARC
  5
7DE1B343D9E0A8D
330
7DE1B343D9E0B1F
100
AcDbEntity
  8
TEXT
100
AcDbCircle
 10
4.04649097979849
 20
2.856175264919658
 30
0.0
 40
0.0831958083605586
100
AcDbArc
 50
270.0
 51
90.0
  0
ARC
  5
7DE1B343D9E0A8E
330
7DE1B343D9E0B1F
100
AcDbEntity
  8
TEXT
100
AcDbCircle
 10
4.05143135370477
 20
2.858307016773574
 30
0.0
 40
0.0169705538810321
100
AcDbArc
 50
270.0
 51
90.0
  0
LWPOLYLINE
  5
7DE1B343D9E0A8F
330
7DE1B343D9E0B1F
100
AcDbEntity
  8
TEXT
100
AcDbPolyline
 90
        2
 70
     0
 43
0.0006660908203125
 10
3.557575818034286
 20
3.012808856735115
 10
3.557575818034286
 20
3.039452489547616
  0
LWPOLYLINE
  5
7DE1B343D9E0A93
330
7DE1B343D9E0B1F
100
AcDbEntity
  8
TEXT
100
AcDbPolyline
 90
        2
 70
     0
 43
0.0006660908203125
 10
3.597541267253038
 20
3.012808856735115
 10
3.597541267253038
 20
3.039452489547616
  0
LINE
  5
7DE1B343D9E0A97
330
7DE1B343D9E0B1F
100
AcDbEntity
  8
TEXT
100
AcDbLine
 10
4.151385266338452
 20
3.039452489547612
 30
0.0
 11
3.97565351343994
 21
3.039452489547612
 31
0.0
  0
LINE
  5
7DE1B343D9E0A98
330
7DE1B343D9E0B1F
100
AcDbEntity
  8
TEXT
100
AcDbLine
 10
4.151385266338452
 20
3.07384040714175
 30
0.0
 11
4.151385266338452
 21
3.039452489547612
 31
0.0
  0
LINE
  5
7DE1B343D9E0A99
330
7DE1B343D9E0B1F
100
AcDbEntity
  8
TEXT
100
AcDbLine
 10
4.341857158358305
 20
2.938580493434491
 30
0.0
 11
4.283226837326367
 21
3.039452489547612
 31
0.0
  0
LINE
  5
7DE1B343D9E0A9A
330
7DE1B343D9E0B1F
100
AcDbEntity
  8
TEXT
100
AcDbLine
 10
4.40060572116417
 20
3.039452489547612
 30
0.0
 11
4.341857158358305
 21
2.938580493434491
 31
0.0
  0
LINE
  5
7DE1B343D9E0A9B
330
7DE1B343D9E0B1F
100
AcDbEntity
  8
TEXT
100
AcDbLine
 10
4.497536346523911
 20
2.8553672946621
 30
0.0
 11
4.497536346523911
 21
3.107463967286423
 31
0.0
  0
LINE
  5
7DE1B343D9E0A9C
330
7DE1B343D9E0B1F
100
AcDbEntity
  8
TEXT
100
AcDbLine
 10
4.529848200661572
 20
3.039452489547612
 30
0.0
 11
4.529848200661572
 21
2.838588282815204
 31
0.0
  0
LINE
  5
7DE1B343D9E0A9D
330
7DE1B343D9E0B1F
100
AcDbEntity
  8
TEXT
100
AcDbLine
 10
4.529848200661572
 20
2.838588282815204
 30
0.0
 11
4.51285456377697
 21
2.838588282815204
 31
0.0
  0
LINE
  5
7DE1B343D9E0A9E
330
7DE1B343D9E0B1F
100
AcDbEntity
  8
TEXT
100
AcDbLine
 10
4.498675920020106
 20
2.772979456559101
 30
0.0
 11
4.596679253719541
 21
2.772979456559101
 31
0.0
  0
LINE
  5
7DE1B343D9E0A9F
330
7DE1B343D9E0B1F
100
AcDbEntity
  8
TEXT
100
AcDbLine
 10
4.33225692136135
 20
2.792937962664114
 30
0.0
 11
4.429556627454795
 21
2.957288173599382
 31
0.0
  0
ARC
  5
7DE1B343D9E0AA0
330
7DE1B343D9E0B1F
100
AcDbEntity
  8
TEXT
100
AcDbCircle
 10
4.298213361449136
 20
2.812527178832797
 30
0.0
 40
0.0392772371940762
100
AcDbArc
 50
270.1604552698595
 51
330.0831797321295
  0
LINE
  5
7DE1B343D9E0AA1
330
7DE1B343D9E0B1F
100
AcDbEntity
  8
TEXT
100
AcDbLine
 10
4.201683105063265
 20
2.772979456559101
 30
0.0
 11
4.29832335613826
 21
2.773250095657383
 31
0.0
  0
LWPOLYLINE
  5
7DE1B343D9E0AA2
330
7DE1B343D9E0B1F
100
AcDbEntity
  8
TEXT
100
AcDbPolyline
 90
        6
 70
     1
 43
0.0
 10
4.244206908638415
 20
2.975175794890846
 10
4.213890314418207
 20
2.975175794890846
 10
4.213890314418207
 20
2.852064796835952
 42
0.407328721240804
 10
4.225433965579683
 20
2.840245882159566
 10
4.286055664624414
 20
2.840245882159566
 10
4.303521005031732
 20
2.873058111203045
  0
LINE
  5
7DE1B343D9E0AAA
330
7DE1B343D9E0B1F
100
AcDbEntity
  8
TEXT
100
AcDbLine
 10
4.429556627454795
 20
2.957288173599382
 30
0.0
 11
4.429556627454795
 21
2.824530798774026
 31
0.0
  0
ARC
  5
7DE1B343D9E0AAB
330
7DE1B343D9E0B1F
100
AcDbEntity
  8
TEXT
100
AcDbCircle
 10
4.512854563776969
 20
2.853970089058629
 30
0.0
 40
0.0153818062434269
100
AcDbArc
 50
174.7883570302258
 51
270.0
  0
LWPOLYLINE
  5
7DE1B343D9E0AAC
330
7DE1B343D9E0B1F
100
AcDbEntity
  8
TEXT
100
AcDbPolyline
 90
        2
 70
     0
 43
0.0
 10
4.429556627454793
 20
2.824530798774029
 42
0.3318488747599744
 10
4.498675920020106
 20
2.772979456559101
 42
-6.868794160588311
  0
LINE
  5
7DE1B343D9E0AB0
330
7DE1B343D9E0B1F
100
AcDbEntity
  8
TEXT
100
AcDbLine
 10
4.654068322708802
 20
2.772979456559101
 30
0.0
 11
4.721126369490642
 21
2.772979456559101
 31
0.0
  0
LINE
  5
7DE1B343D9E0AB1
330
7DE1B343D9E0B1F
100
AcDbEntity
  8
TEXT
100
AcDbLine
 10
4.654068322708802
 20
2.967622005724737
 30
0.0
 11
4.654068322708802
 21
2.772979456559101
 31
0.0
  0
LINE
  5
7DE1B343D9E0AB2
330
7DE1B343D9E0B1F
100
AcDbEntity
  8
TEXT
100
AcDbLine
 10
4.596679253719541
 20
2.975175794890846
 30
0.0
 11
4.646514533542688
 21
2.975175794890846
 31
0.0
  0
LINE
  5
7DE1B343D9E0AB3
330
7DE1B343D9E0B1F
100
AcDbEntity
  8
TEXT
100
AcDbLine
 10
4.596679253719541
 20
2.772979456559101
 30
0.0
 11
4.596679253719541
 21
2.975175794890846
 31
0.0
  0
LWPOLYLINE
  5
7DE1B343D9E0AB4
330
7DE1B343D9E0B1F
100
AcDbEntity
  8
TEXT
100
AcDbPolyline
 90
        2
 70
     0
 43
0.0
 10
4.646514533542687
 20
2.975175794890846
 42
-0.4142135623731017
 10
4.6540683227088
 20
2.967622005724737
 42
-0.9999999999999998
  0
LINE
  5
7DE1B343D9E0AB8
330
7DE1B343D9E0B1F
100
AcDbEntity
  8
TEXT
100
AcDbLine
 10
4.852324534320372
 20
2.975175794890846
 30
0.0
 11
4.852324534320372
 21
2.90012338881664
 31
0.0
  0
LINE
  5
7DE1B343D9E0AB9
330
7DE1B343D9E0B1F
100
AcDbEntity
  8
TEXT
100
AcDbLine
 10
4.721126369490642
 20
2.975175794890846
 30
0.0
 11
4.775259966411592
 21
2.975175794890846
 31
0.0
  0
LINE
  5
7DE1B343D9E0ABA
330
7DE1B343D9E0B1F
100
AcDbEntity
  8
TEXT
100
AcDbLine
 10
4.721126369490642
 20
2.772979456559101
 30
0.0
 11
4.721126369490642
 21
2.975175794890846
 31
0.0
  0
LWPOLYLINE
  5
7DE1B343D9E0ABB
330
7DE1B343D9E0B1F
100
AcDbEntity
  8
TEXT
100
AcDbPolyline
 90
        2
 70
     0
 43
0.0
 10
4.77525996641159
 20
2.975175794890846
 42
-0.4142135623731017
 10
4.782813755577704
 20
2.967622005724737
 42
-0.9999999999999998
  0
LWPOLYLINE
  5
7DE1B343D9E0ABF
330
7DE1B343D9E0B1F
100
AcDbEntity
  8
TEXT
100
AcDbPolyline
 90
        4
 70
     0
 43
0.0
 10
4.782813755577704
 20
2.967622005724737
 10
4.782813755577704
 20
2.772979456559101
 10
4.851292038865562
 20
2.772979456559101
 10
4.851292038865562
 20
2.816470401509539
 42
-1.714843617202739
  0
LINE
  5
7DE1B343D9E0AC5
330
7DE1B343D9E0B1F
100
AcDbEntity
  8
TEXT
100
AcDbLine
 10
4.211427871182459
 20
3.039452489547612
 30
0.0
 11
4.211427871182459
 21
3.07384040714175
 31
0.0
  0
LINE
  5
7DE1B343D9E0AC6
330
7DE1B343D9E0B1F
100
AcDbEntity
  8
TEXT
100
AcDbLine
 10
4.283226837326367
 20
3.039452489547612
 30
0.0
 11
4.211427871182459
 21
3.039452489547612
 31
0.0
  0
LINE
  5
7DE1B343D9E0AC7
330
7DE1B343D9E0B1F
100
AcDbEntity
  8
TEXT
100
AcDbLine
 10
4.430727633957546
 20
3.039452489547612
 30
0.0
 11
4.40060572116417
 21
3.039452489547612
 31
0.0
  0
LINE
  5
7DE1B343D9E0AC8
330
7DE1B343D9E0B1F
100
AcDbEntity
  8
TEXT
100
AcDbLine
 10
4.430727633957546
 20
3.107463967286423
 30
0.0
 11
4.430727633957546
 21
3.039452489547612
 31
0.0
  0
LINE
  5
7DE1B343D9E0AC9
330
7DE1B343D9E0B1F
100
AcDbEntity
  8
TEXT
100
AcDbLine
 10
4.497536346523911
 20
3.107463967286423
 30
0.0
 11
4.430727633957546
 21
3.107463967286423
 31
0.0
  0
LWPOLYLINE
  5
7DE1B343D9E0ACA
330
7DE1B343D9E0B1F
100
AcDbEntity
  8
TEXT
100
AcDbPolyline
 90
        3
 70
     0
 43
0.0
 10
4.817948106121914
 20
3.039452489547616
 10
4.699647947305869
 20
3.039452489547616
 10
4.699647947305869
 20
3.01228499278672
 42
-1.960274751411753
  0
LINE
  5
7DE1B343D9E0ACF
330
7DE1B343D9E0B1F
100
AcDbEntity
  8
TEXT
100
AcDbLine
 10
4.663866256592708
 20
3.039452489547612
 30
0.0
 11
4.529848200661572
 21
3.039452489547612
 31
0.0
  0
LWPOLYLINE
  5
7DE1B343D9E0AD0
330
7DE1B343D9E0B1F
100
AcDbEntity
  8
TEXT
100
AcDbPolyline
 90
        2
 70
     0
 43
0.0
 10
4.663866256592708
 20
3.039452489547616
 42
-0.3328679258950098
 10
4.699647947305869
 20
3.01228499278672
 42
6.772930709997214
  0
LINE
  5
7DE1B343D9E0AD4
330
7DE1B343D9E0B1F
100
AcDbEntity
  8
TEXT
100
AcDbLine
 10
4.85372979683508
 20
3.039452489547612
 30
0.0
 11
4.85372979683508
 21
3.011129943777968
 31
0.0
  0
LWPOLYLINE
  5
7DE1B343D9E0AD5
330
7DE1B343D9E0B1F
100
AcDbEntity
  8
TEXT
100
AcDbPolyline
 90
        2
 70
     0
 43
0.0
 10
4.817948106121914
 20
3.039452489547616
 42
-0.3277054968067132
 10
4.853729796835079
 20
3.011129943777972
 42
6.667889725900311
  0
LINE
  5
7DE1B343D9E0AD9
330
7DE1B343D9E0B1F
100
AcDbEntity
  8
TEXT
100
AcDbLine
 10
5.067521644927181
 20
2.934240510994185
 30
0.0
 11
5.023770873745279
 21
3.01649078699033
 31
0.0
  0
LINE
  5
7DE1B343D9E0ADA
330
7DE1B343D9E0B1F
100
AcDbEntity
  8
TEXT
100
AcDbLine
 10
5.067521644927181
 20
3.039452489547612
 30
0.0
 11
5.067521644927181
 21
2.934240510994185
 31
0.0
  0
LINE
  5
7DE1B343D9E0ADB
330
7DE1B343D9E0B1F
100
AcDbEntity
  8
TEXT
100
AcDbLine
 10
5.29520538386555
 20
2.963587163136074
 30
0.0
 11
5.29520538386555
 21
3.104916695315213
 31
0.0
  0
LINE
  5
7DE1B343D9E0ADC
330
7DE1B343D9E0B1F
100
AcDbEntity
  8
TEXT
100
AcDbLine
 10
5.342303542421534
 20
3.039452489547612
 30
0.0
 11
5.29520538386555
 21
2.963587163136074
 31
0.0
  0
LINE
  5
7DE1B343D9E0ADD
330
7DE1B343D9E0B1F
100
AcDbEntity
  8
TEXT
100
AcDbLine
 10
5.352738259185457
 20
2.929559246606638
 30
0.0
 11
5.417295375151162
 21
3.039452489547612
 31
0.0
  0
LINE
  5
7DE1B343D9E0ADE
330
7DE1B343D9E0B1F
100
AcDbEntity
  8
TEXT
100
AcDbLine
 10
5.231370392642777
 20
2.772979456559101
 30
0.0
 11
5.295748576961397
 21
2.772979456559101
 31
0.0
  0
LWPOLYLINE
  5
7DE1B343D9E0ADF
330
7DE1B343D9E0B1F
100
AcDbEntity
  8
TEXT
100
AcDbPolyline
 90
        2
 70
     0
 43
0.0
 10
5.071461322232218
 20
2.816470401509539
 42
-0.2901071551932486
 10
5.028385389364574
 20
2.772979456559101
 42
-5.328517124445184
  0
ARC
  5
7DE1B343D9E0AE3
330
7DE1B343D9E0B1F
100
AcDbEntity
  8
TEXT
100
AcDbCircle
 10
4.959530807707659
 20
2.946816419890849
 30
0.0
 40
0.028359375
100
AcDbArc
 50
25.78218179591245
 51
90.0
  0
LINE
  5
7DE1B343D9E0AE4
330
7DE1B343D9E0B1F
100
AcDbEntity
  8
TEXT
100
AcDbLine
 10
4.995331883011782
 20
2.937900821428714
 30
0.0
 11
4.985067122598218
 21
2.959151361001408
 31
0.0
  0
LINE
  5
7DE1B343D9E0AE5
330
7DE1B343D9E0B1F
100
AcDbEntity
  8
TEXT
100
AcDbLine
 10
4.913043893228399
 20
2.937900821428714
 30
0.0
 11
4.995331883011782
 21
2.937900821428714
 31
0.0
  0
LWPOLYLINE
  5
7DE1B343D9E0AE6
330
7DE1B343D9E0B1F
100
AcDbEntity
  8
TEXT
100
AcDbPolyline
 90
        4
 70
     1
 43
0.0
 10
5.008262924294681
 20
2.875943434543126
 10
4.919602605634823
 20
2.875943434543126
 42
0.9999999999999998
 10
4.919602605634823
 20
2.833544894039265
 10
5.008262924294681
 20
2.833544894039265
 42
1.0
  0
LWPOLYLINE
  5
7DE1B343D9E0AEC
330
7DE1B343D9E0B1F
100
AcDbEntity
  8
TEXT
100
AcDbPolyline
 90
        2
 70
     0
 43
0.0
 10
4.894367971733197
 20
2.772979456559101
 10
5.028385389364574
 20
2.772979456559101
 42
0.9999999999999998
  0
LINE
  5
7DE1B343D9E0AF0
330
7DE1B343D9E0B1F
100
AcDbEntity
  8
TEXT
100
AcDbLine
 10
5.154722411350213
 20
2.975175794890846
 30
0.0
 11
5.231370392642771
 21
2.975175794890846
 31
0.0
  0
LINE
  5
7DE1B343D9E0AF1
330
7DE1B343D9E0B1F
100
AcDbEntity
  8
TEXT
100
AcDbLine
 10
5.231370392642771
 20
2.975175794890846
 30
0.0
 11
5.231370392642777
 21
2.772979456559101
 31
0.0
  0
ARC
  5
7DE1B343D9E0AF2
330
7DE1B343D9E0B1F
100
AcDbEntity
  8
TEXT
100
AcDbCircle
 10
5.154722411350212
 20
2.950269919608184
 30
0.0
 40
0.0249058752826653
100
AcDbArc
 50
89.99971217465335
 51
179.9999999999985
  0
LINE
  5
7DE1B343D9E0AF3
330
7DE1B343D9E0B1F
100
AcDbEntity
  8
TEXT
100
AcDbLine
 10
5.129816536067554
 20
2.772979456559101
 30
0.0
 11
5.129816536067549
 21
2.950269961990569
 31
0.0
  0
LWPOLYLINE
  5
7DE1B343D9E0AF4
330
7DE1B343D9E0B1F
100
AcDbEntity
  8
TEXT
100
AcDbPolyline
 90
        2
 70
     0
 43
0.0
 10
5.071461322232218
 20
2.772979456559101
 10
5.129816536067552
 20
2.772979456559101
  0
LWPOLYLINE
  5
7DE1B343D9E0AF8
330
7DE1B343D9E0B1F
100
AcDbEntity
  8
TEXT
100
AcDbPolyline
 90
        2
 70
     0
 43
0.0
 10
5.071461322232218
 20
2.816470401509539
 10
5.071461322232218
 20
2.772979456559101
  0
LINE
  5
7DE1B343D9E0AFC
330
7DE1B343D9E0B1F
100
AcDbEntity
  8
TEXT
100
AcDbLine
 10
5.448230482549067
 20
2.772979456559101
 30
0.0
 11
5.352738259185457
 21
2.929559246606638
 31
0.0
  0
LINE
  5
7DE1B343D9E0AFD
330
7DE1B343D9E0B1F
100
AcDbEntity
  8
TEXT
100
AcDbLine
 10
5.371652110172862
 20
2.772979456559101
 30
0.0
 11
5.448230482549067
 21
2.772979456559101
 31
0.0
  0
LINE
  5
7DE1B343D9E0AFE
330
7DE1B343D9E0B1F
100
AcDbEntity
  8
TEXT
100
AcDbLine
 10
5.295748576961397
 20
2.904559025035281
 30
0.0
 11
5.371652110172862
 21
2.772979456559101
 31
0.0
  0
LINE
  5
7DE1B343D9E0AFF
330
7DE1B343D9E0B1F
100
AcDbEntity
  8
TEXT
100
AcDbLine
 10
5.295748576961397
 20
2.772979456559101
 30
0.0
 11
5.295748576961397
 21
2.904559025035281
 31
0.0
  0
LINE
  5
7DE1B343D9E0B00
330
7DE1B343D9E0B1F
100
AcDbEntity
  8
TEXT
100
AcDbLine
 10
5.29520538386555
 20
3.104916695315213
 30
0.0
 11
5.226890505316276
 21
3.104916695315213
 31
0.0
  0
ARC
  5
7DE1B343D9E0B01
330
7DE1B343D9E0B1F
100
AcDbEntity
  8
TEXT
100
AcDbCircle
 10
4.98653476627507
 20
2.99786892242671
 30
0.0
 40
0.0416329381542859
100
AcDbArc
 50
26.56974201007528
 51
87.20939649401342
  0
LINE
  5
7DE1B343D9E0B02
330
7DE1B343D9E0B1F
100
AcDbEntity
  8
TEXT
100
AcDbLine
 10
5.131418551226682
 20
3.039452489547612
 30
0.0
 11
5.067521644927181
 21
3.039452489547612
 31
0.0
  0
LINE
  5
7DE1B343D9E0B03
330
7DE1B343D9E0B1F
100
AcDbEntity
  8
TEXT
100
AcDbLine
 10
5.131418551226682
 20
3.011904839686737
 30
0.0
 11
5.131418551226682
 21
3.039452489547612
 31
0.0
  0
ARC
  5
7DE1B343D9E0B04
330
7DE1B343D9E0B1F
100
AcDbEntity
  8
TEXT
100
AcDbCircle
 10
5.162611368289789
 20
3.008206762265347
 30
0.0
 40
0.0314112657011332
100
AcDbArc
 50
95.88484768694724
 51
173.2388340632136
  0
LINE
  5
7DE1B343D9E0B05
330
7DE1B343D9E0B1F
100
AcDbEntity
  8
TEXT
100
AcDbLine
 10
5.226890505316271
 20
3.039452489547612
 30
0.0
 11
5.159390787666755
 21
3.039452489547612
 31
0.0
  0
LINE
  5
7DE1B343D9E0B06
330
7DE1B343D9E0B1F
100
AcDbEntity
  8
TEXT
100
AcDbLine
 10
5.226890505316276
 20
3.104916695315213
 30
0.0
 11
5.226890505316271
 21
3.039452489547612
 31
0.0
  0
LINE
  5
7DE1B343D9E0B07
330
7DE1B343D9E0B1F
100
AcDbEntity
  8
TEXT
100
AcDbLine
 10
5.417295375151162
 20
3.039452489547612
 30
0.0
 11
5.342303542421536
 21
3.039452489547612
 31
0.0
  0
ENDSEC
  0
SECTION
  2
OBJECTS
  0
DICTIONARY
  5
7DE1B343D9E0B13
330
0
100
AcDbDictionary
  3
ACAD_GROUP
350
7DE1B343D9E0B14
  3
ACAD_LAYOUT
350
7DE1B343D9E0B39
  3
ACAD_MLINESTYLE
350
7DE1B343D9E0B15
  3
ACAD_PLOTSETTINGS
350
7DE1B343D9E0B3A
  3
ACAD_PLOTSTYLENAME
350
7DE1B343D9E0B37
  3
ACDBHEADERROUNDTRIPXREC
350
7DE1B343D9E0B44
  3
ACDBVARIABLEDICTIONARY
350
7DE1B343D9E0B41
  0
DICTIONARY
  5
7DE1B343D9E0B66
330
7DE1B343D9E0B1F
100
AcDbDictionary
280
     1
  3
ACAD_LAYOUTSELFREF
360
7DE1B343D9E0B67
  0
DICTIONARY
  5
7DE1B343D9E0B64
330
7DE1B343D9E0B1C
100
AcDbDictionary
280
     1
  3
ACAD_LAYOUTSELFREF
360
7DE1B343D9E0B65
  0
DICTIONARY
  5
7DE1B343D9E0B14
102
{ACAD_REACTORS
330
7DE1B343D9E0B13
102
}
330
7DE1B343D9E0B13
100
AcDbDictionary
  0
DICTIONARY
  5
7DE1B343D9E0B39
102
{ACAD_REACTORS
330
7DE1B343D9E0B13
102
}
330
7DE1B343D9E0B13
100
AcDbDictionary
  0
DICTIONARY
  5
7DE1B343D9E0B15
102
{ACAD_REACTORS
330
7DE1B343D9E0B13
102
}
330
7DE1B343D9E0B13
100
AcDbDictionary
  3
STANDARD
350
7DE1B343D9E0B22
  0
DICTIONARY
  5
7DE1B343D9E0B3A
102
{ACAD_REACTORS
330
7DE1B343D9E0B13
102
}
330
7DE1B343D9E0B13
100
AcDbDictionary
  0
ACDBDICTIONARYWDFLT
  5
7DE1B343D9E0B37
102
{ACAD_REACTORS
330
7DE1B343D9E0B13
102
}
330
7DE1B343D9E0B13
100
AcDbDictionary
281
     1
  3
Normal
350
7DE1B343D9E0B38
100
AcDbDictionaryWithDefault
340
7DE1B343D9E0B38
  0
DICTIONARY
  5
7DE1B343D9E0B44
102
{ACAD_REACTORS
330
7DE1B343D9E0B13
102
}
330
7DE1B343D9E0B13
100
AcDbDictionary
  3
CEPSNTYPE
350
7DE1B343D9E0B4E
  3
FINGERPRINTGUID
350
7DE1B343D9E0B4F
  3
HYPERLINKBASE
350
7DE1B343D9E0B47
  3
INSUNITS
350
7DE1B343D9E0B4D
  3
LAYOUTDICT
350
7DE1B343D9E0B49
  3
LWETCUNION
350
7DE1B343D9E0B4C
  3
PLOTSETDICT
350
7DE1B343D9E0B4A
  3
PLOTSTYLNAMDICT
350
7DE1B343D9E0B4B
  3
PSVPSCALE
350
7DE1B343D9E0B51
  3
PUCSBASE
350
7DE1B343D9E0B54
  3
PUCSORGBACK
350
7DE1B343D9E0B5A
  3
PUCSORGBOTTOM
350
7DE1B343D9E0B56
  3
PUCSORGFRONT
350
7DE1B343D9E0B59
  3
PUCSORGLEFT
350
7DE1B343D9E0B57
  3
PUCSORGRIGHT
350
7DE1B343D9E0B58
  3
PUCSORGTOP
350
7DE1B343D9E0B55
  3
PUCSORTHOREF
350
7DE1B343D9E0B52
  3
PUCSORTHOVIEW
350
7DE1B343D9E0B53
  3
STYLESHEET
350
7DE1B343D9E0B48
  3
TSTACKALIGN
350
7DE1B343D9E0B45
  3
TSTACKSIZE
350
7DE1B343D9E0B46
  3
UCSBASE
350
7DE1B343D9E0B5D
  3
UCSORGBACK
350
7DE1B343D9E0B63
  3
UCSORGBOTTOM
350
7DE1B343D9E0B5F
  3
UCSORGFRONT
350
7DE1B343D9E0B62
  3
UCSORGLEFT
350
7DE1B343D9E0B60
  3
UCSORGRIGHT
350
7DE1B343D9E0B61
  3
UCSORGTOP
350
7DE1B343D9E0B5E
  3
UCSORTHOREF
350
7DE1B343D9E0B5B
  3
UCSORTHOVIEW
350
7DE1B343D9E0B5C
  3
VERSIONGUID
350
7DE1B343D9E0B50
  0
DICTIONARY
  5
7DE1B343D9E0B41
102
{ACAD_REACTORS
330
7DE1B343D9E0B13
102
}
330
7DE1B343D9E0B13
100
AcDbDictionary
  3
DIMASSOC
350
7DE1B343D9E0B42
  0
XRECORD
  5
7DE1B343D9E0B67
102
{ACAD_REACTORS
330
7DE1B343D9E0B66
102
}
330
7DE1B343D9E0B66
100
AcDbXrecord
340
7DE1B343D9E0B1F
  0
XRECORD
  5
7DE1B343D9E0B65
102
{ACAD_REACTORS
330
7DE1B343D9E0B64
102
}
330
7DE1B343D9E0B64
100
AcDbXrecord
340
7DE1B343D9E0B1C
  0
MLINESTYLE
  5
7DE1B343D9E0B22
102
{ACAD_REACTORS
330
7DE1B343D9E0B15
102
}
330
7DE1B343D9E0B15
100
AcDbMlineStyle
  2
STANDARD
 70
     0
  3

 62
     0
 51
90.0
 52
90.0
 71
     2
 49
0.5
 62
   256
  6
BYLAYER
 49
-0.5
 62
   256
  6
BYLAYER
  0
ACDBPLACEHOLDER
  5
7DE1B343D9E0B38
102
{ACAD_REACTORS
330
7DE1B343D9E0B37
102
}
330
7DE1B343D9E0B37
100
AcDbPlaceHolder
280
     0
  0
XRECORD
  5
7DE1B343D9E0B4E
102
{ACAD_REACTORS
330
7DE1B343D9E0B44
102
}
330
7DE1B343D9E0B44
100
AcDbXrecord
 90
        0
  0
XRECORD
  5
7DE1B343D9E0B4F
102
{ACAD_REACTORS
330
7DE1B343D9E0B44
102
}
330
7DE1B343D9E0B44
100
AcDbXrecord
  1
{34FF4FB0-8DB7-11D6-88E6-0090279574E7}
  0
XRECORD
  5
7DE1B343D9E0B47
102
{ACAD_REACTORS
330
7DE1B343D9E0B44
102
}
330
7DE1B343D9E0B44
100
AcDbXrecord
  1

  0
XRECORD
  5
7DE1B343D9E0B4D
102
{ACAD_REACTORS
330
7DE1B343D9E0B44
102
}
330
7DE1B343D9E0B44
100
AcDbXrecord
 90
        0
  0
XRECORD
  5
7DE1B343D9E0B49
102
{ACAD_REACTORS
330
7DE1B343D9E0B44
102
}
330
7DE1B343D9E0B44
100
AcDbXrecord
340
7DE1B343D9E0B39
  0
XRECORD
  5
7DE1B343D9E0B4C
102
{ACAD_REACTORS
330
7DE1B343D9E0B44
102
}
330
7DE1B343D9E0B44
100
AcDbXrecord
 90
    14877
  0
XRECORD
  5
7DE1B343D9E0B4A
102
{ACAD_REACTORS
330
7DE1B343D9E0B44
102
}
330
7DE1B343D9E0B44
100
AcDbXrecord
340
7DE1B343D9E0B3A
  0
XRECORD
  5
7DE1B343D9E0B4B
102
{ACAD_REACTORS
330
7DE1B343D9E0B44
102
}
330
7DE1B343D9E0B44
100
AcDbXrecord
340
7DE1B343D9E0B37
  0
XRECORD
  5
7DE1B343D9E0B51
102
{ACAD_REACTORS
330
7DE1B343D9E0B44
102
}
330
7DE1B343D9E0B44
100
AcDbXrecord
 40
0.0
  0
XRECORD
  5
7DE1B343D9E0B54
102
{ACAD_REACTORS
330
7DE1B343D9E0B44
102
}
330
7DE1B343D9E0B44
100
AcDbXrecord
340
0
  0
XRECORD
  5
7DE1B343D9E0B5A
102
{ACAD_REACTORS
330
7DE1B343D9E0B44
102
}
330
7DE1B343D9E0B44
100
AcDbXrecord
 10
0.0
 20
0.0
 30
0.0
  0
XRECORD
  5
7DE1B343D9E0B56
102
{ACAD_REACTORS
330
7DE1B343D9E0B44
102
}
330
7DE1B343D9E0B44
100
AcDbXrecord
 10
0.0
 20
0.0
 30
0.0
  0
XRECORD
  5
7DE1B343D9E0B59
102
{ACAD_REACTORS
330
7DE1B343D9E0B44
102
}
330
7DE1B343D9E0B44
100
AcDbXrecord
 10
0.0
 20
0.0
 30
0.0
  0
XRECORD
  5
7DE1B343D9E0B57
102
{ACAD_REACTORS
330
7DE1B343D9E0B44
102
}
330
7DE1B343D9E0B44
100
AcDbXrecord
 10
0.0
 20
0.0
 30
0.0
  0
XRECORD
  5
7DE1B343D9E0B58
102
{ACAD_REACTORS
330
7DE1B343D9E0B44
102
}
330
7DE1B343D9E0B44
100
AcDbXrecord
 10
0.0
 20
0.0
 30
0.0
  0
XRECORD
  5
7DE1B343D9E0B55
102
{ACAD_REACTORS
330
7DE1B343D9E0B44
102
}
330
7DE1B343D9E0B44
100
AcDbXrecord
 10
0.0
 20
0.0
 30
0.0
  0
XRECORD
  5
7DE1B343D9E0B52
102
{ACAD_REACTORS
330
7DE1B343D9E0B44
102
}
330
7DE1B343D9E0B44
100
AcDbXrecord
340
0
  0
XRECORD
  5
7DE1B343D9E0B53
102
{ACAD_REACTORS
330
7DE1B343D9E0B44
102
}
330
7DE1B343D9E0B44
100
AcDbXrecord
 70
     0
  0
XRECORD
  5
7DE1B343D9E0B48
102
{ACAD_REACTORS
330
7DE1B343D9E0B44
102
}
330
7DE1B343D9E0B44
100
AcDbXrecord
  1

  0
XRECORD
  5
7DE1B343D9E0B45
102
{ACAD_REACTORS
330
7DE1B343D9E0B44
102
}
330
7DE1B343D9E0B44
100
AcDbXrecord
 90
        1
  0
XRECORD
  5
7DE1B343D9E0B46
102
{ACAD_REACTORS
330
7DE1B343D9E0B44
102
}
330
7DE1B343D9E0B44
100
AcDbXrecord
 90
       70
  0
XRECORD
  5
7DE1B343D9E0B5D
102
{ACAD_REACTORS
330
7DE1B343D9E0B44
102
}
330
7DE1B343D9E0B44
100
AcDbXrecord
340
0
  0
XRECORD
  5
7DE1B343D9E0B63
102
{ACAD_REACTORS
330
7DE1B343D9E0B44
102
}
330
7DE1B343D9E0B44
100
AcDbXrecord
 10
0.0
 20
0.0
 30
0.0
  0
XRECORD
  5
7DE1B343D9E0B5F
102
{ACAD_REACTORS
330
7DE1B343D9E0B44
102
}
330
7DE1B343D9E0B44
100
AcDbXrecord
 10
0.0
 20
0.0
 30
0.0
  0
XRECORD
  5
7DE1B343D9E0B62
102
{ACAD_REACTORS
330
7DE1B343D9E0B44
102
}
330
7DE1B343D9E0B44
100
AcDbXrecord
 10
0.0
 20
0.0
 30
0.0
  0
XRECORD
  5
7DE1B343D9E0B60
102
{ACAD_REACTORS
330
7DE1B343D9E0B44
102
}
330
7DE1B343D9E0B44
100
AcDbXrecord
 10
0.0
 20
0.0
 30
0.0
  0
XRECORD
  5
7DE1B343D9E0B61
102
{ACAD_REACTORS
330
7DE1B343D9E0B44
102
}
330
7DE1B343D9E0B44
100
AcDbXrecord
 10
0.0
 20
0.0
 30
0.0
  0
XRECORD
  5
7DE1B343D9E0B5E
102
{ACAD_REACTORS
330
7DE1B343D9E0B44
102
}
330
7DE1B343D9E0B44
100
AcDbXrecord
 10
0.0
 20
0.0
 30
0.0
  0
XRECORD
  5
7DE1B343D9E0B5B
102
{ACAD_REACTORS
330
7DE1B343D9E0B44
102
}
330
7DE1B343D9E0B44
100
AcDbXrecord
340
0
  0
XRECORD
  5
7DE1B343D9E0B5C
102
{ACAD_REACTORS
330
7DE1B343D9E0B44
102
}
330
7DE1B343D9E0B44
100
AcDbXrecord
 70
     0
  0
XRECORD
  5
7DE1B343D9E0B50
102
{ACAD_REACTORS
330
7DE1B343D9E0B44
102
}
330
7DE1B343D9E0B44
100
AcDbXrecord
  1
{34FF4FB2-8DB7-11D6-88E6-0090279574E7}
  0
DICTIONARYVAR
  5
7DE1B343D9E0B42
102
{ACAD_REACTORS
330
7DE1B343D9E0B41
102
}
330
7DE1B343D9E0B41
100
DictionaryVariables
280
     0
  1
1
  0
ENDSEC
  0
EOF
