  0
SECTION
  2
HEADER
  9
$ACADVER
  1
AC1014
  9
$ACADMAINTVER
 70
     9
  9
$DWGCODEPAGE
  3
ANSI_1252
  9
$INSBASE
 10
0.0
 20
0.0
 30
0.0
  9
$EXTMIN
 10
2.046067244158948
 20
2.649504411282174
 30
0.0
  9
$EXTMAX
 10
6.071936651270082
 20
5.307085766096442
 30
0.0
  9
$LIMMIN
 10
0.0
 20
0.0
  9
$LIMMAX
 10
8.5
 20
11.0
  9
$ORTHOMODE
 70
     1
  9
$REGENMODE
 70
     1
  9
$FILLMODE
 70
     1
  9
$QTEXTMODE
 70
     0
  9
$MIRRTEXT
 70
     0
  9
$DRAGMODE
 70
     2
  9
$LTSCALE
 40
0.4
  9
$OSMODE
 70
    39
  9
$ATTMODE
 70
     1
  9
$TEXTSIZE
 40
0.125
  9
$TRACEWID
 40
0.05
  9
$TEXTSTYLE
  7
ROMANS
  9
$CLAYER
  8
0
  9
$CELTYPE
  6
BYLAYER
  9
$CECOLOR
 62
   256
  9
$CELTSCALE
 40
1.0
  9
$DELOBJ
 70
     1
  9
$DISPSILH
 70
     1
  9
$DIMSCALE
 40
2.0
  9
$DIMASZ
 40
0.125
  9
$DIMEXO
 40
0.125
  9
$DIMDLI
 40
0.375
  9
$DIMRND
 40
0.0
  9
$DIMDLE
 40
0.0
  9
$DIMEXE
 40
0.125
  9
$DIMTP
 40
0.012
  9
$DIMTM
 40
0.0
  9
$DIMTXT
 40
0.125
  9
$DIMCEN
 40
-0.0625
  9
$DIMTSZ
 40
0.0
  9
$DIMTOL
 70
     0
  9
$DIMLIM
 70
     0
  9
$DIMTIH
 70
     1
  9
$DIMTOH
 70
     1
  9
$DIMSE1
 70
     0
  9
$DIMSE2
 70
     0
  9
$DIMTAD
 70
     0
  9
$DIMZIN
 70
     4
  9
$DIMBLK
  1

  9
$DIMASO
 70
     1
  9
$DIMSHO
 70
     1
  9
$DIMPOST
  1

  9
$DIMAPOST
  1

  9
$DIMALT
 70
     0
  9
$DIMALTD
 70
     2
  9
$DIMALTF
 40
25.4
  9
$DIMLFAC
 40
1.0
  9
$DIMTOFL
 70
     0
  9
$DIMTVP
 40
0.0
  9
$DIMTIX
 70
     1
  9
$DIMSOXD
 70
     0
  9
$DIMSAH
 70
     0
  9
$DIMBLK1
  1

  9
$DIMBLK2
  1

  9
$DIMSTYLE
  2
STANDARD
  9
$DIMCLRD
 70
     0
  9
$DIMCLRE
 70
     0
  9
$DIMCLRT
 70
     0
  9
$DIMTFAC
 40
1.0
  9
$DIMGAP
 40
0.09
  9
$DIMJUST
 70
     0
  9
$DIMSD1
 70
     0
  9
$DIMSD2
 70
     0
  9
$DIMTOLJ
 70
     1
  9
$DIMTZIN
 70
     0
  9
$DIMALTZ
 70
     0
  9
$DIMALTTZ
 70
     0
  9
$DIMFIT
 70
     3
  9
$DIMUPT
 70
     0
  9
$DIMUNIT
 70
     2
  9
$DIMDEC
 70
     3
  9
$DIMTDEC
 70
     4
  9
$DIMALTU
 70
     2
  9
$DIMALTTD
 70
     2
  9
$DIMTXSTY
  7
ROMANS
  9
$DIMAUNIT
 70
     0
  9
$LUNITS
 70
     2
  9
$LUPREC
 70
     3
  9
$SKETCHINC
 40
0.1
  9
$FILLETRAD
 40
0.0
  9
$AUNITS
 70
     0
  9
$AUPREC
 70
     0
  9
$MENU
  1
ACAD
  9
$ELEVATION
 40
0.0
  9
$PELEVATION
 40
0.0
  9
$THICKNESS
 40
0.0
  9
$LIMCHECK
 70
     0
  9
$BLIPMODE
 70
     0
  9
$CHAMFERA
 40
0.0
  9
$CHAMFERB
 40
0.0
  9
$CHAMFERC
 40
0.0
  9
$CHAMFERD
 40
0.0
  9
$SKPOLY
 70
     0
  9
$TDCREATE
 40
2448411.600838426
  9
$TDUPDATE
 40
2452458.311270937
  9
$TDINDWG
 40
0.2222551389
  9
$TDUSRTIMER
 40
0.2222551389
  9
$USRTIMER
 70
     1
  9
$ANGBASE
 50
0.0
  9
$ANGDIR
 70
     0
  9
$PDMODE
 70
     0
  9
$PDSIZE
 40
0.0
  9
$PLINEWID
 40
0.0
  9
$COORDS
 70
     2
  9
$SPLFRAME
 70
     0
  9
$SPLINETYPE
 70
     6
  9
$SPLINESEGS
 70
     8
  9
$ATTDIA
 70
     0
  9
$ATTREQ
 70
     1
  9
$HANDLING
 70
 22529
  9
$HANDSEED
  5
36D
  9
$SURFTAB1
 70
     6
  9
$SURFTAB2
 70
     6
  9
$SURFTYPE
 70
     6
  9
$SURFU
 70
     6
  9
$SURFV
 70
     6
  9
$UCSNAME
  2

  9
$UCSORG
 10
0.0
 20
0.0
 30
0.0
  9
$UCSXDIR
 10
1.0
 20
0.0
 30
0.0
  9
$UCSYDIR
 10
0.0
 20
1.0
 30
0.0
  9
$PUCSNAME
  2

  9
$PUCSORG
 10
0.0
 20
0.0
 30
0.0
  9
$PUCSXDIR
 10
1.0
 20
0.0
 30
0.0
  9
$PUCSYDIR
 10
0.0
 20
1.0
 30
0.0
  9
$USERI1
 70
     0
  9
$USERI2
 70
     0
  9
$USERI3
 70
     0
  9
$USERI4
 70
     0
  9
$USERI5
 70
     0
  9
$USERR1
 40
0.0
  9
$USERR2
 40
0.0
  9
$USERR3
 40
0.0
  9
$USERR4
 40
0.0
  9
$USERR5
 40
0.0
  9
$WORLDVIEW
 70
     1
  9
$SHADEDGE
 70
     3
  9
$SHADEDIF
 70
    70
  9
$TILEMODE
 70
     1
  9
$MAXACTVP
 70
    16
  9
$PINSBASE
 10
0.0
 20
0.0
 30
0.0
  9
$PLIMCHECK
 70
     0
  9
$PEXTMIN
 10
1.000000000000000E+20
 20
1.000000000000000E+20
 30
1.000000000000000E+20
  9
$PEXTMAX
 10
-1.000000000000000E+20
 20
-1.000000000000000E+20
 30
-1.000000000000000E+20
  9
$PLIMMIN
 10
0.0
 20
0.0
  9
$PLIMMAX
 10
12.0
 20
9.0
  9
$UNITMODE
 70
     0
  9
$VISRETAIN
 70
     0
  9
$PLINEGEN
 70
     1
  9
$PSLTSCALE
 70
     0
  9
$TREEDEPTH
 70
  3020
  9
$PICKSTYLE
 70
     1
  9
$CMLSTYLE
  2
STANDARD
  9
$CMLJUST
 70
     0
  9
$CMLSCALE
 40
1.0
  9
$PROXYGRAPHICS
 70
     1
  9
$MEASUREMENT
 70
     0
  0
ENDSEC
  0
SECTION
  2
CLASSES
  0
CLASS
  1
LWPOLYLINE
  2
AcDbPolyline
  3
AutoCAD 2000
 90
        0
280
     0
281
     1
  0
CLASS
  1
ACDBDICTIONARYWDFLT
  2
AcDbDictionaryWithDefault
  3
AutoCAD 2000
 90
        0
280
     0
281
     0
  0
CLASS
  1
ACDBPLACEHOLDER
  2
AcDbPlaceHolder
  3
AutoCAD 2000
 90
        0
280
     0
281
     0
  0
CLASS
  1
LAYOUT
  2
AcDbLayout
  3
AutoCAD 2000
 90
        0
280
     0
281
     0
  0
CLASS
  1
DICTIONARYVAR
  2
AcDbDictionaryVar
  3
AutoCAD 2000
 90
        0
280
     0
281
     0
  0
CLASS
  1
LONG_TRANSACTION
  2
AcDbLongTransaction
  3
AutoCAD 2000
 90
        0
280
     0
281
     0
  0
CLASS
  1
LWPOLYLINE
  2
AcDbPolyline
  3
AutoCAD 2000
 90
        0
280
     0
281
     1
  0
CLASS
  1
HATCH
  2
AcDbHatch
  3
AutoCAD 2000
 90
        0
280
     0
281
     1
  0
CLASS
  1
XRECORD
  2
AcDbXrecord
  3
AutoCAD 2000
 90
        0
280
     0
281
     0
  0
ENDSEC
  0
SECTION
  2
TABLES
  0
TABLE
  2
VPORT
  5
8
330
0
100
AcDbSymbolTable
 70
     2
  0
VPORT
  5
348
330
8
100
AcDbSymbolTableRecord
100
AcDbViewportTableRecord
  2
*ACTIVE
 70
     0
 10
0.0
 20
0.0
 11
1.0
 21
1.0
 12
7.679916559019458
 22
3.978226647425881
 13
0.0
 23
0.0
 14
0.25
 24
0.25
 15
0.0
 25
0.0
 16
0.0
 26
0.0
 36
1.0
 17
0.0
 27
0.0
 37
0.0
 40
2.681158402364424
 41
4.320930232558139
 42
50.0
 43
0.0
 44
0.0
 50
0.0
 51
0.0
 71
     0
 72
  2000
 73
     1
 74
     1
 75
     0
 76
     0
 77
     0
 78
     0
  0
ENDTAB
  0
TABLE
  2
LTYPE
  5
5
330
0
100
AcDbSymbolTable
 70
     1
  0
LTYPE
  5
12
330
5
100
AcDbSymbolTableRecord
100
AcDbLinetypeTableRecord
  2
BYBLOCK
 70
     0
  3

 72
    65
 73
     0
 40
0.0
  0
LTYPE
  5
13
330
5
100
AcDbSymbolTableRecord
100
AcDbLinetypeTableRecord
  2
BYLAYER
 70
     0
  3

 72
    65
 73
     0
 40
0.0
  0
LTYPE
  5
14
330
5
100
AcDbSymbolTableRecord
100
AcDbLinetypeTableRecord
  2
CONTINUOUS
 70
     0
  3
Solid line
 72
    65
 73
     0
 40
0.0
  0
ENDTAB
  0
TABLE
  2
LAYER
  5
2
330
0
100
AcDbSymbolTable
 70
     2
  0
LAYER
  5
F
330
2
100
AcDbSymbolTableRecord
100
AcDbLayerTableRecord
  2
0
 70
     0
 62
     7
  6
CONTINUOUS
  0
LAYER
  5
2B
330
2
100
AcDbSymbolTableRecord
100
AcDbLayerTableRecord
  2
TEXT
 70
     0
 62
     3
  6
CONTINUOUS
  0
ENDTAB
  0
TABLE
  2
STYLE
  5
3
330
0
100
AcDbSymbolTable
 70
     3
  0
STYLE
  5
10
330
3
100
AcDbSymbolTableRecord
100
AcDbTextStyleTableRecord
  2
STANDARD
 70
     0
 40
0.0
 41
1.0
 50
0.0
 71
     0
 42
0.125
  3
txt
  4

  0
STYLE
  5
234
330
3
100
AcDbSymbolTableRecord
100
AcDbTextStyleTableRecord
  2
ITALICC
 70
     0
 40
0.0
 41
1.0
 50
0.0
 71
     0
 42
0.125
  3
italicc
  4

  0
STYLE
  5
344
330
3
100
AcDbSymbolTableRecord
100
AcDbTextStyleTableRecord
  2
ROMANS
 70
     0
 40
0.0
 41
1.0
 50
0.0
 71
     0
 42
0.125
  3
romans.shx
  4

  0
ENDTAB
  0
TABLE
  2
VIEW
  5
6
330
0
100
AcDbSymbolTable
 70
     0
  0
ENDTAB
  0
TABLE
  2
UCS
  5
7
330
0
100
AcDbSymbolTable
 70
     0
  0
ENDTAB
  0
TABLE
  2
APPID
  5
9
330
0
100
AcDbSymbolTable
 70
     1
  0
APPID
  5
11
330
9
100
AcDbSymbolTableRecord
100
AcDbRegAppTableRecord
  2
ACAD
 70
     0
  0
ENDTAB
  0
TABLE
  2
DIMSTYLE
  5
A
330
0
100
AcDbSymbolTable
 70
     1
  0
DIMSTYLE
105
22A
330
A
100
AcDbSymbolTableRecord
100
AcDbDimStyleTableRecord
  2
STANDARD
 70
     0
  3

  4

  5

  6

  7

 40
1.0
 41
0.18
 42
0.0625
 43
0.38
 44
0.18
 45
0.0
 46
0.0
 47
0.0
 48
0.0
140
0.18
141
0.09
142
0.0
143
25.4
144
1.0
145
0.0
146
1.0
147
0.09
 71
     0
 72
     0
 73
     1
 74
     1
 75
     0
 76
     0
 77
     0
 78
     0
170
     0
171
     2
172
     0
173
     0
174
     0
175
     0
176
     0
177
     0
178
     0
270
     2
271
     4
272
     4
273
     2
274
     2
340
10
275
     0
280
     0
281
     0
282
     0
283
     1
284
     0
285
     0
286
     0
287
     3
288
     0
  0
ENDTAB
  0
TABLE
  2
BLOCK_RECORD
  5
1
330
0
100
AcDbSymbolTable
 70
     0
  0
BLOCK_RECORD
  5
18
102
{ACAD_XDICTIONARY
360
36B
102
}
330
1
100
AcDbSymbolTableRecord
100
AcDbBlockTableRecord
  2
*MODEL_SPACE
  0
BLOCK_RECORD
  5
15
102
{ACAD_XDICTIONARY
360
369
102
}
330
1
100
AcDbSymbolTableRecord
100
AcDbBlockTableRecord
  2
*PAPER_SPACE
  0
ENDTAB
  0
ENDSEC
  0
SECTION
  2
BLOCKS
  0
BLOCK
  5
35
330
18
100
AcDbEntity
  8
0
100
AcDbBlockBegin
  2
*MODEL_SPACE
 70
     0
 10
0.0
 20
0.0
 30
0.0
  3
*MODEL_SPACE
  1

  0
ENDBLK
  5
36
330
18
100
AcDbEntity
  8
0
100
AcDbBlockEnd
  0
BLOCK
  5
33
330
15
100
AcDbEntity
 67
     1
  8
0
100
AcDbBlockBegin
  2
*PAPER_SPACE
 70
     0
 10
0.0
 20
0.0
 30
0.0
  3
*PAPER_SPACE
  1

  0
ENDBLK
  5
34
330
15
100
AcDbEntity
 67
     1
  8
0
100
AcDbBlockEnd
  0
ENDSEC
  0
SECTION
  2
ENTITIES
  0
LWPOLYLINE
  5
1BF
330
18
100
AcDbEntity
  8
0
100
AcDbPolyline
 90
       18
 70
     1
 43
0.0
 10
5.613128535451041
 20
3.369585766096442
 10
5.954462825036202
 20
3.369585766096441
 10
6.005202165147796
 20
3.316700845107593
 42
0.99999999999999
 10
6.050301730281233
 20
3.359970687085289
 10
4.304277981613227
 20
5.179827385849522
 42
0.5188374021877391
 10
3.813725913815802
 20
5.179827385849522
 10
2.067702165147796
 20
3.359970687085289
 42
0.99999999999999
 10
2.112801730281233
 20
3.316700845107593
 10
2.163541070392826
 20
3.369585766096441
 10
2.504875359977988
 20
3.369585766096441
 42
0.2679491924311219
 10
2.531938653846251
 20
3.385210766096441
 10
2.559001947714515
 20
3.432085766096441
 10
2.223505398554407
 20
3.432085766096442
 10
3.862293208933033
 20
5.140171911457253
 42
-0.5308043520894465
 10
4.255710686496096
 20
5.140171911457104
 10
5.89449849687462
 20
3.432085766096441
 10
5.559001947714515
 20
3.432085766096442
 10
5.586065241582778
 20
3.385210766096442
 42
0.2679491924311242
  0
LINE
  5
2BA
330
18
100
AcDbEntity
  8
TEXT
100
AcDbLine
 10
4.131275375962658
 20
2.851580697590149
 30
0.0
 11
4.131275375962658
 21
2.992910229769288
 31
0.0
  0
LINE
  5
2BB
330
18
100
AcDbEntity
  8
TEXT
100
AcDbLine
 10
4.178373534518641
 20
2.927446024001687
 30
0.0
 11
4.131275375962658
 21
2.851580697590149
 31
0.0
  0
LINE
  5
2BC
330
18
100
AcDbEntity
  8
TEXT
100
AcDbLine
 10
4.188808251282566
 20
2.817552781060713
 30
0.0
 11
4.253365367248271
 21
2.927446024001687
 31
0.0
  0
TEXT
  5
2BD
330
18
100
AcDbEntity
  8
TEXT
100
AcDbText
 10
4.43636406274558
 20
2.847117226624964
 30
0.0
 40
0.0522247191011236
  1
6536 Main St. N.E. * P.O. Box 32008
 41
0.8388932496075355
 72
     5
 11
5.765296647015244
 21
2.847117226624964
 31
0.0
100
AcDbText
  0
ARC
  5
2BE
330
18
100
AcDbEntity
  8
TEXT
100
AcDbCircle
 10
3.99079240344732
 20
2.838263454062259
 30
0.0
 40
0.0249058752826653
100
AcDbArc
 50
89.99971217465335
 51
179.9999999999985
  0
LINE
  5
2BF
330
18
100
AcDbEntity
  8
TEXT
100
AcDbLine
 10
3.903591637024288
 20
2.82223404544826
 30
0.0
 11
3.859840865842386
 21
2.904484321444405
 31
0.0
  0
LINE
  5
2C0
330
18
100
AcDbEntity
  8
TEXT
100
AcDbLine
 10
3.903591637024288
 20
2.927446024001687
 30
0.0
 11
3.903591637024288
 21
2.82223404544826
 31
0.0
  0
ARC
  5
2C1
330
18
100
AcDbEntity
  8
TEXT
100
AcDbCircle
 10
3.795600799804768
 20
2.834809954344924
 30
0.0
 40
0.028359375
100
AcDbArc
 50
25.78218179591245
 51
90.0
  0
LINE
  5
2C2
330
18
100
AcDbEntity
  8
TEXT
100
AcDbLine
 10
3.33360633862102
 20
2.743360829116175
 30
0.0
 11
3.33360633862102
 21
2.995457501740498
 31
0.0
  0
LINE
  5
2C3
330
18
100
AcDbEntity
  8
TEXT
100
AcDbLine
 10
3.36591819275868
 20
2.927446024001687
 30
0.0
 11
3.36591819275868
 21
2.726581817269279
 31
0.0
  0
LINE
  5
2C4
330
18
100
AcDbEntity
  8
TEXT
100
AcDbLine
 10
3.236675713261277
 20
2.927446024001687
 30
0.0
 11
3.177927150455413
 21
2.826574027888566
 31
0.0
  0
LINE
  5
2C5
330
18
100
AcDbEntity
  8
TEXT
100
AcDbLine
 10
3.177927150455413
 20
2.826574027888566
 30
0.0
 11
3.119296829423475
 21
2.927446024001687
 31
0.0
  0
ARC
  5
2C6
330
18
100
AcDbEntity
  8
TEXT
100
AcDbCircle
 10
2.811723505537049
 20
2.845358564555185
 30
0.0
 40
0.0820874594465043
100
AcDbArc
 50
90.0
 51
270.0
  0
LWPOLYLINE
  5
2C7
330
18
100
AcDbEntity
  8
TEXT
100
AcDbPolyline
 90
        2
 70
     0
 43
0.0001332181640625
 10
2.403637172436084
 20
2.854176033767311
 10
2.393645810131394
 20
2.927446024001691
  0
LWPOLYLINE
  5
2C8
330
18
100
AcDbEntity
  8
TEXT
100
AcDbPolyline
 90
        2
 70
     0
 43
0.0001332181640625
 10
2.393645810131394
 20
2.90080239118919
 10
2.403637172436084
 20
2.840854217361064
  0
LWPOLYLINE
  5
2C9
330
18
100
AcDbEntity
  8
TEXT
100
AcDbPolyline
 90
        2
 70
     0
 43
0.0001332181640625
 10
2.433611259350145
 20
2.90080239118919
 10
2.423619897045456
 20
2.840854217361064
  0
LWPOLYLINE
  5
2CA
330
18
100
AcDbEntity
  8
TEXT
100
AcDbPolyline
 90
        2
 70
     0
 43
0.0001332181640625
 10
2.433611259350145
 20
2.927446024001691
 10
2.423619897045456
 20
2.854176033767311
  0
LWPOLYLINE
  5
2CB
330
18
100
AcDbEntity
  8
TEXT
100
AcDbPolyline
 90
        3
 70
     0
 43
0.0006660908203125
 10
2.546846698803271
 20
2.814210584548563
 10
2.546846698803271
 20
2.927446024001691
 10
2.433611259350145
 20
2.927446024001691
  0
LWPOLYLINE
  5
2CC
330
18
100
AcDbEntity
  8
TEXT
100
AcDbPolyline
 90
        3
 70
     0
 43
0.0006660908203125
 10
2.52020306599077
 20
2.814210584548563
 10
2.52020306599077
 20
2.90080239118919
 10
2.433611259350145
 20
2.90080239118919
  0
LWPOLYLINE
  5
2CD
330
18
100
AcDbEntity
  8
TEXT
100
AcDbPolyline
 90
        2
 70
     0
 43
0.0001332181640625
 10
2.52020306599077
 20
2.90080239118919
 10
2.460254892162646
 20
2.840854217361064
  0
LWPOLYLINE
  5
2CE
330
18
100
AcDbEntity
  8
TEXT
100
AcDbPolyline
 90
        2
 70
     0
 43
0.0001332181640625
 10
2.307054003490769
 20
2.90080239118919
 10
2.367002177318894
 20
2.840854217361064
  0
LWPOLYLINE
  5
2CF
330
18
100
AcDbEntity
  8
TEXT
100
AcDbPolyline
 90
        3
 70
     0
 43
0.0006660908203125
 10
2.393645810131394
 20
2.927446024001691
 10
2.280410370678271
 20
2.927446024001691
 10
2.280410370678271
 20
2.814210584548563
  0
LWPOLYLINE
  5
2D0
330
18
100
AcDbEntity
  8
TEXT
100
AcDbPolyline
 90
        3
 70
     0
 43
0.0006660908203125
 10
2.393645810131394
 20
2.90080239118919
 10
2.307054003490769
 20
2.90080239118919
 10
2.307054003490769
 20
2.814210584548563
  0
LINE
  5
2D1
330
18
100
AcDbEntity
  8
TEXT
100
AcDbLine
 10
2.882560971895598
 20
2.827364607734294
 30
0.0
 11
2.816960835651297
 21
2.827364607734294
 31
0.0
  0
LINE
  5
2D2
330
18
100
AcDbEntity
  8
TEXT
100
AcDbLine
 10
2.811723505537049
 20
2.76327110510868
 30
0.0
 11
2.887501345801878
 21
2.76327110510868
 31
0.0
  0
LINE
  5
2D3
330
18
100
AcDbEntity
  8
TEXT
100
AcDbLine
 10
2.729636046090545
 20
2.660972991013176
 30
0.0
 11
2.882560971895598
 21
2.660972991013176
 31
0.0
  0
LINE
  5
2D4
330
18
100
AcDbEntity
  8
TEXT
100
AcDbLine
 10
2.887501345801878
 20
2.729329997346615
 30
0.0
 11
2.729636046090543
 21
2.729329997346615
 31
0.0
  0
LINE
  5
2D5
330
18
100
AcDbEntity
  8
TEXT
100
AcDbLine
 10
2.816960835651297
 20
2.863169329344922
 30
0.0
 11
2.983866489680266
 21
2.863169329344922
 31
0.0
  0
LWPOLYLINE
  5
2D6
330
18
100
AcDbEntity
  8
TEXT
100
AcDbPolyline
 90
        2
 70
     0
 43
0.0006660908203125
 10
2.52020306599077
 20
2.814210584548563
 10
2.546846698803271
 20
2.814210584548563
  0
LWPOLYLINE
  5
2D7
330
18
100
AcDbEntity
  8
TEXT
100
AcDbPolyline
 90
        2
 70
     0
 43
0.0001332181640625
 10
2.473576708568895
 20
2.804219222243874
 10
2.546846698803271
 20
2.814210584548563
  0
LWPOLYLINE
  5
2D8
330
18
100
AcDbEntity
  8
TEXT
100
AcDbPolyline
 90
        2
 70
     0
 43
0.0006660908203125
 10
2.52020306599077
 20
2.774245135329815
 10
2.546846698803271
 20
2.774245135329815
  0
LWPOLYLINE
  5
2D9
330
18
100
AcDbEntity
  8
TEXT
100
AcDbPolyline
 90
        3
 70
     0
 43
0.0006660908203125
 10
2.433611259350145
 20
2.661009695876687
 10
2.546846698803271
 20
2.661009695876687
 10
2.546846698803271
 20
2.774245135329815
  0
LWPOLYLINE
  5
2DA
330
18
100
AcDbEntity
  8
TEXT
100
AcDbPolyline
 90
        2
 70
     0
 43
0.0001332181640625
 10
2.546846698803271
 20
2.774245135329815
 10
2.473576708568895
 20
2.7842364976345
  0
LWPOLYLINE
  5
2DB
330
18
100
AcDbEntity
  8
TEXT
100
AcDbPolyline
 90
        3
 70
     0
 43
0.0006660908203125
 10
2.280410370678271
 20
2.774245135329815
 10
2.280410370678271
 20
2.661009695876687
 10
2.393645810131394
 20
2.661009695876687
  0
LWPOLYLINE
  5
2DC
330
18
100
AcDbEntity
  8
TEXT
100
AcDbPolyline
 90
        3
 70
     0
 43
0.0006660908203125
 10
2.307054003490769
 20
2.774245135329815
 10
2.307054003490769
 20
2.687653328689188
 10
2.393645810131394
 20
2.687653328689188
  0
LWPOLYLINE
  5
2DD
330
18
100
AcDbEntity
  8
TEXT
100
AcDbPolyline
 90
        5
 70
     0
 43
0.0001332181640625
 10
2.403637172436084
 20
2.734279686111063
 10
2.403637172436084
 20
2.747601502517314
 10
2.367002177318896
 20
2.747601502517314
 10
2.367002177318896
 20
2.7842364976345
 10
2.353680360912646
 20
2.7842364976345
  0
LWPOLYLINE
  5
2DE
330
18
100
AcDbEntity
  8
TEXT
100
AcDbPolyline
 90
        5
 70
     0
 43
0.0001332181640625
 10
2.353680360912646
 20
2.804219222243874
 10
2.367002177318894
 20
2.804219222243874
 10
2.367002177318894
 20
2.840854217361064
 10
2.403637172436084
 20
2.840854217361064
 10
2.403637172436084
 20
2.854176033767311
  0
LWPOLYLINE
  5
2DF
330
18
100
AcDbEntity
  8
TEXT
100
AcDbPolyline
 90
        2
 70
     0
 43
0.0001332181640625
 10
2.307054003490769
 20
2.814210584548563
 10
2.367002177318894
 20
2.804219222243874
  0
LWPOLYLINE
  5
2E0
330
18
100
AcDbEntity
  8
TEXT
100
AcDbPolyline
 90
        2
 70
     0
 43
0.0001332181640625
 10
2.280410370678271
 20
2.814210584548563
 10
2.353680360912646
 20
2.804219222243874
  0
LWPOLYLINE
  5
2E1
330
18
100
AcDbEntity
  8
TEXT
100
AcDbPolyline
 90
        2
 70
     0
 43
0.0006660908203125
 10
2.307054003490769
 20
2.814210584548563
 10
2.280410370678271
 20
2.814210584548563
  0
LWPOLYLINE
  5
2E2
330
18
100
AcDbEntity
  8
TEXT
100
AcDbPolyline
 90
        2
 70
     0
 43
0.0001332181640625
 10
2.307054003490769
 20
2.687653328689188
 10
2.367002177318896
 20
2.747601502517314
  0
LWPOLYLINE
  5
2E3
330
18
100
AcDbEntity
  8
TEXT
100
AcDbPolyline
 90
        2
 70
     0
 43
0.0006660908203125
 10
2.307054003490769
 20
2.774245135329815
 10
2.280410370678271
 20
2.774245135329815
  0
LWPOLYLINE
  5
2E4
330
18
100
AcDbEntity
  8
TEXT
100
AcDbPolyline
 90
        2
 70
     0
 43
0.0001332181640625
 10
2.353680360912646
 20
2.7842364976345
 10
2.280410370678271
 20
2.774245135329815
  0
LWPOLYLINE
  5
2E5
330
18
100
AcDbEntity
  8
TEXT
100
AcDbPolyline
 90
        2
 70
     0
 43
0.0001332181640625
 10
2.307054003490769
 20
2.774245135329815
 10
2.367002177318896
 20
2.7842364976345
  0
LWPOLYLINE
  5
2E6
330
18
100
AcDbEntity
  8
TEXT
100
AcDbPolyline
 90
        5
 70
     0
 43
0.0001332181640625
 10
2.423619897045456
 20
2.854176033767311
 10
2.423619897045456
 20
2.840854217361064
 10
2.460254892162646
 20
2.840854217361064
 10
2.460254892162646
 20
2.804219222243874
 10
2.473576708568895
 20
2.804219222243874
  0
LWPOLYLINE
  5
2E7
330
18
100
AcDbEntity
  8
TEXT
100
AcDbPolyline
 90
        2
 70
     0
 43
0.0001332181640625
 10
2.52020306599077
 20
2.814210584548563
 10
2.460254892162646
 20
2.804219222243874
  0
LWPOLYLINE
  5
2E8
330
18
100
AcDbEntity
  8
TEXT
100
AcDbPolyline
 90
        2
 70
     0
 43
0.0006660908203125
 10
2.393645810131394
 20
2.687653328689188
 10
2.393645810131394
 20
2.661009695876687
  0
LWPOLYLINE
  5
2E9
330
18
100
AcDbEntity
  8
TEXT
100
AcDbPolyline
 90
        2
 70
     0
 43
0.0001332181640625
 10
2.393645810131394
 20
2.687653328689188
 10
2.403637172436084
 20
2.747601502517314
  0
LWPOLYLINE
  5
2EA
330
18
100
AcDbEntity
  8
TEXT
100
AcDbPolyline
 90
        2
 70
     0
 43
0.0001332181640625
 10
2.393645810131394
 20
2.661009695876687
 10
2.403637172436084
 20
2.734279686111063
  0
LWPOLYLINE
  5
2EB
330
18
100
AcDbEntity
  8
TEXT
100
AcDbPolyline
 90
        2
 70
     0
 43
0.0001332181640625
 10
2.433611259350145
 20
2.687653328689188
 10
2.423619897045456
 20
2.747601502517314
  0
LWPOLYLINE
  5
2EC
330
18
100
AcDbEntity
  8
TEXT
100
AcDbPolyline
 90
        2
 70
     0
 43
0.0001332181640625
 10
2.423619897045456
 20
2.734279686111063
 10
2.433611259350145
 20
2.661009695876687
  0
LWPOLYLINE
  5
2ED
330
18
100
AcDbEntity
  8
TEXT
100
AcDbPolyline
 90
        2
 70
     0
 43
0.0006660908203125
 10
2.433611259350145
 20
2.687653328689188
 10
2.433611259350145
 20
2.661009695876687
  0
LWPOLYLINE
  5
2EE
330
18
100
AcDbEntity
  8
TEXT
100
AcDbPolyline
 90
        2
 70
     0
 43
0.0001332181640625
 10
2.52020306599077
 20
2.687653328689188
 10
2.460254892162646
 20
2.747601502517314
  0
LWPOLYLINE
  5
2EF
330
18
100
AcDbEntity
  8
TEXT
100
AcDbPolyline
 90
        3
 70
     0
 43
0.0006660908203125
 10
2.433611259350145
 20
2.687653328689188
 10
2.52020306599077
 20
2.687653328689188
 10
2.52020306599077
 20
2.774245135329815
  0
LWPOLYLINE
  5
2F0
330
18
100
AcDbEntity
  8
TEXT
100
AcDbPolyline
 90
        2
 70
     0
 43
0.0001332181640625
 10
2.52020306599077
 20
2.774245135329815
 10
2.460254892162646
 20
2.7842364976345
  0
LWPOLYLINE
  5
2F1
330
18
100
AcDbEntity
  8
TEXT
100
AcDbPolyline
 90
        5
 70
     0
 43
0.0001332181640625
 10
2.473576708568895
 20
2.7842364976345
 10
2.460254892162646
 20
2.7842364976345
 10
2.460254892162646
 20
2.747601502517314
 10
2.423619897045456
 20
2.747601502517314
 10
2.423619897045456
 20
2.734279686111063
  0
ARC
  5
2F2
330
18
100
AcDbEntity
  8
TEXT
100
AcDbCircle
 10
2.816960835651297
 20
2.845266968539609
 30
0.0
 40
0.017902360805315
100
AcDbArc
 50
90.0
 51
270.0
  0
LINE
  5
2F3
330
18
100
AcDbEntity
  8
TEXT
100
AcDbLine
 10
2.729636046090543
 20
2.729329997346615
 30
0.0
 11
2.729636046090545
 21
2.660972991013176
 31
0.0
  0
TEXT
  5
2F4
330
18
100
AcDbEntity
  8
TEXT
100
AcDbText
 10
4.43636406274558
 20
2.66060037269238
 30
0.0
 40
0.0522247191011236
  1
Phone  1-800-328-2495
 41
1.272321428571429
 72
     5
 11
5.765296647015244
 21
2.66060037269238
 31
0.0
100
AcDbText
  0
TEXT
  5
2F5
330
18
100
AcDbEntity
  8
TEXT
100
AcDbText
 10
4.43636406274558
 20
2.753858799658672
 30
0.0
 40
0.0522247191011236
  1
Minneapolis, MN 55432-0008
 41
1.11444212721585
 72
     5
 11
5.765296647015244
 21
2.753858799658672
 31
0.0
100
AcDbText
  0
LINE
  5
2F6
330
18
100
AcDbEntity
  8
TEXT
100
AcDbLine
 10
3.990792403447322
 20
2.863169329344922
 30
0.0
 11
4.067440384739878
 21
2.863169329344922
 31
0.0
  0
LINE
  5
2F7
330
18
100
AcDbEntity
  8
TEXT
100
AcDbLine
 10
3.432749245816648
 20
2.863169329344922
 30
0.0
 11
3.482584525639797
 21
2.863169329344922
 31
0.0
  0
ARC
  5
2F8
330
18
100
AcDbEntity
  8
TEXT
100
AcDbCircle
 10
3.134283353546244
 20
2.700520713286872
 30
0.0
 40
0.0392772371940762
100
AcDbArc
 50
270.1604552698595
 51
330.0831797321295
  0
ARC
  5
2F9
330
18
100
AcDbEntity
  8
TEXT
100
AcDbCircle
 10
3.043982507654019
 20
2.720765382351226
 30
0.0
 40
0.0601160179737537
100
AcDbArc
 50
180.0000000000003
 51
264.0521544866073
  0
LINE
  5
2FA
330
18
100
AcDbEntity
  8
TEXT
100
AcDbLine
 10
2.983866489680266
 20
2.863169329344922
 30
0.0
 11
2.983866489680266
 21
2.720765382351226
 31
0.0
  0
ARC
  5
2FB
330
18
100
AcDbEntity
  8
TEXT
100
AcDbCircle
 10
2.887501345801878
 20
2.746300551227649
 30
0.0
 40
0.0169705538810321
100
AcDbArc
 50
270.0
 51
90.0
  0
ARC
  5
2FC
330
18
100
AcDbEntity
  8
TEXT
100
AcDbCircle
 10
2.882560971895598
 20
2.744168799373733
 30
0.0
 40
0.0831958083605586
100
AcDbArc
 50
270.0
 51
90.0
  0
LWPOLYLINE
  5
2FD
330
18
100
AcDbEntity
  8
TEXT
100
AcDbPolyline
 90
        6
 70
     1
 43
0.0
 10
3.080276900735523
 20
2.863169329344922
 10
3.049960306515314
 20
2.863169329344922
 10
3.049960306515314
 20
2.740058331290027
 42
0.407328721240804
 10
3.061503957676791
 20
2.728239416613641
 10
3.122125656721522
 20
2.728239416613641
 10
3.13959099712884
 20
2.76105164565712
  0
LINE
  5
2FE
330
18
100
AcDbEntity
  8
TEXT
100
AcDbLine
 10
3.037753097160372
 20
2.660972991013176
 30
0.0
 11
3.134393348235366
 21
2.661243630111458
 31
0.0
  0
LWPOLYLINE
  5
2FF
330
18
100
AcDbEntity
  8
TEXT
100
AcDbPolyline
 90
        2
 70
     0
 43
0.0
 10
3.265626619551902
 20
2.712524333228104
 42
0.3318488747599744
 10
3.334745912117215
 20
2.660972991013176
 42
-6.868794160588311
  0
LINE
  5
300
330
18
100
AcDbEntity
  8
TEXT
100
AcDbLine
 10
3.265626619551902
 20
2.845281708053457
 30
0.0
 11
3.265626619551902
 21
2.712524333228101
 31
0.0
  0
LINE
  5
301
330
18
100
AcDbEntity
  8
TEXT
100
AcDbLine
 10
3.168326913458457
 20
2.680931497118189
 30
0.0
 11
3.265626619551902
 21
2.845281708053457
 31
0.0
  0
ARC
  5
302
330
18
100
AcDbEntity
  8
TEXT
100
AcDbCircle
 10
3.348924555874077
 20
2.741963623512704
 30
0.0
 40
0.0153818062434269
100
AcDbArc
 50
174.7883570302258
 51
270.0
  0
LINE
  5
303
330
18
100
AcDbEntity
  8
TEXT
100
AcDbLine
 10
3.36591819275868
 20
2.726581817269279
 30
0.0
 11
3.348924555874077
 21
2.726581817269279
 31
0.0
  0
LINE
  5
304
330
18
100
AcDbEntity
  8
TEXT
100
AcDbLine
 10
3.334745912117213
 20
2.660972991013176
 30
0.0
 11
3.432749245816648
 21
2.660972991013176
 31
0.0
  0
LINE
  5
305
330
18
100
AcDbEntity
  8
TEXT
100
AcDbLine
 10
3.432749245816648
 20
2.660972991013176
 30
0.0
 11
3.432749245816648
 21
2.863169329344922
 31
0.0
  0
LINE
  5
306
330
18
100
AcDbEntity
  8
TEXT
100
AcDbLine
 10
3.79560079980477
 20
2.863169329344922
 30
0.0
 11
3.688394526417479
 21
2.863169329344922
 31
0.0
  0
LINE
  5
307
330
18
100
AcDbEntity
  8
TEXT
100
AcDbLine
 10
3.749113885325506
 20
2.825894355882789
 30
0.0
 11
3.831401875108891
 21
2.825894355882789
 31
0.0
  0
LWPOLYLINE
  5
308
330
18
100
AcDbEntity
  8
TEXT
100
AcDbPolyline
 90
        4
 70
     1
 43
0.0
 10
3.84433291639179
 20
2.763936968997201
 10
3.755672597731932
 20
2.763936968997201
 42
0.9999999999999998
 10
3.755672597731932
 20
2.721538428493341
 10
3.84433291639179
 20
2.721538428493341
 42
1.0
  0
LWPOLYLINE
  5
309
330
18
100
AcDbEntity
  8
TEXT
100
AcDbPolyline
 90
        2
 70
     0
 43
0.0
 10
3.730437963830306
 20
2.660972991013176
 10
3.864455381461683
 20
2.660972991013176
 42
0.9999999999999998
  0
LINE
  5
30A
330
18
100
AcDbEntity
  8
TEXT
100
AcDbLine
 10
3.557196361587749
 20
2.863169329344922
 30
0.0
 11
3.611329958508701
 21
2.863169329344922
 31
0.0
  0
LINE
  5
30B
330
18
100
AcDbEntity
  8
TEXT
100
AcDbLine
 10
3.490138314805911
 20
2.660972991013176
 30
0.0
 11
3.557196361587749
 21
2.660972991013176
 31
0.0
  0
LINE
  5
30C
330
18
100
AcDbEntity
  8
TEXT
100
AcDbLine
 10
3.557196361587749
 20
2.660972991013176
 30
0.0
 11
3.557196361587749
 21
2.863169329344922
 31
0.0
  0
LINE
  5
30D
330
18
100
AcDbEntity
  8
TEXT
100
AcDbLine
 10
3.490138314805911
 20
2.855615540178812
 30
0.0
 11
3.490138314805911
 21
2.660972991013176
 31
0.0
  0
LWPOLYLINE
  5
30E
330
18
100
AcDbEntity
  8
TEXT
100
AcDbPolyline
 90
        2
 70
     0
 43
0.0
 10
3.482584525639795
 20
2.863169329344922
 42
-0.4142135623731017
 10
3.490138314805909
 20
2.855615540178812
 42
-0.9999999999999998
  0
LINE
  5
30F
330
18
100
AcDbEntity
  8
TEXT
100
AcDbLine
 10
3.688394526417479
 20
2.863169329344922
 30
0.0
 11
3.688394526417479
 21
2.788116923270715
 31
0.0
  0
ARC
  5
310
330
18
100
AcDbEntity
  8
TEXT
100
AcDbCircle
 10
3.749113885325506
 20
2.758208774738671
 30
0.0
 40
0.0676855811441166
100
AcDbArc
 50
90.0
 51
153.7768192527749
  0
LWPOLYLINE
  5
311
330
18
100
AcDbEntity
  8
TEXT
100
AcDbPolyline
 90
        2
 70
     0
 43
0.0
 10
3.68736203096267
 20
2.704463935963614
 42
0.2901071551932823
 10
3.730437963830306
 20
2.660972991013176
 42
5.328517124445801
  0
LWPOLYLINE
  5
312
330
18
100
AcDbEntity
  8
TEXT
100
AcDbPolyline
 90
        2
 70
     0
 43
0.0
 10
3.611329958508699
 20
2.863169329344922
 42
-0.4142135623731017
 10
3.618883747674813
 20
2.855615540178812
 42
-0.9999999999999998
  0
LWPOLYLINE
  5
313
330
18
100
AcDbEntity
  8
TEXT
100
AcDbPolyline
 90
        4
 70
     0
 43
0.0
 10
3.618883747674813
 20
2.855615540178812
 10
3.618883747674813
 20
2.660972991013176
 10
3.68736203096267
 20
2.660972991013176
 10
3.68736203096267
 20
2.704463935963614
 42
-1.714843617202739
  0
LWPOLYLINE
  5
314
330
18
100
AcDbEntity
  8
TEXT
100
AcDbPolyline
 90
        2
 70
     0
 43
0.0
 10
3.907531314329327
 20
2.704463935963614
 42
-0.2901071551932486
 10
3.864455381461683
 20
2.660972991013176
 42
-5.328517124445184
  0
LWPOLYLINE
  5
315
330
18
100
AcDbEntity
  8
TEXT
100
AcDbPolyline
 90
        2
 70
     0
 43
0.0
 10
3.907531314329327
 20
2.660972991013176
 10
3.965886528164661
 20
2.660972991013176
  0
LWPOLYLINE
  5
316
330
18
100
AcDbEntity
  8
TEXT
100
AcDbPolyline
 90
        2
 70
     0
 43
0.0
 10
3.907531314329327
 20
2.704463935963614
 10
3.907531314329327
 20
2.660972991013176
  0
LINE
  5
317
330
18
100
AcDbEntity
  8
TEXT
100
AcDbLine
 10
3.831401875108891
 20
2.825894355882789
 30
0.0
 11
3.821137114695325
 21
2.847144895455484
 31
0.0
  0
LINE
  5
318
330
18
100
AcDbEntity
  8
TEXT
100
AcDbLine
 10
3.965886528164663
 20
2.660972991013176
 30
0.0
 11
3.965886528164656
 21
2.838263496444644
 31
0.0
  0
LINE
  5
319
330
18
100
AcDbEntity
  8
TEXT
100
AcDbLine
 10
4.284300474646176
 20
2.660972991013176
 30
0.0
 11
4.188808251282566
 21
2.817552781060713
 31
0.0
  0
LINE
  5
31A
330
18
100
AcDbEntity
  8
TEXT
100
AcDbLine
 10
4.207722102269968
 20
2.660972991013176
 30
0.0
 11
4.284300474646176
 21
2.660972991013176
 31
0.0
  0
LINE
  5
31B
330
18
100
AcDbEntity
  8
TEXT
100
AcDbLine
 10
4.067440384739885
 20
2.660972991013176
 30
0.0
 11
4.131818569058506
 21
2.660972991013176
 31
0.0
  0
LINE
  5
31C
330
18
100
AcDbEntity
  8
TEXT
100
AcDbLine
 10
4.067440384739878
 20
2.863169329344922
 30
0.0
 11
4.067440384739885
 21
2.660972991013176
 31
0.0
  0
LINE
  5
31D
330
18
100
AcDbEntity
  8
TEXT
100
AcDbLine
 10
4.131818569058506
 20
2.792552559489356
 30
0.0
 11
4.207722102269968
 21
2.660972991013176
 31
0.0
  0
LINE
  5
31E
330
18
100
AcDbEntity
  8
TEXT
100
AcDbLine
 10
4.131818569058506
 20
2.660972991013176
 30
0.0
 11
4.131818569058506
 21
2.792552559489356
 31
0.0
  0
LINE
  5
31F
330
18
100
AcDbEntity
  8
TEXT
100
AcDbLine
 10
2.987455258435559
 20
2.927446024001687
 30
0.0
 11
2.811723505537049
 21
2.927446024001687
 31
0.0
  0
LWPOLYLINE
  5
320
330
18
100
AcDbEntity
  8
TEXT
100
AcDbPolyline
 90
        2
 70
     0
 43
0.0006660908203125
 10
2.393645810131394
 20
2.90080239118919
 10
2.393645810131394
 20
2.927446024001691
  0
LWPOLYLINE
  5
321
330
18
100
AcDbEntity
  8
TEXT
100
AcDbPolyline
 90
        2
 70
     0
 43
0.0006660908203125
 10
2.433611259350145
 20
2.90080239118919
 10
2.433611259350145
 20
2.927446024001691
  0
TEXT
  5
322
330
18
100
AcDbEntity
  8
TEXT
100
AcDbText
 10
4.43636406274558
 20
2.940375653591257
 30
0.0
 40
0.0522247191011236
  1
Stylmark  Incorporated
 41
1.221428571428571
 72
     5
 11
5.765296647015244
 21
2.940375653591257
 31
0.0
100
AcDbText
  0
LINE
  5
323
330
18
100
AcDbEntity
  8
TEXT
100
AcDbLine
 10
4.062960497413378
 20
2.927446024001687
 30
0.0
 11
3.995460779763863
 21
2.927446024001687
 31
0.0
  0
TEXT
  5
324
330
18
100
AcDbEntity
  8
TEXT
100
AcDbText
 10
3.270082714019067
 20
3.107523015364756
 30
0.0
 40
0.125
  1
PART #110416
  7
ITALICC
 72
     1
 11
4.023058904495258
 21
3.107523015364756
 31
0.0
100
AcDbText
  0
LINE
  5
325
330
18
100
AcDbEntity
  8
TEXT
100
AcDbLine
 10
3.499936248689817
 20
2.927446024001687
 30
0.0
 11
3.36591819275868
 21
2.927446024001687
 31
0.0
  0
LINE
  5
326
330
18
100
AcDbEntity
  8
TEXT
100
AcDbLine
 10
3.047497863279566
 20
2.961833941595825
 30
0.0
 11
2.987455258435559
 21
2.961833941595825
 31
0.0
  0
LINE
  5
327
330
18
100
AcDbEntity
  8
TEXT
100
AcDbLine
 10
2.987455258435559
 20
2.961833941595825
 30
0.0
 11
2.987455258435559
 21
2.927446024001687
 31
0.0
  0
LINE
  5
328
330
18
100
AcDbEntity
  8
TEXT
100
AcDbLine
 10
3.119296829423475
 20
2.927446024001687
 30
0.0
 11
3.047497863279566
 21
2.927446024001687
 31
0.0
  0
LINE
  5
329
330
18
100
AcDbEntity
  8
TEXT
100
AcDbLine
 10
3.047497863279566
 20
2.927446024001687
 30
0.0
 11
3.047497863279566
 21
2.961833941595825
 31
0.0
  0
LINE
  5
32A
330
18
100
AcDbEntity
  8
TEXT
100
AcDbLine
 10
3.33360633862102
 20
2.995457501740498
 30
0.0
 11
3.266797626054653
 21
2.995457501740498
 31
0.0
  0
LINE
  5
32B
330
18
100
AcDbEntity
  8
TEXT
100
AcDbLine
 10
3.266797626054653
 20
2.927446024001687
 30
0.0
 11
3.236675713261277
 21
2.927446024001687
 31
0.0
  0
LINE
  5
32C
330
18
100
AcDbEntity
  8
TEXT
100
AcDbLine
 10
3.266797626054653
 20
2.995457501740498
 30
0.0
 11
3.266797626054653
 21
2.927446024001687
 31
0.0
  0
LINE
  5
32D
330
18
100
AcDbEntity
  8
TEXT
100
AcDbLine
 10
3.824631698149246
 20
2.927446024001687
 30
0.0
 11
3.689799788932187
 21
2.927446024001687
 31
0.0
  0
LWPOLYLINE
  5
32E
330
18
100
AcDbEntity
  8
TEXT
100
AcDbPolyline
 90
        3
 70
     0
 43
0.0
 10
3.654018098219022
 20
2.927446024001691
 10
3.535717939402978
 20
2.927446024001691
 10
3.535717939402978
 20
2.900278527240795
 42
-1.960274751411753
  0
LWPOLYLINE
  5
32F
330
18
100
AcDbEntity
  8
TEXT
100
AcDbPolyline
 90
        2
 70
     0
 43
0.0
 10
3.499936248689817
 20
2.927446024001691
 42
-0.3328679258950098
 10
3.535717939402978
 20
2.900278527240795
 42
6.772930709997214
  0
LINE
  5
330
330
18
100
AcDbEntity
  8
TEXT
100
AcDbLine
 10
3.689799788932187
 20
2.927446024001687
 30
0.0
 11
3.689799788932187
 21
2.899123478232043
 31
0.0
  0
LWPOLYLINE
  5
331
330
18
100
AcDbEntity
  8
TEXT
100
AcDbPolyline
 90
        2
 70
     0
 43
0.0
 10
3.654018098219022
 20
2.927446024001691
 42
-0.3277054968067132
 10
3.689799788932187
 20
2.899123478232047
 42
6.667889725900311
  0
LINE
  5
332
330
18
100
AcDbEntity
  8
TEXT
100
AcDbLine
 10
3.967488543323788
 20
2.927446024001687
 30
0.0
 11
3.903591637024288
 21
2.927446024001687
 31
0.0
  0
ARC
  5
333
330
18
100
AcDbEntity
  8
TEXT
100
AcDbCircle
 10
3.822604758372179
 20
2.885862456880785
 30
0.0
 40
0.0416329381542859
100
AcDbArc
 50
26.56974201007528
 51
87.20939649401342
  0
LINE
  5
334
330
18
100
AcDbEntity
  8
TEXT
100
AcDbLine
 10
3.967488543323788
 20
2.899898374140812
 30
0.0
 11
3.967488543323788
 21
2.927446024001687
 31
0.0
  0
ARC
  5
335
330
18
100
AcDbEntity
  8
TEXT
100
AcDbCircle
 10
3.998681360386898
 20
2.896200296719422
 30
0.0
 40
0.0314112657011332
100
AcDbArc
 50
95.88484768694724
 51
173.2388340632136
  0
LINE
  5
336
330
18
100
AcDbEntity
  8
TEXT
100
AcDbLine
 10
4.253365367248271
 20
2.927446024001687
 30
0.0
 11
4.178373534518645
 21
2.927446024001687
 31
0.0
  0
LINE
  5
337
330
18
100
AcDbEntity
  8
TEXT
100
AcDbLine
 10
4.062960497413385
 20
2.992910229769288
 30
0.0
 11
4.062960497413378
 21
2.927446024001687
 31
0.0
  0
LINE
  5
338
330
18
100
AcDbEntity
  8
TEXT
100
AcDbLine
 10
4.131275375962658
 20
2.992910229769288
 30
0.0
 11
4.062960497413385
 21
2.992910229769288
 31
0.0
  0
ENDSEC
  0
SECTION
  2
OBJECTS
  0
DICTIONARY
  5
C
330
0
100
AcDbDictionary
  3
ACAD_GROUP
350
D
  3
ACAD_LAYOUT
350
33D
  3
ACAD_MLINESTYLE
350
E
  3
ACAD_PLOTSETTINGS
350
33E
  3
ACAD_PLOTSTYLENAME
350
33B
  3
ACDBHEADERROUNDTRIPXREC
350
349
  3
ACDBVARIABLEDICTIONARY
350
346
  0
DICTIONARY
  5
36B
330
18
100
AcDbDictionary
280
     1
  3
ACAD_LAYOUTSELFREF
360
36C
  0
DICTIONARY
  5
369
330
15
100
AcDbDictionary
280
     1
  3
ACAD_LAYOUTSELFREF
360
36A
  0
DICTIONARY
  5
D
102
{ACAD_REACTORS
330
C
102
}
330
C
100
AcDbDictionary
  0
DICTIONARY
  5
33D
102
{ACAD_REACTORS
330
C
102
}
330
C
100
AcDbDictionary
  0
DICTIONARY
  5
E
102
{ACAD_REACTORS
330
C
102
}
330
C
100
AcDbDictionary
  3
STANDARD
350
1B
  0
DICTIONARY
  5
33E
102
{ACAD_REACTORS
330
C
102
}
330
C
100
AcDbDictionary
  0
ACDBDICTIONARYWDFLT
  5
33B
102
{ACAD_REACTORS
330
C
102
}
330
C
100
AcDbDictionary
281
     1
  3
Normal
350
33C
100
AcDbDictionaryWithDefault
340
33C
  0
DICTIONARY
  5
349
102
{ACAD_REACTORS
330
C
102
}
330
C
100
AcDbDictionary
  3
CEPSNTYPE
350
353
  3
FINGERPRINTGUID
350
354
  3
HYPERLINKBASE
350
34C
  3
INSUNITS
350
352
  3
LAYOUTDICT
350
34E
  3
LWETCUNION
350
351
  3
PLOTSETDICT
350
34F
  3
PLOTSTYLNAMDICT
350
350
  3
PSVPSCALE
350
356
  3
PUCSBASE
350
359
  3
PUCSORGBACK
350
35F
  3
PUCSORGBOTTOM
350
35B
  3
PUCSORGFRONT
350
35E
  3
PUCSORGLEFT
350
35C
  3
PUCSORGRIGHT
350
35D
  3
PUCSORGTOP
350
35A
  3
PUCSORTHOREF
350
357
  3
PUCSORTHOVIEW
350
358
  3
STYLESHEET
350
34D
  3
TSTACKALIGN
350
34A
  3
TSTACKSIZE
350
34B
  3
UCSBASE
350
362
  3
UCSORGBACK
350
368
  3
UCSORGBOTTOM
350
364
  3
UCSORGFRONT
350
367
  3
UCSORGLEFT
350
365
  3
UCSORGRIGHT
350
366
  3
UCSORGTOP
350
363
  3
UCSORTHOREF
350
360
  3
UCSORTHOVIEW
350
361
  3
VERSIONGUID
350
355
  0
DICTIONARY
  5
346
102
{ACAD_REACTORS
330
C
102
}
330
C
100
AcDbDictionary
  3
DIMASSOC
350
347
  0
XRECORD
  5
36C
102
{ACAD_REACTORS
330
36B
102
}
330
36B
100
AcDbXrecord
340
18
  0
XRECORD
  5
36A
102
{ACAD_REACTORS
330
369
102
}
330
369
100
AcDbXrecord
340
15
  0
MLINESTYLE
  5
1B
102
{ACAD_REACTORS
330
E
102
}
330
E
100
AcDbMlineStyle
  2
STANDARD
 70
     0
  3

 62
     0
 51
90.0
 52
90.0
 71
     2
 49
0.5
 62
   256
  6
BYLAYER
 49
-0.5
 62
   256
  6
BYLAYER
  0
ACDBPLACEHOLDER
  5
33C
102
{ACAD_REACTORS
330
33B
102
}
330
33B
100
AcDbPlaceHolder
280
     0
  0
XRECORD
  5
353
102
{ACAD_REACTORS
330
349
102
}
330
349
100
AcDbXrecord
 90
        0
  0
XRECORD
  5
354
102
{ACAD_REACTORS
330
349
102
}
330
349
100
AcDbXrecord
  1
{2BF8DC30-8DB7-11D6-88E6-0090279574E7}
  0
XRECORD
  5
34C
102
{ACAD_REACTORS
330
349
102
}
330
349
100
AcDbXrecord
  1

  0
XRECORD
  5
352
102
{ACAD_REACTORS
330
349
102
}
330
349
100
AcDbXrecord
 90
        0
  0
XRECORD
  5
34E
102
{ACAD_REACTORS
330
349
102
}
330
349
100
AcDbXrecord
340
33D
  0
XRECORD
  5
351
102
{ACAD_REACTORS
330
349
102
}
330
349
100
AcDbXrecord
 90
    14877
  0
XRECORD
  5
34F
102
{ACAD_REACTORS
330
349
102
}
330
349
100
AcDbXrecord
340
33E
  0
XRECORD
  5
350
102
{ACAD_REACTORS
330
349
102
}
330
349
100
AcDbXrecord
340
33B
  0
XRECORD
  5
356
102
{ACAD_REACTORS
330
349
102
}
330
349
100
AcDbXrecord
 40
0.0
  0
XRECORD
  5
359
102
{ACAD_REACTORS
330
349
102
}
330
349
100
AcDbXrecord
340
0
  0
XRECORD
  5
35F
102
{ACAD_REACTORS
330
349
102
}
330
349
100
AcDbXrecord
 10
0.0
 20
0.0
 30
0.0
  0
XRECORD
  5
35B
102
{ACAD_REACTORS
330
349
102
}
330
349
100
AcDbXrecord
 10
0.0
 20
0.0
 30
0.0
  0
XRECORD
  5
35E
102
{ACAD_REACTORS
330
349
102
}
330
349
100
AcDbXrecord
 10
0.0
 20
0.0
 30
0.0
  0
XRECORD
  5
35C
102
{ACAD_REACTORS
330
349
102
}
330
349
100
AcDbXrecord
 10
0.0
 20
0.0
 30
0.0
  0
XRECORD
  5
35D
102
{ACAD_REACTORS
330
349
102
}
330
349
100
AcDbXrecord
 10
0.0
 20
0.0
 30
0.0
  0
XRECORD
  5
35A
102
{ACAD_REACTORS
330
349
102
}
330
349
100
AcDbXrecord
 10
0.0
 20
0.0
 30
0.0
  0
XRECORD
  5
357
102
{ACAD_REACTORS
330
349
102
}
330
349
100
AcDbXrecord
340
0
  0
XRECORD
  5
358
102
{ACAD_REACTORS
330
349
102
}
330
349
100
AcDbXrecord
 70
     0
  0
XRECORD
  5
34D
102
{ACAD_REACTORS
330
349
102
}
330
349
100
AcDbXrecord
  1

  0
XRECORD
  5
34A
102
{ACAD_REACTORS
330
349
102
}
330
349
100
AcDbXrecord
 90
        1
  0
XRECORD
  5
34B
102
{ACAD_REACTORS
330
349
102
}
330
349
100
AcDbXrecord
 90
       70
  0
XRECORD
  5
362
102
{ACAD_REACTORS
330
349
102
}
330
349
100
AcDbXrecord
340
0
  0
XRECORD
  5
368
102
{ACAD_REACTORS
330
349
102
}
330
349
100
AcDbXrecord
 10
0.0
 20
0.0
 30
0.0
  0
XRECORD
  5
364
102
{ACAD_REACTORS
330
349
102
}
330
349
100
AcDbXrecord
 10
0.0
 20
0.0
 30
0.0
  0
XRECORD
  5
367
102
{ACAD_REACTORS
330
349
102
}
330
349
100
AcDbXrecord
 10
0.0
 20
0.0
 30
0.0
  0
XRECORD
  5
365
102
{ACAD_REACTORS
330
349
102
}
330
349
100
AcDbXrecord
 10
0.0
 20
0.0
 30
0.0
  0
XRECORD
  5
366
102
{ACAD_REACTORS
330
349
102
}
330
349
100
AcDbXrecord
 10
0.0
 20
0.0
 30
0.0
  0
XRECORD
  5
363
102
{ACAD_REACTORS
330
349
102
}
330
349
100
AcDbXrecord
 10
0.0
 20
0.0
 30
0.0
  0
XRECORD
  5
360
102
{ACAD_REACTORS
330
349
102
}
330
349
100
AcDbXrecord
340
0
  0
XRECORD
  5
361
102
{ACAD_REACTORS
330
349
102
}
330
349
100
AcDbXrecord
 70
     0
  0
XRECORD
  5
355
102
{ACAD_REACTORS
330
349
102
}
330
349
100
AcDbXrecord
  1
{2BF8DC32-8DB7-11D6-88E6-0090279574E7}
  0
DICTIONARYVAR
  5
347
102
{ACAD_REACTORS
330
346
102
}
330
346
100
DictionaryVariables
280
     0
  1
1
  0
ENDSEC
  0
EOF
