  0
SECTION
  2
HEADER
  9
$ACADVER
  1
AC1014
  9
$ACADMAINTVER
 70
     9
  9
$DWGCODEPAGE
  3
ANSI_1252
  9
$INSBASE
 10
5.700264096973086
 20
2.756418894124764
 30
0.0
  9
$EXTMIN
 10
3.957282517745942
 20
1.978041877947665
 30
0.0
  9
$EXTMAX
 10
7.442501839493077
 20
6.756418894124816
 30
0.0
  9
$LIMMIN
 10
0.0
 20
0.0
  9
$LIMMAX
 10
18.0
 20
12.0
  9
$ORTHOMODE
 70
     1
  9
$REGENMODE
 70
     1
  9
$FILLMODE
 70
     1
  9
$QTEXTMODE
 70
     0
  9
$MIRRTEXT
 70
     0
  9
$DRAGMODE
 70
     2
  9
$LTSCALE
 40
1.0
  9
$OSMODE
 70
    39
  9
$ATTMODE
 70
     1
  9
$TEXTSIZE
 40
0.125
  9
$TRACEWID
 40
0.05
  9
$TEXTSTYLE
  7
ROMANS
  9
$CLAYER
  8
0
  9
$CELTYPE
  6
BYLAYER
  9
$CECOLOR
 62
   256
  9
$CELTSCALE
 40
1.0
  9
$DELOBJ
 70
     1
  9
$DISPSILH
 70
     1
  9
$DIMSCALE
 40
1.0
  9
$DIMASZ
 40
0.125
  9
$DIMEXO
 40
0.125
  9
$DIMDLI
 40
0.375
  9
$DIMRND
 40
0.0
  9
$DIMDLE
 40
0.0
  9
$DIMEXE
 40
0.125
  9
$DIMTP
 40
0.0
  9
$DIMTM
 40
0.0
  9
$DIMTXT
 40
0.125
  9
$DIMCEN
 40
-0.125
  9
$DIMTSZ
 40
0.0
  9
$DIMTOL
 70
     0
  9
$DIMLIM
 70
     0
  9
$DIMTIH
 70
     1
  9
$DIMTOH
 70
     1
  9
$DIMSE1
 70
     0
  9
$DIMSE2
 70
     0
  9
$DIMTAD
 70
     0
  9
$DIMZIN
 70
     4
  9
$DIMBLK
  1

  9
$DIMASO
 70
     1
  9
$DIMSHO
 70
     1
  9
$DIMPOST
  1

  9
$DIMAPOST
  1

  9
$DIMALT
 70
     0
  9
$DIMALTD
 70
     2
  9
$DIMALTF
 40
25.4
  9
$DIMLFAC
 40
1.0
  9
$DIMTOFL
 70
     0
  9
$DIMTVP
 40
0.0
  9
$DIMTIX
 70
     1
  9
$DIMSOXD
 70
     0
  9
$DIMSAH
 70
     0
  9
$DIMBLK1
  1

  9
$DIMBLK2
  1

  9
$DIMSTYLE
  2
STANDARD
  9
$DIMCLRD
 70
     0
  9
$DIMCLRE
 70
     0
  9
$DIMCLRT
 70
     0
  9
$DIMTFAC
 40
1.0
  9
$DIMGAP
 40
0.09
  9
$DIMJUST
 70
     0
  9
$DIMSD1
 70
     0
  9
$DIMSD2
 70
     0
  9
$DIMTOLJ
 70
     1
  9
$DIMTZIN
 70
     4
  9
$DIMALTZ
 70
     0
  9
$DIMALTTZ
 70
     0
  9
$DIMFIT
 70
     3
  9
$DIMUPT
 70
     0
  9
$DIMUNIT
 70
     2
  9
$DIMDEC
 70
     3
  9
$DIMTDEC
 70
     3
  9
$DIMALTU
 70
     2
  9
$DIMALTTD
 70
     2
  9
$DIMTXSTY
  7
ROMANS
  9
$DIMAUNIT
 70
     0
  9
$LUNITS
 70
     2
  9
$LUPREC
 70
     3
  9
$SKETCHINC
 40
0.1
  9
$FILLETRAD
 40
0.03125
  9
$AUNITS
 70
     0
  9
$AUPREC
 70
     0
  9
$MENU
  1
ACAD
  9
$ELEVATION
 40
0.0
  9
$PELEVATION
 40
0.0
  9
$THICKNESS
 40
0.0
  9
$LIMCHECK
 70
     0
  9
$BLIPMODE
 70
     0
  9
$CHAMFERA
 40
0.0
  9
$CHAMFERB
 40
0.0
  9
$CHAMFERC
 40
0.0
  9
$CHAMFERD
 40
0.0
  9
$SKPOLY
 70
     0
  9
$TDCREATE
 40
2448994.645970833
  9
$TDUPDATE
 40
2452458.311093715
  9
$TDINDWG
 40
0.0004347801
  9
$TDUSRTIMER
 40
0.0004347801
  9
$USRTIMER
 70
     1
  9
$ANGBASE
 50
0.0
  9
$ANGDIR
 70
     0
  9
$PDMODE
 70
     0
  9
$PDSIZE
 40
0.0
  9
$PLINEWID
 40
0.0
  9
$COORDS
 70
     2
  9
$SPLFRAME
 70
     0
  9
$SPLINETYPE
 70
     6
  9
$SPLINESEGS
 70
     8
  9
$ATTDIA
 70
     0
  9
$ATTREQ
 70
     1
  9
$HANDLING
 70
 22529
  9
$HANDSEED
  5
7DE1B343D9E3590
  9
$SURFTAB1
 70
     6
  9
$SURFTAB2
 70
     6
  9
$SURFTYPE
 70
     6
  9
$SURFU
 70
     6
  9
$SURFV
 70
     6
  9
$UCSNAME
  2

  9
$UCSORG
 10
0.0
 20
0.0
 30
0.0
  9
$UCSXDIR
 10
1.0
 20
0.0
 30
0.0
  9
$UCSYDIR
 10
0.0
 20
1.0
 30
0.0
  9
$PUCSNAME
  2

  9
$PUCSORG
 10
0.0
 20
0.0
 30
0.0
  9
$PUCSXDIR
 10
1.0
 20
0.0
 30
0.0
  9
$PUCSYDIR
 10
0.0
 20
1.0
 30
0.0
  9
$USERI1
 70
     0
  9
$USERI2
 70
     0
  9
$USERI3
 70
     0
  9
$USERI4
 70
     0
  9
$USERI5
 70
     0
  9
$USERR1
 40
0.0
  9
$USERR2
 40
0.0
  9
$USERR3
 40
0.0
  9
$USERR4
 40
0.0
  9
$USERR5
 40
0.0
  9
$WORLDVIEW
 70
     1
  9
$SHADEDGE
 70
     3
  9
$SHADEDIF
 70
    70
  9
$TILEMODE
 70
     1
  9
$MAXACTVP
 70
    16
  9
$PINSBASE
 10
0.0
 20
0.0
 30
0.0
  9
$PLIMCHECK
 70
     0
  9
$PEXTMIN
 10
1.000000000000000E+20
 20
1.000000000000000E+20
 30
1.000000000000000E+20
  9
$PEXTMAX
 10
-1.000000000000000E+20
 20
-1.000000000000000E+20
 30
-1.000000000000000E+20
  9
$PLIMMIN
 10
0.0
 20
0.0
  9
$PLIMMAX
 10
12.0
 20
9.0
  9
$UNITMODE
 70
     0
  9
$VISRETAIN
 70
     0
  9
$PLINEGEN
 70
     1
  9
$PSLTSCALE
 70
     0
  9
$TREEDEPTH
 70
  3020
  9
$PICKSTYLE
 70
     1
  9
$CMLSTYLE
  2
STANDARD
  9
$CMLJUST
 70
     0
  9
$CMLSCALE
 40
1.0
  9
$PROXYGRAPHICS
 70
     1
  9
$MEASUREMENT
 70
     0
  0
ENDSEC
  0
SECTION
  2
CLASSES
  0
CLASS
  1
LWPOLYLINE
  2
AcDbPolyline
  3
AutoCAD 2000
 90
        0
280
     0
281
     1
  0
CLASS
  1
ACDBDICTIONARYWDFLT
  2
AcDbDictionaryWithDefault
  3
AutoCAD 2000
 90
        0
280
     0
281
     0
  0
CLASS
  1
ACDBPLACEHOLDER
  2
AcDbPlaceHolder
  3
AutoCAD 2000
 90
        0
280
     0
281
     0
  0
CLASS
  1
LAYOUT
  2
AcDbLayout
  3
AutoCAD 2000
 90
        0
280
     0
281
     0
  0
CLASS
  1
DICTIONARYVAR
  2
AcDbDictionaryVar
  3
AutoCAD 2000
 90
        0
280
     0
281
     0
  0
CLASS
  1
LONG_TRANSACTION
  2
AcDbLongTransaction
  3
AutoCAD 2000
 90
        0
280
     0
281
     0
  0
CLASS
  1
LWPOLYLINE
  2
AcDbPolyline
  3
AutoCAD 2000
 90
        0
280
     0
281
     1
  0
CLASS
  1
HATCH
  2
AcDbHatch
  3
AutoCAD 2000
 90
        0
280
     0
281
     1
  0
CLASS
  1
XRECORD
  2
AcDbXrecord
  3
AutoCAD 2000
 90
        0
280
     0
281
     0
  0
ENDSEC
  0
SECTION
  2
TABLES
  0
TABLE
  2
VPORT
  5
7DE1B343D9E3537
330
0
100
AcDbSymbolTable
 70
     2
  0
VPORT
  5
7DE1B343D9E356B
330
7DE1B343D9E3537
100
AcDbSymbolTableRecord
100
AcDbViewportTableRecord
  2
*ACTIVE
 70
     0
 10
0.0
 20
0.0
 11
1.0
 21
1.0
 12
12.73617403250276
 22
4.367157008460672
 13
0.0
 23
0.0
 14
0.015625
 24
0.015625
 15
0.0
 25
0.0
 16
0.0
 26
0.0
 36
1.0
 17
0.0
 27
0.0
 37
0.0
 40
5.396280262207784
 41
4.320930232558139
 42
50.0
 43
0.0
 44
0.0
 50
0.0
 51
0.0
 71
     0
 72
  2000
 73
     1
 74
     0
 75
     0
 76
     0
 77
     0
 78
     0
  0
ENDTAB
  0
TABLE
  2
LTYPE
  5
7DE1B343D9E3534
330
0
100
AcDbSymbolTable
 70
     1
  0
LTYPE
  5
7DE1B343D9E3541
330
7DE1B343D9E3534
100
AcDbSymbolTableRecord
100
AcDbLinetypeTableRecord
  2
BYBLOCK
 70
     0
  3

 72
    65
 73
     0
 40
0.0
  0
LTYPE
  5
7DE1B343D9E3542
330
7DE1B343D9E3534
100
AcDbSymbolTableRecord
100
AcDbLinetypeTableRecord
  2
BYLAYER
 70
     0
  3

 72
    65
 73
     0
 40
0.0
  0
LTYPE
  5
7DE1B343D9E3543
330
7DE1B343D9E3534
100
AcDbSymbolTableRecord
100
AcDbLinetypeTableRecord
  2
CONTINUOUS
 70
     0
  3
Solid line
 72
    65
 73
     0
 40
0.0
  0
ENDTAB
  0
TABLE
  2
LAYER
  5
7DE1B343D9E3531
330
0
100
AcDbSymbolTable
 70
     2
  0
LAYER
  5
7DE1B343D9E353E
330
7DE1B343D9E3531
100
AcDbSymbolTableRecord
100
AcDbLayerTableRecord
  2
0
 70
     0
 62
     7
  6
CONTINUOUS
  0
LAYER
  5
7DE1B343D9E354E
330
7DE1B343D9E3531
100
AcDbSymbolTableRecord
100
AcDbLayerTableRecord
  2
TEXT
 70
     0
 62
     3
  6
CONTINUOUS
  0
ENDTAB
  0
TABLE
  2
STYLE
  5
7DE1B343D9E3532
330
0
100
AcDbSymbolTable
 70
     3
  0
STYLE
  5
7DE1B343D9E353F
330
7DE1B343D9E3532
100
AcDbSymbolTableRecord
100
AcDbTextStyleTableRecord
  2
STANDARD
 70
     0
 40
0.0
 41
1.0
 50
0.0
 71
     0
 42
0.3125
  3
txt
  4

  0
STYLE
  5
7DE1B343D9E354B
330
7DE1B343D9E3532
100
AcDbSymbolTableRecord
100
AcDbTextStyleTableRecord
  2
ITALICC
 70
     0
 40
0.0
 41
1.0
 50
0.0
 71
     0
 42
0.125
  3
italicc
  4

  0
STYLE
  5
7DE1B343D9E355B
330
7DE1B343D9E3532
100
AcDbSymbolTableRecord
100
AcDbTextStyleTableRecord
  2
ROMANS
 70
     0
 40
0.0
 41
1.0
 50
0.0
 71
     0
 42
0.125
  3
romans.shx
  4

  0
ENDTAB
  0
TABLE
  2
VIEW
  5
7DE1B343D9E3535
330
0
100
AcDbSymbolTable
 70
     0
  0
ENDTAB
  0
TABLE
  2
UCS
  5
7DE1B343D9E3536
330
0
100
AcDbSymbolTable
 70
     0
  0
ENDTAB
  0
TABLE
  2
APPID
  5
7DE1B343D9E3538
330
0
100
AcDbSymbolTable
 70
     1
  0
APPID
  5
7DE1B343D9E3540
330
7DE1B343D9E3538
100
AcDbSymbolTableRecord
100
AcDbRegAppTableRecord
  2
ACAD
 70
     0
  0
ENDTAB
  0
TABLE
  2
DIMSTYLE
  5
7DE1B343D9E3539
330
0
100
AcDbSymbolTable
 70
     1
  0
DIMSTYLE
105
7DE1B343D9E3553
330
7DE1B343D9E3539
100
AcDbSymbolTableRecord
100
AcDbDimStyleTableRecord
  2
STANDARD
 70
     0
  3

  4

  5

  6

  7

 40
1.0
 41
0.125
 42
0.125
 43
0.375
 44
0.125
 45
0.0
 46
0.0
 47
0.0
 48
0.0
140
0.125
141
-0.125
142
0.0
143
25.4
144
1.0
145
0.0
146
1.0
147
0.09
 71
     0
 72
     0
 73
     1
 74
     1
 75
     0
 76
     0
 77
     0
 78
     4
170
     0
171
     2
172
     0
173
     0
174
     1
175
     0
176
     0
177
     0
178
     0
270
     2
271
     3
272
     3
273
     2
274
     2
340
7DE1B343D9E355B
275
     0
280
     0
281
     0
282
     0
283
     1
284
     4
285
     0
286
     0
287
     3
288
     0
  0
ENDTAB
  0
TABLE
  2
BLOCK_RECORD
  5
7DE1B343D9E3530
330
0
100
AcDbSymbolTable
 70
     0
  0
BLOCK_RECORD
  5
7DE1B343D9E3547
102
{ACAD_XDICTIONARY
360
7DE1B343D9E358E
102
}
330
7DE1B343D9E3530
100
AcDbSymbolTableRecord
100
AcDbBlockTableRecord
  2
*MODEL_SPACE
  0
BLOCK_RECORD
  5
7DE1B343D9E3544
102
{ACAD_XDICTIONARY
360
7DE1B343D9E358C
102
}
330
7DE1B343D9E3530
100
AcDbSymbolTableRecord
100
AcDbBlockTableRecord
  2
*PAPER_SPACE
  0
ENDTAB
  0
ENDSEC
  0
SECTION
  2
BLOCKS
  0
BLOCK
  5
7DE1B343D9E3551
330
7DE1B343D9E3547
100
AcDbEntity
  8
0
100
AcDbBlockBegin
  2
*MODEL_SPACE
 70
     0
 10
0.0
 20
0.0
 30
0.0
  3
*MODEL_SPACE
  1

  0
ENDBLK
  5
7DE1B343D9E3552
330
7DE1B343D9E3547
100
AcDbEntity
  8
0
100
AcDbBlockEnd
  0
BLOCK
  5
7DE1B343D9E354F
330
7DE1B343D9E3544
100
AcDbEntity
 67
     1
  8
0
100
AcDbBlockBegin
  2
*PAPER_SPACE
 70
     0
 10
0.0
 20
0.0
 30
0.0
  3
*PAPER_SPACE
  1

  0
ENDBLK
  5
7DE1B343D9E3550
330
7DE1B343D9E3544
100
AcDbEntity
 67
     1
  8
0
100
AcDbBlockEnd
  0
ENDSEC
  0
SECTION
  2
ENTITIES
  0
LWPOLYLINE
  5
7DE1B343D9E218F
330
7DE1B343D9E3547
100
AcDbEntity
  8
0
100
AcDbPolyline
 90
        8
 70
     1
 43
0.0
 10
5.32526409697307
 20
6.756418894124688
 42
0.0049999999999997
 10
5.325264096973092
 20
2.756418894124752
 10
6.07526409697308
 20
2.756418894124775
 42
0.0049999999999974
 10
6.075264096973095
 20
6.756418894124776
 10
5.95026409697308
 20
6.756418894124775
 10
5.95026409697308
 20
4.756418894124775
 10
5.45026409697308
 20
4.756418894124775
 10
5.45026409697308
 20
6.756418894124775
  0
LWPOLYLINE
  5
7DE1B343D9E2128
330
7DE1B343D9E3547
100
AcDbEntity
  8
0
100
AcDbPolyline
 90
        4
 70
     1
 43
0.0
 10
5.45026409697308
 20
2.881418894124775
 10
5.95026409697308
 20
2.881418894124775
 10
5.95026409697308
 20
4.631418894124775
 10
5.45026409697308
 20
4.631418894124775
  0
TEXT
  5
7DE1B343D9E33F2
330
7DE1B343D9E3547
100
AcDbEntity
  8
TEXT
100
AcDbText
 10
4.947287906496895
 20
2.436060482030246
 30
0.0
 40
0.125
  1
PART #110413
  7
ITALICC
 72
     1
 11
5.700264096973086
 21
2.436060482030246
 31
0.0
100
AcDbText
  0
TEXT
  5
7DE1B343D9E33F3
330
7DE1B343D9E3547
100
AcDbEntity
  8
TEXT
100
AcDbText
 10
6.113569255223406
 20
1.989137839357871
 30
0.0
 40
0.0522247191011236
  1
Phone  1-800-328-2495
 41
1.272321428571429
 72
     5
 11
7.44250183949307
 21
1.989137839357871
 31
0.0
100
AcDbText
  0
TEXT
  5
7DE1B343D9E33F4
330
7DE1B343D9E3547
100
AcDbEntity
  8
TEXT
100
AcDbText
 10
6.113569255223406
 20
2.268913120256747
 30
0.0
 40
0.0522247191011236
  1
Stylmark  Incorporated
 41
1.221428571428573
 72
     5
 11
7.44250183949307
 21
2.268913120256747
 31
0.0
100
AcDbText
  0
TEXT
  5
7DE1B343D9E33F5
330
7DE1B343D9E3547
100
AcDbEntity
  8
TEXT
100
AcDbText
 10
6.113569255223406
 20
2.175654693290455
 30
0.0
 40
0.0522247191011236
  1
6536 Main St. N.E. * P.O. Box 32008
 41
0.8388932496075366
 72
     5
 11
7.44250183949307
 21
2.175654693290455
 31
0.0
100
AcDbText
  0
TEXT
  5
7DE1B343D9E33F6
330
7DE1B343D9E3547
100
AcDbEntity
  8
TEXT
100
AcDbText
 10
6.113569255223406
 20
2.082396266324163
 30
0.0
 40
0.0522247191011236
  1
Minneapolis, MN 55432-0008
 41
1.11444212721585
 72
     5
 11
7.44250183949307
 21
2.082396266324163
 31
0.0
100
AcDbText
  0
LWPOLYLINE
  5
7DE1B343D9E33F7
330
7DE1B343D9E3547
100
AcDbEntity
  8
TEXT
100
AcDbPolyline
 90
        3
 70
     0
 43
0.0006660908203125
 10
3.957615563156099
 20
2.102782601995305
 10
3.957615563156099
 20
1.989547162542178
 10
4.070851002609221
 20
1.989547162542178
  0
LWPOLYLINE
  5
7DE1B343D9E33FC
330
7DE1B343D9E3547
100
AcDbEntity
  8
TEXT
100
AcDbPolyline
 90
        3
 70
     0
 43
0.0006660908203125
 10
3.984259195968596
 20
2.102782601995305
 10
3.984259195968596
 20
2.016190795354679
 10
4.070851002609221
 20
2.016190795354679
  0
LWPOLYLINE
  5
7DE1B343D9E3401
330
7DE1B343D9E3547
100
AcDbEntity
  8
TEXT
100
AcDbPolyline
 90
        2
 70
     0
 43
0.0001332181640625
 10
4.030885553390473
 20
2.112773964299991
 10
3.957615563156099
 20
2.102782601995305
  0
LWPOLYLINE
  5
7DE1B343D9E3405
330
7DE1B343D9E3547
100
AcDbEntity
  8
TEXT
100
AcDbPolyline
 90
        2
 70
     0
 43
0.0001332181640625
 10
3.984259195968596
 20
2.102782601995305
 10
4.044207369796724
 20
2.112773964299991
  0
LWPOLYLINE
  5
7DE1B343D9E3409
330
7DE1B343D9E3547
100
AcDbEntity
  8
TEXT
100
AcDbPolyline
 90
        2
 70
     0
 43
0.0001332181640625
 10
3.984259195968596
 20
2.016190795354679
 10
4.044207369796724
 20
2.076138969182804
  0
LWPOLYLINE
  5
7DE1B343D9E340D
330
7DE1B343D9E3547
100
AcDbEntity
  8
TEXT
100
AcDbPolyline
 90
        3
 70
     0
 43
0.0006660908203125
 10
4.070851002609221
 20
2.255983490667181
 10
3.957615563156099
 20
2.255983490667181
 10
3.957615563156099
 20
2.142748051214053
  0
LWPOLYLINE
  5
7DE1B343D9E3412
330
7DE1B343D9E3547
100
AcDbEntity
  8
TEXT
100
AcDbPolyline
 90
        3
 70
     0
 43
0.0006660908203125
 10
4.070851002609221
 20
2.22933985785468
 10
3.984259195968596
 20
2.22933985785468
 10
3.984259195968596
 20
2.142748051214053
  0
LWPOLYLINE
  5
7DE1B343D9E3417
330
7DE1B343D9E3547
100
AcDbEntity
  8
TEXT
100
AcDbPolyline
 90
        2
 70
     0
 43
0.0001332181640625
 10
3.984259195968596
 20
2.22933985785468
 10
4.044207369796722
 20
2.169391684026555
  0
LWPOLYLINE
  5
7DE1B343D9E341B
330
7DE1B343D9E3547
100
AcDbEntity
  8
TEXT
100
AcDbPolyline
 90
        2
 70
     0
 43
0.0001332181640625
 10
3.984259195968596
 20
2.142748051214053
 10
4.044207369796722
 20
2.132756688909365
  0
LWPOLYLINE
  5
7DE1B343D9E341F
330
7DE1B343D9E3547
100
AcDbEntity
  8
TEXT
100
AcDbPolyline
 90
        2
 70
     0
 43
0.0001332181640625
 10
3.957615563156099
 20
2.142748051214053
 10
4.030885553390473
 20
2.132756688909365
  0
LWPOLYLINE
  5
7DE1B343D9E3423
330
7DE1B343D9E3547
100
AcDbEntity
  8
TEXT
100
AcDbPolyline
 90
        2
 70
     0
 43
0.0006660908203125
 10
3.984259195968596
 20
2.102782601995305
 10
3.957615563156099
 20
2.102782601995305
  0
LWPOLYLINE
  5
7DE1B343D9E3427
330
7DE1B343D9E3547
100
AcDbEntity
  8
TEXT
100
AcDbPolyline
 90
        2
 70
     0
 43
0.0006660908203125
 10
3.984259195968596
 20
2.142748051214053
 10
3.957615563156099
 20
2.142748051214053
  0
LINE
  5
7DE1B343D9E342B
330
7DE1B343D9E3547
100
AcDbEntity
  8
TEXT
100
AcDbLine
 10
5.472805992282596
 20
2.191706796010412
 30
0.0
 11
5.365599718895307
 21
2.191706796010412
 31
0.0
  0
LINE
  5
7DE1B343D9E342C
330
7DE1B343D9E3547
100
AcDbEntity
  8
TEXT
100
AcDbLine
 10
5.501836890627075
 20
2.255983490667178
 30
0.0
 11
5.367004981410016
 21
2.255983490667178
 31
0.0
  0
ARC
  5
7DE1B343D9E342D
330
7DE1B343D9E3547
100
AcDbEntity
  8
TEXT
100
AcDbCircle
 10
5.426319077803333
 20
2.086746241404161
 30
0.0
 40
0.0676855811441166
100
AcDbArc
 50
90.0
 51
153.7768192527749
  0
LWPOLYLINE
  5
7DE1B343D9E342E
330
7DE1B343D9E3547
100
AcDbEntity
  8
TEXT
100
AcDbPolyline
 90
        2
 70
     0
 43
0.0
 10
5.364567223440497
 20
2.033001402629105
 42
0.2901071551932823
 10
5.407643156308132
 20
1.989510457678667
 42
5.328517124445801
  0
ARC
  5
7DE1B343D9E3432
330
7DE1B343D9E3547
100
AcDbEntity
  8
TEXT
100
AcDbCircle
 10
4.721187700131847
 20
2.049302849016716
 30
0.0
 40
0.0601160179737537
100
AcDbArc
 50
180.0000000000003
 51
264.0521544866073
  0
LINE
  5
7DE1B343D9E3433
330
7DE1B343D9E3547
100
AcDbEntity
  8
TEXT
100
AcDbLine
 10
4.724703055757395
 20
2.290371408261316
 30
0.0
 11
4.664660450913387
 21
2.290371408261316
 31
0.0
  0
ARC
  5
7DE1B343D9E3434
330
7DE1B343D9E3547
100
AcDbEntity
  8
TEXT
100
AcDbCircle
 10
4.488928698014876
 20
2.173896031220676
 30
0.0
 40
0.0820874594465043
100
AcDbArc
 50
90.0
 51
270.0
  0
LWPOLYLINE
  5
7DE1B343D9E3435
330
7DE1B343D9E3547
100
AcDbEntity
  8
TEXT
100
AcDbPolyline
 90
        2
 70
     0
 43
0.0001332181640625
 10
4.080842364913912
 20
2.182713500432801
 10
4.070851002609221
 20
2.255983490667181
  0
LWPOLYLINE
  5
7DE1B343D9E3439
330
7DE1B343D9E3547
100
AcDbEntity
  8
TEXT
100
AcDbPolyline
 90
        2
 70
     0
 43
0.0001332181640625
 10
4.070851002609221
 20
2.22933985785468
 10
4.080842364913912
 20
2.169391684026555
  0
LWPOLYLINE
  5
7DE1B343D9E343D
330
7DE1B343D9E3547
100
AcDbEntity
  8
TEXT
100
AcDbPolyline
 90
        3
 70
     0
 43
0.0006660908203125
 10
4.224051891281098
 20
2.142748051214053
 10
4.224051891281098
 20
2.255983490667181
 10
4.110816451827973
 20
2.255983490667181
  0
LWPOLYLINE
  5
7DE1B343D9E3442
330
7DE1B343D9E3547
100
AcDbEntity
  8
TEXT
100
AcDbPolyline
 90
        3
 70
     0
 43
0.0006660908203125
 10
4.197408258468597
 20
2.142748051214053
 10
4.197408258468597
 20
2.22933985785468
 10
4.110816451827973
 20
2.22933985785468
  0
LWPOLYLINE
  5
7DE1B343D9E3447
330
7DE1B343D9E3547
100
AcDbEntity
  8
TEXT
100
AcDbPolyline
 90
        2
 70
     0
 43
0.0001332181640625
 10
4.197408258468597
 20
2.22933985785468
 10
4.137460084640474
 20
2.169391684026555
  0
LWPOLYLINE
  5
7DE1B343D9E344B
330
7DE1B343D9E3547
100
AcDbEntity
  8
TEXT
100
AcDbPolyline
 90
        2
 70
     0
 43
0.0001332181640625
 10
4.110816451827973
 20
2.22933985785468
 10
4.100825089523284
 20
2.169391684026555
  0
LWPOLYLINE
  5
7DE1B343D9E344F
330
7DE1B343D9E3547
100
AcDbEntity
  8
TEXT
100
AcDbPolyline
 90
        2
 70
     0
 43
0.0001332181640625
 10
4.110816451827973
 20
2.255983490667181
 10
4.100825089523284
 20
2.182713500432801
  0
LWPOLYLINE
  5
7DE1B343D9E3453
330
7DE1B343D9E3547
100
AcDbEntity
  8
TEXT
100
AcDbPolyline
 90
        2
 70
     0
 43
0.0001332181640625
 10
4.150781901046722
 20
2.132756688909365
 10
4.224051891281098
 20
2.142748051214053
  0
LWPOLYLINE
  5
7DE1B343D9E3457
330
7DE1B343D9E3547
100
AcDbEntity
  8
TEXT
100
AcDbPolyline
 90
        2
 70
     0
 43
0.0001332181640625
 10
4.197408258468597
 20
2.142748051214053
 10
4.137460084640474
 20
2.132756688909365
  0
LWPOLYLINE
  5
7DE1B343D9E345B
330
7DE1B343D9E3547
100
AcDbEntity
  8
TEXT
100
AcDbPolyline
 90
        2
 70
     0
 43
0.0001332181640625
 10
4.224051891281098
 20
2.102782601995305
 10
4.150781901046722
 20
2.112773964299991
  0
LWPOLYLINE
  5
7DE1B343D9E345F
330
7DE1B343D9E3547
100
AcDbEntity
  8
TEXT
100
AcDbPolyline
 90
        2
 70
     0
 43
0.0001332181640625
 10
4.197408258468597
 20
2.102782601995305
 10
4.137460084640474
 20
2.112773964299991
  0
LWPOLYLINE
  5
7DE1B343D9E3463
330
7DE1B343D9E3547
100
AcDbEntity
  8
TEXT
100
AcDbPolyline
 90
        2
 70
     0
 43
0.0001332181640625
 10
4.197408258468597
 20
2.016190795354679
 10
4.137460084640474
 20
2.076138969182804
  0
LWPOLYLINE
  5
7DE1B343D9E3467
330
7DE1B343D9E3547
100
AcDbEntity
  8
TEXT
100
AcDbPolyline
 90
        3
 70
     0
 43
0.0006660908203125
 10
4.110816451827973
 20
2.016190795354679
 10
4.197408258468597
 20
2.016190795354679
 10
4.197408258468597
 20
2.102782601995305
  0
LWPOLYLINE
  5
7DE1B343D9E346C
330
7DE1B343D9E3547
100
AcDbEntity
  8
TEXT
100
AcDbPolyline
 90
        3
 70
     0
 43
0.0006660908203125
 10
4.110816451827973
 20
1.989547162542178
 10
4.224051891281098
 20
1.989547162542178
 10
4.224051891281098
 20
2.102782601995305
  0
LWPOLYLINE
  5
7DE1B343D9E3471
330
7DE1B343D9E3547
100
AcDbEntity
  8
TEXT
100
AcDbPolyline
 90
        5
 70
     0
 43
0.0001332181640625
 10
4.080842364913912
 20
2.062817152776554
 10
4.080842364913912
 20
2.076138969182804
 10
4.044207369796724
 20
2.076138969182804
 10
4.044207369796724
 20
2.112773964299991
 10
4.030885553390473
 20
2.112773964299991
  0
LWPOLYLINE
  5
7DE1B343D9E3478
330
7DE1B343D9E3547
100
AcDbEntity
  8
TEXT
100
AcDbPolyline
 90
        2
 70
     0
 43
0.0006660908203125
 10
4.070851002609221
 20
2.016190795354679
 10
4.070851002609221
 20
1.989547162542178
  0
LWPOLYLINE
  5
7DE1B343D9E347C
330
7DE1B343D9E3547
100
AcDbEntity
  8
TEXT
100
AcDbPolyline
 90
        2
 70
     0
 43
0.0001332181640625
 10
4.070851002609221
 20
2.016190795354679
 10
4.080842364913912
 20
2.076138969182804
  0
LWPOLYLINE
  5
7DE1B343D9E3480
330
7DE1B343D9E3547
100
AcDbEntity
  8
TEXT
100
AcDbPolyline
 90
        2
 70
     0
 43
0.0001332181640625
 10
4.070851002609221
 20
1.989547162542178
 10
4.080842364913912
 20
2.062817152776554
  0
LWPOLYLINE
  5
7DE1B343D9E3484
330
7DE1B343D9E3547
100
AcDbEntity
  8
TEXT
100
AcDbPolyline
 90
        5
 70
     0
 43
0.0001332181640625
 10
4.030885553390473
 20
2.132756688909365
 10
4.044207369796722
 20
2.132756688909365
 10
4.044207369796722
 20
2.169391684026555
 10
4.080842364913912
 20
2.169391684026555
 10
4.080842364913912
 20
2.182713500432801
  0
LWPOLYLINE
  5
7DE1B343D9E348B
330
7DE1B343D9E3547
100
AcDbEntity
  8
TEXT
100
AcDbPolyline
 90
        5
 70
     0
 43
0.0001332181640625
 10
4.100825089523284
 20
2.182713500432801
 10
4.100825089523284
 20
2.169391684026555
 10
4.137460084640474
 20
2.169391684026555
 10
4.137460084640474
 20
2.132756688909365
 10
4.150781901046722
 20
2.132756688909365
  0
LWPOLYLINE
  5
7DE1B343D9E3492
330
7DE1B343D9E3547
100
AcDbEntity
  8
TEXT
100
AcDbPolyline
 90
        2
 70
     0
 43
0.0001332181640625
 10
4.110816451827973
 20
2.016190795354679
 10
4.100825089523284
 20
2.076138969182804
  0
LWPOLYLINE
  5
7DE1B343D9E3496
330
7DE1B343D9E3547
100
AcDbEntity
  8
TEXT
100
AcDbPolyline
 90
        2
 70
     0
 43
0.0001332181640625
 10
4.100825089523284
 20
2.062817152776554
 10
4.110816451827973
 20
1.989547162542178
  0
LWPOLYLINE
  5
7DE1B343D9E349A
330
7DE1B343D9E3547
100
AcDbEntity
  8
TEXT
100
AcDbPolyline
 90
        2
 70
     0
 43
0.0006660908203125
 10
4.110816451827973
 20
2.016190795354679
 10
4.110816451827973
 20
1.989547162542178
  0
LWPOLYLINE
  5
7DE1B343D9E349E
330
7DE1B343D9E3547
100
AcDbEntity
  8
TEXT
100
AcDbPolyline
 90
        5
 70
     0
 43
0.0001332181640625
 10
4.150781901046722
 20
2.112773964299991
 10
4.137460084640474
 20
2.112773964299991
 10
4.137460084640474
 20
2.076138969182804
 10
4.100825089523284
 20
2.076138969182804
 10
4.100825089523284
 20
2.062817152776554
  0
LWPOLYLINE
  5
7DE1B343D9E34A5
330
7DE1B343D9E3547
100
AcDbEntity
  8
TEXT
100
AcDbPolyline
 90
        2
 70
     0
 43
0.0006660908203125
 10
4.197408258468597
 20
2.142748051214053
 10
4.224051891281098
 20
2.142748051214053
  0
LWPOLYLINE
  5
7DE1B343D9E34A9
330
7DE1B343D9E3547
100
AcDbEntity
  8
TEXT
100
AcDbPolyline
 90
        2
 70
     0
 43
0.0006660908203125
 10
4.197408258468597
 20
2.102782601995305
 10
4.224051891281098
 20
2.102782601995305
  0
LINE
  5
7DE1B343D9E34AD
330
7DE1B343D9E3547
100
AcDbEntity
  8
TEXT
100
AcDbLine
 10
4.494166028129123
 20
2.191706796010412
 30
0.0
 11
4.661071682158095
 21
2.191706796010412
 31
0.0
  0
LINE
  5
7DE1B343D9E34AE
330
7DE1B343D9E3547
100
AcDbEntity
  8
TEXT
100
AcDbLine
 10
4.559766164373424
 20
2.155902074399784
 30
0.0
 11
4.494166028129123
 21
2.155902074399784
 31
0.0
  0
LINE
  5
7DE1B343D9E34AF
330
7DE1B343D9E3547
100
AcDbEntity
  8
TEXT
100
AcDbLine
 10
4.406841238568372
 20
1.989510457678667
 30
0.0
 11
4.559766164373424
 21
1.989510457678667
 31
0.0
  0
LINE
  5
7DE1B343D9E34B0
330
7DE1B343D9E3547
100
AcDbEntity
  8
TEXT
100
AcDbLine
 10
4.564706538279704
 20
2.057867464012106
 30
0.0
 11
4.40684123856837
 21
2.057867464012106
 31
0.0
  0
LINE
  5
7DE1B343D9E34B1
330
7DE1B343D9E3547
100
AcDbEntity
  8
TEXT
100
AcDbLine
 10
4.488928698014875
 20
2.091808571774171
 30
0.0
 11
4.564706538279704
 21
2.091808571774171
 31
0.0
  0
ARC
  5
7DE1B343D9E34B2
330
7DE1B343D9E3547
100
AcDbEntity
  8
TEXT
100
AcDbCircle
 10
4.494166028129124
 20
2.1738044352051
 30
0.0
 40
0.017902360805315
100
AcDbArc
 50
90.0
 51
270.0
  0
LINE
  5
7DE1B343D9E34B3
330
7DE1B343D9E3547
100
AcDbEntity
  8
TEXT
100
AcDbLine
 10
4.40684123856837
 20
2.057867464012106
 30
0.0
 11
4.406841238568372
 21
1.989510457678667
 31
0.0
  0
LINE
  5
7DE1B343D9E34B4
330
7DE1B343D9E3547
100
AcDbEntity
  8
TEXT
100
AcDbLine
 10
4.661071682158095
 20
2.191706796010412
 30
0.0
 11
4.661071682158095
 21
2.049302849016716
 31
0.0
  0
ARC
  5
7DE1B343D9E34B5
330
7DE1B343D9E3547
100
AcDbEntity
  8
TEXT
100
AcDbCircle
 10
4.559766164373425
 20
2.072706266039224
 30
0.0
 40
0.0831958083605586
100
AcDbArc
 50
270.0
 51
90.0
  0
ARC
  5
7DE1B343D9E34B6
330
7DE1B343D9E3547
100
AcDbEntity
  8
TEXT
100
AcDbCircle
 10
4.564706538279705
 20
2.07483801789314
 30
0.0
 40
0.0169705538810321
100
AcDbArc
 50
270.0
 51
90.0
  0
LWPOLYLINE
  5
7DE1B343D9E34B7
330
7DE1B343D9E3547
100
AcDbEntity
  8
TEXT
100
AcDbPolyline
 90
        2
 70
     0
 43
0.0006660908203125
 10
4.070851002609221
 20
2.22933985785468
 10
4.070851002609221
 20
2.255983490667181
  0
LWPOLYLINE
  5
7DE1B343D9E34BB
330
7DE1B343D9E3547
100
AcDbEntity
  8
TEXT
100
AcDbPolyline
 90
        2
 70
     0
 43
0.0006660908203125
 10
4.110816451827973
 20
2.22933985785468
 10
4.110816451827973
 20
2.255983490667181
  0
LINE
  5
7DE1B343D9E34BF
330
7DE1B343D9E3547
100
AcDbEntity
  8
TEXT
100
AcDbLine
 10
4.664660450913387
 20
2.255983490667178
 30
0.0
 11
4.488928698014875
 21
2.255983490667178
 31
0.0
  0
LINE
  5
7DE1B343D9E34C0
330
7DE1B343D9E3547
100
AcDbEntity
  8
TEXT
100
AcDbLine
 10
4.664660450913387
 20
2.290371408261316
 30
0.0
 11
4.664660450913387
 21
2.255983490667178
 31
0.0
  0
LINE
  5
7DE1B343D9E34C1
330
7DE1B343D9E3547
100
AcDbEntity
  8
TEXT
100
AcDbLine
 10
4.85513234293324
 20
2.155111494554057
 30
0.0
 11
4.796502021901302
 21
2.255983490667178
 31
0.0
  0
LINE
  5
7DE1B343D9E34C2
330
7DE1B343D9E3547
100
AcDbEntity
  8
TEXT
100
AcDbLine
 10
4.913880905739105
 20
2.255983490667178
 30
0.0
 11
4.85513234293324
 21
2.155111494554057
 31
0.0
  0
LINE
  5
7DE1B343D9E34C3
330
7DE1B343D9E3547
100
AcDbEntity
  8
TEXT
100
AcDbLine
 10
5.010811531098847
 20
2.071898295781666
 30
0.0
 11
5.010811531098847
 21
2.323994968405988
 31
0.0
  0
LINE
  5
7DE1B343D9E34C4
330
7DE1B343D9E3547
100
AcDbEntity
  8
TEXT
100
AcDbLine
 10
5.043123385236507
 20
2.255983490667178
 30
0.0
 11
5.043123385236507
 21
2.055119283934769
 31
0.0
  0
LINE
  5
7DE1B343D9E34C5
330
7DE1B343D9E3547
100
AcDbEntity
  8
TEXT
100
AcDbLine
 10
5.043123385236507
 20
2.055119283934769
 30
0.0
 11
5.026129748351905
 21
2.055119283934769
 31
0.0
  0
LINE
  5
7DE1B343D9E34C6
330
7DE1B343D9E3547
100
AcDbEntity
  8
TEXT
100
AcDbLine
 10
5.011951104595041
 20
1.989510457678667
 30
0.0
 11
5.109954438294476
 21
1.989510457678667
 31
0.0
  0
LINE
  5
7DE1B343D9E34C7
330
7DE1B343D9E3547
100
AcDbEntity
  8
TEXT
100
AcDbLine
 10
4.845532105936285
 20
2.00946896378368
 30
0.0
 11
4.94283181202973
 21
2.173819174718948
 31
0.0
  0
ARC
  5
7DE1B343D9E34C8
330
7DE1B343D9E3547
100
AcDbEntity
  8
TEXT
100
AcDbCircle
 10
4.811488546024071
 20
2.029058179952362
 30
0.0
 40
0.0392772371940762
100
AcDbArc
 50
270.1604552698595
 51
330.0831797321295
  0
LINE
  5
7DE1B343D9E34C9
330
7DE1B343D9E3547
100
AcDbEntity
  8
TEXT
100
AcDbLine
 10
4.7149582896382
 20
1.989510457678667
 30
0.0
 11
4.811598540713195
 21
1.989781096776949
 31
0.0
  0
LWPOLYLINE
  5
7DE1B343D9E34CA
330
7DE1B343D9E3547
100
AcDbEntity
  8
TEXT
100
AcDbPolyline
 90
        6
 70
     1
 43
0.0
 10
4.75748209321335
 20
2.191706796010412
 10
4.727165498993142
 20
2.191706796010412
 10
4.727165498993142
 20
2.068595797955518
 42
0.407328721240804
 10
4.738709150154618
 20
2.056776883279132
 10
4.799330849199349
 20
2.056776883279132
 10
4.816796189606667
 20
2.089589112322611
  0
LINE
  5
7DE1B343D9E34D2
330
7DE1B343D9E3547
100
AcDbEntity
  8
TEXT
100
AcDbLine
 10
4.94283181202973
 20
2.173819174718948
 30
0.0
 11
4.94283181202973
 21
2.041061799893591
 31
0.0
  0
ARC
  5
7DE1B343D9E34D3
330
7DE1B343D9E3547
100
AcDbEntity
  8
TEXT
100
AcDbCircle
 10
5.026129748351904
 20
2.070501090178195
 30
0.0
 40
0.0153818062434269
100
AcDbArc
 50
174.7883570302258
 51
270.0
  0
LWPOLYLINE
  5
7DE1B343D9E34D4
330
7DE1B343D9E3547
100
AcDbEntity
  8
TEXT
100
AcDbPolyline
 90
        2
 70
     0
 43
0.0
 10
4.942831812029728
 20
2.041061799893595
 42
0.3318488747599744
 10
5.011951104595041
 20
1.989510457678667
 42
-6.868794160588311
  0
LINE
  5
7DE1B343D9E34D8
330
7DE1B343D9E3547
100
AcDbEntity
  8
TEXT
100
AcDbLine
 10
5.167343507283737
 20
1.989510457678667
 30
0.0
 11
5.234401554065577
 21
1.989510457678667
 31
0.0
  0
LINE
  5
7DE1B343D9E34D9
330
7DE1B343D9E3547
100
AcDbEntity
  8
TEXT
100
AcDbLine
 10
5.167343507283737
 20
2.184153006844302
 30
0.0
 11
5.167343507283737
 21
1.989510457678667
 31
0.0
  0
LINE
  5
7DE1B343D9E34DA
330
7DE1B343D9E3547
100
AcDbEntity
  8
TEXT
100
AcDbLine
 10
5.109954438294476
 20
2.191706796010412
 30
0.0
 11
5.159789718117623
 21
2.191706796010412
 31
0.0
  0
LINE
  5
7DE1B343D9E34DB
330
7DE1B343D9E3547
100
AcDbEntity
  8
TEXT
100
AcDbLine
 10
5.109954438294476
 20
1.989510457678667
 30
0.0
 11
5.109954438294476
 21
2.191706796010412
 31
0.0
  0
LWPOLYLINE
  5
7DE1B343D9E34DC
330
7DE1B343D9E3547
100
AcDbEntity
  8
TEXT
100
AcDbPolyline
 90
        2
 70
     0
 43
0.0
 10
5.159789718117622
 20
2.191706796010412
 42
-0.4142135623731017
 10
5.167343507283735
 20
2.184153006844302
 42
-0.9999999999999998
  0
LINE
  5
7DE1B343D9E34E0
330
7DE1B343D9E3547
100
AcDbEntity
  8
TEXT
100
AcDbLine
 10
5.365599718895307
 20
2.191706796010412
 30
0.0
 11
5.365599718895307
 21
2.116654389936206
 31
0.0
  0
LINE
  5
7DE1B343D9E34E1
330
7DE1B343D9E3547
100
AcDbEntity
  8
TEXT
100
AcDbLine
 10
5.234401554065577
 20
2.191706796010412
 30
0.0
 11
5.288535150986527
 21
2.191706796010412
 31
0.0
  0
LINE
  5
7DE1B343D9E34E2
330
7DE1B343D9E3547
100
AcDbEntity
  8
TEXT
100
AcDbLine
 10
5.234401554065577
 20
1.989510457678667
 30
0.0
 11
5.234401554065577
 21
2.191706796010412
 31
0.0
  0
LWPOLYLINE
  5
7DE1B343D9E34E3
330
7DE1B343D9E3547
100
AcDbEntity
  8
TEXT
100
AcDbPolyline
 90
        2
 70
     0
 43
0.0
 10
5.288535150986525
 20
2.191706796010412
 42
-0.4142135623731017
 10
5.296088940152639
 20
2.184153006844302
 42
-0.9999999999999998
  0
LWPOLYLINE
  5
7DE1B343D9E34E7
330
7DE1B343D9E3547
100
AcDbEntity
  8
TEXT
100
AcDbPolyline
 90
        4
 70
     0
 43
0.0
 10
5.296088940152639
 20
2.184153006844302
 10
5.296088940152639
 20
1.989510457678667
 10
5.364567223440497
 20
1.989510457678667
 10
5.364567223440497
 20
2.033001402629105
 42
-1.714843617202739
  0
LINE
  5
7DE1B343D9E34ED
330
7DE1B343D9E3547
100
AcDbEntity
  8
TEXT
100
AcDbLine
 10
4.724703055757395
 20
2.255983490667178
 30
0.0
 11
4.724703055757395
 21
2.290371408261316
 31
0.0
  0
LINE
  5
7DE1B343D9E34EE
330
7DE1B343D9E3547
100
AcDbEntity
  8
TEXT
100
AcDbLine
 10
4.796502021901302
 20
2.255983490667178
 30
0.0
 11
4.724703055757395
 21
2.255983490667178
 31
0.0
  0
LINE
  5
7DE1B343D9E34EF
330
7DE1B343D9E3547
100
AcDbEntity
  8
TEXT
100
AcDbLine
 10
4.944002818532482
 20
2.255983490667178
 30
0.0
 11
4.913880905739105
 21
2.255983490667178
 31
0.0
  0
LINE
  5
7DE1B343D9E34F0
330
7DE1B343D9E3547
100
AcDbEntity
  8
TEXT
100
AcDbLine
 10
4.944002818532482
 20
2.323994968405988
 30
0.0
 11
4.944002818532482
 21
2.255983490667178
 31
0.0
  0
LINE
  5
7DE1B343D9E34F1
330
7DE1B343D9E3547
100
AcDbEntity
  8
TEXT
100
AcDbLine
 10
5.010811531098847
 20
2.323994968405988
 30
0.0
 11
4.944002818532482
 21
2.323994968405988
 31
0.0
  0
LWPOLYLINE
  5
7DE1B343D9E34F2
330
7DE1B343D9E3547
100
AcDbEntity
  8
TEXT
100
AcDbPolyline
 90
        3
 70
     0
 43
0.0
 10
5.331223290696849
 20
2.255983490667181
 10
5.212923131880804
 20
2.255983490667181
 10
5.212923131880804
 20
2.228815993906285
 42
-1.960274751411753
  0
LINE
  5
7DE1B343D9E34F7
330
7DE1B343D9E3547
100
AcDbEntity
  8
TEXT
100
AcDbLine
 10
5.177141441167643
 20
2.255983490667178
 30
0.0
 11
5.043123385236507
 21
2.255983490667178
 31
0.0
  0
LWPOLYLINE
  5
7DE1B343D9E34F8
330
7DE1B343D9E3547
100
AcDbEntity
  8
TEXT
100
AcDbPolyline
 90
        2
 70
     0
 43
0.0
 10
5.177141441167643
 20
2.255983490667181
 42
-0.3328679258950098
 10
5.212923131880804
 20
2.228815993906285
 42
6.772930709997214
  0
LINE
  5
7DE1B343D9E34FC
330
7DE1B343D9E3547
100
AcDbEntity
  8
TEXT
100
AcDbLine
 10
5.367004981410016
 20
2.255983490667178
 30
0.0
 11
5.367004981410016
 21
2.227660944897534
 31
0.0
  0
LWPOLYLINE
  5
7DE1B343D9E34FD
330
7DE1B343D9E3547
100
AcDbEntity
  8
TEXT
100
AcDbPolyline
 90
        2
 70
     0
 43
0.0
 10
5.331223290696849
 20
2.255983490667181
 42
-0.3277054968067132
 10
5.367004981410014
 20
2.227660944897537
 42
6.667889725900311
  0
LINE
  5
7DE1B343D9E3501
330
7DE1B343D9E3547
100
AcDbEntity
  8
TEXT
100
AcDbLine
 10
5.580796829502116
 20
2.15077151211375
 30
0.0
 11
5.537046058320214
 21
2.233021788109895
 31
0.0
  0
LINE
  5
7DE1B343D9E3502
330
7DE1B343D9E3547
100
AcDbEntity
  8
TEXT
100
AcDbLine
 10
5.580796829502116
 20
2.255983490667178
 30
0.0
 11
5.580796829502116
 21
2.15077151211375
 31
0.0
  0
LINE
  5
7DE1B343D9E3503
330
7DE1B343D9E3547
100
AcDbEntity
  8
TEXT
100
AcDbLine
 10
5.808480568440485
 20
2.180118164255639
 30
0.0
 11
5.808480568440485
 21
2.321447696434778
 31
0.0
  0
LINE
  5
7DE1B343D9E3504
330
7DE1B343D9E3547
100
AcDbEntity
  8
TEXT
100
AcDbLine
 10
5.855578726996469
 20
2.255983490667178
 30
0.0
 11
5.808480568440485
 21
2.180118164255639
 31
0.0
  0
LINE
  5
7DE1B343D9E3505
330
7DE1B343D9E3547
100
AcDbEntity
  8
TEXT
100
AcDbLine
 10
5.866013443760392
 20
2.146090247726204
 30
0.0
 11
5.930570559726097
 21
2.255983490667178
 31
0.0
  0
LINE
  5
7DE1B343D9E3506
330
7DE1B343D9E3547
100
AcDbEntity
  8
TEXT
100
AcDbLine
 10
5.744645577217712
 20
1.989510457678667
 30
0.0
 11
5.809023761536332
 21
1.989510457678667
 31
0.0
  0
LWPOLYLINE
  5
7DE1B343D9E3507
330
7DE1B343D9E3547
100
AcDbEntity
  8
TEXT
100
AcDbPolyline
 90
        2
 70
     0
 43
0.0
 10
5.584736506807153
 20
2.033001402629105
 42
-0.2901071551932486
 10
5.541660573939509
 20
1.989510457678667
 42
-5.328517124445184
  0
ARC
  5
7DE1B343D9E350B
330
7DE1B343D9E3547
100
AcDbEntity
  8
TEXT
100
AcDbCircle
 10
5.472805992282594
 20
2.163347421010415
 30
0.0
 40
0.028359375
100
AcDbArc
 50
25.78218179591245
 51
90.0
  0
LINE
  5
7DE1B343D9E350C
330
7DE1B343D9E3547
100
AcDbEntity
  8
TEXT
100
AcDbLine
 10
5.508607067586718
 20
2.15443182254828
 30
0.0
 11
5.498342307173153
 21
2.175682362120974
 31
0.0
  0
LINE
  5
7DE1B343D9E350D
330
7DE1B343D9E3547
100
AcDbEntity
  8
TEXT
100
AcDbLine
 10
5.426319077803334
 20
2.15443182254828
 30
0.0
 11
5.508607067586718
 21
2.15443182254828
 31
0.0
  0
LWPOLYLINE
  5
7DE1B343D9E350E
330
7DE1B343D9E3547
100
AcDbEntity
  8
TEXT
100
AcDbPolyline
 90
        4
 70
     1
 43
0.0
 10
5.521538108869616
 20
2.092474435662692
 10
5.432877790209758
 20
2.092474435662692
 42
0.9999999999999998
 10
5.432877790209758
 20
2.050075895158831
 10
5.521538108869616
 20
2.050075895158831
 42
1.0
  0
LWPOLYLINE
  5
7DE1B343D9E3514
330
7DE1B343D9E3547
100
AcDbEntity
  8
TEXT
100
AcDbPolyline
 90
        2
 70
     0
 43
0.0
 10
5.407643156308132
 20
1.989510457678667
 10
5.541660573939509
 20
1.989510457678667
 42
0.9999999999999998
  0
LINE
  5
7DE1B343D9E3518
330
7DE1B343D9E3547
100
AcDbEntity
  8
TEXT
100
AcDbLine
 10
5.667997595925148
 20
2.191706796010412
 30
0.0
 11
5.744645577217706
 21
2.191706796010412
 31
0.0
  0
LINE
  5
7DE1B343D9E3519
330
7DE1B343D9E3547
100
AcDbEntity
  8
TEXT
100
AcDbLine
 10
5.744645577217706
 20
2.191706796010412
 30
0.0
 11
5.744645577217712
 21
1.989510457678667
 31
0.0
  0
ARC
  5
7DE1B343D9E351A
330
7DE1B343D9E3547
100
AcDbEntity
  8
TEXT
100
AcDbCircle
 10
5.667997595925147
 20
2.166800920727749
 30
0.0
 40
0.0249058752826653
100
AcDbArc
 50
89.99971217465335
 51
179.9999999999985
  0
LINE
  5
7DE1B343D9E351B
330
7DE1B343D9E3547
100
AcDbEntity
  8
TEXT
100
AcDbLine
 10
5.643091720642489
 20
1.989510457678667
 30
0.0
 11
5.643091720642484
 21
2.166800963110135
 31
0.0
  0
LWPOLYLINE
  5
7DE1B343D9E351C
330
7DE1B343D9E3547
100
AcDbEntity
  8
TEXT
100
AcDbPolyline
 90
        2
 70
     0
 43
0.0
 10
5.584736506807153
 20
1.989510457678667
 10
5.643091720642487
 20
1.989510457678667
  0
LWPOLYLINE
  5
7DE1B343D9E3520
330
7DE1B343D9E3547
100
AcDbEntity
  8
TEXT
100
AcDbPolyline
 90
        2
 70
     0
 43
0.0
 10
5.584736506807153
 20
2.033001402629105
 10
5.584736506807153
 20
1.989510457678667
  0
LINE
  5
7DE1B343D9E3524
330
7DE1B343D9E3547
100
AcDbEntity
  8
TEXT
100
AcDbLine
 10
5.961505667124002
 20
1.989510457678667
 30
0.0
 11
5.866013443760392
 21
2.146090247726204
 31
0.0
  0
LINE
  5
7DE1B343D9E3525
330
7DE1B343D9E3547
100
AcDbEntity
  8
TEXT
100
AcDbLine
 10
5.884927294747797
 20
1.989510457678667
 30
0.0
 11
5.961505667124002
 21
1.989510457678667
 31
0.0
  0
LINE
  5
7DE1B343D9E3526
330
7DE1B343D9E3547
100
AcDbEntity
  8
TEXT
100
AcDbLine
 10
5.809023761536332
 20
2.121090026154847
 30
0.0
 11
5.884927294747797
 21
1.989510457678667
 31
0.0
  0
LINE
  5
7DE1B343D9E3527
330
7DE1B343D9E3547
100
AcDbEntity
  8
TEXT
100
AcDbLine
 10
5.809023761536332
 20
1.989510457678667
 30
0.0
 11
5.809023761536332
 21
2.121090026154847
 31
0.0
  0
LINE
  5
7DE1B343D9E3528
330
7DE1B343D9E3547
100
AcDbEntity
  8
TEXT
100
AcDbLine
 10
5.808480568440485
 20
2.321447696434778
 30
0.0
 11
5.740165689891211
 21
2.321447696434778
 31
0.0
  0
ARC
  5
7DE1B343D9E3529
330
7DE1B343D9E3547
100
AcDbEntity
  8
TEXT
100
AcDbCircle
 10
5.499809950850005
 20
2.214399923546275
 30
0.0
 40
0.0416329381542859
100
AcDbArc
 50
26.56974201007528
 51
87.20939649401342
  0
LINE
  5
7DE1B343D9E352A
330
7DE1B343D9E3547
100
AcDbEntity
  8
TEXT
100
AcDbLine
 10
5.644693735801617
 20
2.255983490667178
 30
0.0
 11
5.580796829502116
 21
2.255983490667178
 31
0.0
  0
LINE
  5
7DE1B343D9E352B
330
7DE1B343D9E3547
100
AcDbEntity
  8
TEXT
100
AcDbLine
 10
5.644693735801617
 20
2.228435840806303
 30
0.0
 11
5.644693735801617
 21
2.255983490667178
 31
0.0
  0
ARC
  5
7DE1B343D9E352C
330
7DE1B343D9E3547
100
AcDbEntity
  8
TEXT
100
AcDbCircle
 10
5.675886552864724
 20
2.224737763384913
 30
0.0
 40
0.0314112657011332
100
AcDbArc
 50
95.88484768694724
 51
173.2388340632136
  0
LINE
  5
7DE1B343D9E352D
330
7DE1B343D9E3547
100
AcDbEntity
  8
TEXT
100
AcDbLine
 10
5.740165689891206
 20
2.255983490667178
 30
0.0
 11
5.67266597224169
 21
2.255983490667178
 31
0.0
  0
LINE
  5
7DE1B343D9E352E
330
7DE1B343D9E3547
100
AcDbEntity
  8
TEXT
100
AcDbLine
 10
5.740165689891211
 20
2.321447696434778
 30
0.0
 11
5.740165689891206
 21
2.255983490667178
 31
0.0
  0
LINE
  5
7DE1B343D9E352F
330
7DE1B343D9E3547
100
AcDbEntity
  8
TEXT
100
AcDbLine
 10
5.930570559726097
 20
2.255983490667178
 30
0.0
 11
5.855578726996471
 21
2.255983490667178
 31
0.0
  0
ENDSEC
  0
SECTION
  2
OBJECTS
  0
DICTIONARY
  5
7DE1B343D9E353B
330
0
100
AcDbDictionary
  3
ACAD_GROUP
350
7DE1B343D9E353C
  3
ACAD_LAYOUT
350
7DE1B343D9E3561
  3
ACAD_MLINESTYLE
350
7DE1B343D9E353D
  3
ACAD_PLOTSETTINGS
350
7DE1B343D9E3562
  3
ACAD_PLOTSTYLENAME
350
7DE1B343D9E355F
  3
ACDBHEADERROUNDTRIPXREC
350
7DE1B343D9E356C
  3
ACDBVARIABLEDICTIONARY
350
7DE1B343D9E3569
  0
DICTIONARY
  5
7DE1B343D9E358E
330
7DE1B343D9E3547
100
AcDbDictionary
280
     1
  3
ACAD_LAYOUTSELFREF
360
7DE1B343D9E358F
  0
DICTIONARY
  5
7DE1B343D9E358C
330
7DE1B343D9E3544
100
AcDbDictionary
280
     1
  3
ACAD_LAYOUTSELFREF
360
7DE1B343D9E358D
  0
DICTIONARY
  5
7DE1B343D9E353C
102
{ACAD_REACTORS
330
7DE1B343D9E353B
102
}
330
7DE1B343D9E353B
100
AcDbDictionary
  0
DICTIONARY
  5
7DE1B343D9E3561
102
{ACAD_REACTORS
330
7DE1B343D9E353B
102
}
330
7DE1B343D9E353B
100
AcDbDictionary
  0
DICTIONARY
  5
7DE1B343D9E353D
102
{ACAD_REACTORS
330
7DE1B343D9E353B
102
}
330
7DE1B343D9E353B
100
AcDbDictionary
  3
STANDARD
350
7DE1B343D9E354A
  0
DICTIONARY
  5
7DE1B343D9E3562
102
{ACAD_REACTORS
330
7DE1B343D9E353B
102
}
330
7DE1B343D9E353B
100
AcDbDictionary
  0
ACDBDICTIONARYWDFLT
  5
7DE1B343D9E355F
102
{ACAD_REACTORS
330
7DE1B343D9E353B
102
}
330
7DE1B343D9E353B
100
AcDbDictionary
281
     1
  3
Normal
350
7DE1B343D9E3560
100
AcDbDictionaryWithDefault
340
7DE1B343D9E3560
  0
DICTIONARY
  5
7DE1B343D9E356C
102
{ACAD_REACTORS
330
7DE1B343D9E353B
102
}
330
7DE1B343D9E353B
100
AcDbDictionary
  3
CEPSNTYPE
350
7DE1B343D9E3576
  3
FINGERPRINTGUID
350
7DE1B343D9E3577
  3
HYPERLINKBASE
350
7DE1B343D9E356F
  3
INSUNITS
350
7DE1B343D9E3575
  3
LAYOUTDICT
350
7DE1B343D9E3571
  3
LWETCUNION
350
7DE1B343D9E3574
  3
PLOTSETDICT
350
7DE1B343D9E3572
  3
PLOTSTYLNAMDICT
350
7DE1B343D9E3573
  3
PSVPSCALE
350
7DE1B343D9E3579
  3
PUCSBASE
350
7DE1B343D9E357C
  3
PUCSORGBACK
350
7DE1B343D9E3582
  3
PUCSORGBOTTOM
350
7DE1B343D9E357E
  3
PUCSORGFRONT
350
7DE1B343D9E3581
  3
PUCSORGLEFT
350
7DE1B343D9E357F
  3
PUCSORGRIGHT
350
7DE1B343D9E3580
  3
PUCSORGTOP
350
7DE1B343D9E357D
  3
PUCSORTHOREF
350
7DE1B343D9E357A
  3
PUCSORTHOVIEW
350
7DE1B343D9E357B
  3
STYLESHEET
350
7DE1B343D9E3570
  3
TSTACKALIGN
350
7DE1B343D9E356D
  3
TSTACKSIZE
350
7DE1B343D9E356E
  3
UCSBASE
350
7DE1B343D9E3585
  3
UCSORGBACK
350
7DE1B343D9E358B
  3
UCSORGBOTTOM
350
7DE1B343D9E3587
  3
UCSORGFRONT
350
7DE1B343D9E358A
  3
UCSORGLEFT
350
7DE1B343D9E3588
  3
UCSORGRIGHT
350
7DE1B343D9E3589
  3
UCSORGTOP
350
7DE1B343D9E3586
  3
UCSORTHOREF
350
7DE1B343D9E3583
  3
UCSORTHOVIEW
350
7DE1B343D9E3584
  3
VERSIONGUID
350
7DE1B343D9E3578
  0
DICTIONARY
  5
7DE1B343D9E3569
102
{ACAD_REACTORS
330
7DE1B343D9E353B
102
}
330
7DE1B343D9E353B
100
AcDbDictionary
  3
DIMASSOC
350
7DE1B343D9E356A
  0
XRECORD
  5
7DE1B343D9E358F
102
{ACAD_REACTORS
330
7DE1B343D9E358E
102
}
330
7DE1B343D9E358E
100
AcDbXrecord
340
7DE1B343D9E3547
  0
XRECORD
  5
7DE1B343D9E358D
102
{ACAD_REACTORS
330
7DE1B343D9E358C
102
}
330
7DE1B343D9E358C
100
AcDbXrecord
340
7DE1B343D9E3544
  0
MLINESTYLE
  5
7DE1B343D9E354A
102
{ACAD_REACTORS
330
7DE1B343D9E353D
102
}
330
7DE1B343D9E353D
100
AcDbMlineStyle
  2
STANDARD
 70
     0
  3

 62
     0
 51
90.0
 52
90.0
 71
     2
 49
0.5
 62
   256
  6
BYLAYER
 49
-0.5
 62
   256
  6
BYLAYER
  0
ACDBPLACEHOLDER
  5
7DE1B343D9E3560
102
{ACAD_REACTORS
330
7DE1B343D9E355F
102
}
330
7DE1B343D9E355F
100
AcDbPlaceHolder
280
     0
  0
XRECORD
  5
7DE1B343D9E3576
102
{ACAD_REACTORS
330
7DE1B343D9E356C
102
}
330
7DE1B343D9E356C
100
AcDbXrecord
 90
        0
  0
XRECORD
  5
7DE1B343D9E3577
102
{ACAD_REACTORS
330
7DE1B343D9E356C
102
}
330
7DE1B343D9E356C
100
AcDbXrecord
  1
{22E4A800-8DB7-11D6-88E6-0090279574E7}
  0
XRECORD
  5
7DE1B343D9E356F
102
{ACAD_REACTORS
330
7DE1B343D9E356C
102
}
330
7DE1B343D9E356C
100
AcDbXrecord
  1

  0
XRECORD
  5
7DE1B343D9E3575
102
{ACAD_REACTORS
330
7DE1B343D9E356C
102
}
330
7DE1B343D9E356C
100
AcDbXrecord
 90
        0
  0
XRECORD
  5
7DE1B343D9E3571
102
{ACAD_REACTORS
330
7DE1B343D9E356C
102
}
330
7DE1B343D9E356C
100
AcDbXrecord
340
7DE1B343D9E3561
  0
XRECORD
  5
7DE1B343D9E3574
102
{ACAD_REACTORS
330
7DE1B343D9E356C
102
}
330
7DE1B343D9E356C
100
AcDbXrecord
 90
    14877
  0
XRECORD
  5
7DE1B343D9E3572
102
{ACAD_REACTORS
330
7DE1B343D9E356C
102
}
330
7DE1B343D9E356C
100
AcDbXrecord
340
7DE1B343D9E3562
  0
XRECORD
  5
7DE1B343D9E3573
102
{ACAD_REACTORS
330
7DE1B343D9E356C
102
}
330
7DE1B343D9E356C
100
AcDbXrecord
340
7DE1B343D9E355F
  0
XRECORD
  5
7DE1B343D9E3579
102
{ACAD_REACTORS
330
7DE1B343D9E356C
102
}
330
7DE1B343D9E356C
100
AcDbXrecord
 40
0.0
  0
XRECORD
  5
7DE1B343D9E357C
102
{ACAD_REACTORS
330
7DE1B343D9E356C
102
}
330
7DE1B343D9E356C
100
AcDbXrecord
340
0
  0
XRECORD
  5
7DE1B343D9E3582
102
{ACAD_REACTORS
330
7DE1B343D9E356C
102
}
330
7DE1B343D9E356C
100
AcDbXrecord
 10
0.0
 20
0.0
 30
0.0
  0
XRECORD
  5
7DE1B343D9E357E
102
{ACAD_REACTORS
330
7DE1B343D9E356C
102
}
330
7DE1B343D9E356C
100
AcDbXrecord
 10
0.0
 20
0.0
 30
0.0
  0
XRECORD
  5
7DE1B343D9E3581
102
{ACAD_REACTORS
330
7DE1B343D9E356C
102
}
330
7DE1B343D9E356C
100
AcDbXrecord
 10
0.0
 20
0.0
 30
0.0
  0
XRECORD
  5
7DE1B343D9E357F
102
{ACAD_REACTORS
330
7DE1B343D9E356C
102
}
330
7DE1B343D9E356C
100
AcDbXrecord
 10
0.0
 20
0.0
 30
0.0
  0
XRECORD
  5
7DE1B343D9E3580
102
{ACAD_REACTORS
330
7DE1B343D9E356C
102
}
330
7DE1B343D9E356C
100
AcDbXrecord
 10
0.0
 20
0.0
 30
0.0
  0
XRECORD
  5
7DE1B343D9E357D
102
{ACAD_REACTORS
330
7DE1B343D9E356C
102
}
330
7DE1B343D9E356C
100
AcDbXrecord
 10
0.0
 20
0.0
 30
0.0
  0
XRECORD
  5
7DE1B343D9E357A
102
{ACAD_REACTORS
330
7DE1B343D9E356C
102
}
330
7DE1B343D9E356C
100
AcDbXrecord
340
0
  0
XRECORD
  5
7DE1B343D9E357B
102
{ACAD_REACTORS
330
7DE1B343D9E356C
102
}
330
7DE1B343D9E356C
100
AcDbXrecord
 70
     0
  0
XRECORD
  5
7DE1B343D9E3570
102
{ACAD_REACTORS
330
7DE1B343D9E356C
102
}
330
7DE1B343D9E356C
100
AcDbXrecord
  1

  0
XRECORD
  5
7DE1B343D9E356D
102
{ACAD_REACTORS
330
7DE1B343D9E356C
102
}
330
7DE1B343D9E356C
100
AcDbXrecord
 90
        1
  0
XRECORD
  5
7DE1B343D9E356E
102
{ACAD_REACTORS
330
7DE1B343D9E356C
102
}
330
7DE1B343D9E356C
100
AcDbXrecord
 90
       70
  0
XRECORD
  5
7DE1B343D9E3585
102
{ACAD_REACTORS
330
7DE1B343D9E356C
102
}
330
7DE1B343D9E356C
100
AcDbXrecord
340
0
  0
XRECORD
  5
7DE1B343D9E358B
102
{ACAD_REACTORS
330
7DE1B343D9E356C
102
}
330
7DE1B343D9E356C
100
AcDbXrecord
 10
0.0
 20
0.0
 30
0.0
  0
XRECORD
  5
7DE1B343D9E3587
102
{ACAD_REACTORS
330
7DE1B343D9E356C
102
}
330
7DE1B343D9E356C
100
AcDbXrecord
 10
0.0
 20
0.0
 30
0.0
  0
XRECORD
  5
7DE1B343D9E358A
102
{ACAD_REACTORS
330
7DE1B343D9E356C
102
}
330
7DE1B343D9E356C
100
AcDbXrecord
 10
0.0
 20
0.0
 30
0.0
  0
XRECORD
  5
7DE1B343D9E3588
102
{ACAD_REACTORS
330
7DE1B343D9E356C
102
}
330
7DE1B343D9E356C
100
AcDbXrecord
 10
0.0
 20
0.0
 30
0.0
  0
XRECORD
  5
7DE1B343D9E3589
102
{ACAD_REACTORS
330
7DE1B343D9E356C
102
}
330
7DE1B343D9E356C
100
AcDbXrecord
 10
0.0
 20
0.0
 30
0.0
  0
XRECORD
  5
7DE1B343D9E3586
102
{ACAD_REACTORS
330
7DE1B343D9E356C
102
}
330
7DE1B343D9E356C
100
AcDbXrecord
 10
0.0
 20
0.0
 30
0.0
  0
XRECORD
  5
7DE1B343D9E3583
102
{ACAD_REACTORS
330
7DE1B343D9E356C
102
}
330
7DE1B343D9E356C
100
AcDbXrecord
340
0
  0
XRECORD
  5
7DE1B343D9E3584
102
{ACAD_REACTORS
330
7DE1B343D9E356C
102
}
330
7DE1B343D9E356C
100
AcDbXrecord
 70
     0
  0
XRECORD
  5
7DE1B343D9E3578
102
{ACAD_REACTORS
330
7DE1B343D9E356C
102
}
330
7DE1B343D9E356C
100
AcDbXrecord
  1
{22E4A802-8DB7-11D6-88E6-0090279574E7}
  0
DICTIONARYVAR
  5
7DE1B343D9E356A
102
{ACAD_REACTORS
330
7DE1B343D9E3569
102
}
330
7DE1B343D9E3569
100
DictionaryVariables
280
     0
  1
1
  0
ENDSEC
  0
EOF
