  0
SECTION
  2
HEADER
  9
$ACADVER
  1
AC1014
  9
$ACADMAINTVER
 70
     9
  9
$DWGCODEPAGE
  3
ANSI_1252
  9
$INSBASE
 10
1.818999999999999
 20
1.069484514626054
 30
0.0
  9
$EXTMIN
 10
0.0760184207728567
 20
-0.7680170140258742
 30
0.0
  9
$EXTMAX
 10
3.561237742519984
 20
2.254484514626073
 30
0.0
  9
$LIMMIN
 10
0.0
 20
0.0
  9
$LIMMAX
 10
18.0
 20
12.0
  9
$ORTHOMODE
 70
     1
  9
$REGENMODE
 70
     1
  9
$FILLMODE
 70
     1
  9
$QTEXTMODE
 70
     0
  9
$MIRRTEXT
 70
     0
  9
$DRAGMODE
 70
     2
  9
$LTSCALE
 40
1.0
  9
$OSMODE
 70
    39
  9
$ATTMODE
 70
     1
  9
$TEXTSIZE
 40
0.125
  9
$TRACEWID
 40
0.05
  9
$TEXTSTYLE
  7
ROMANS
  9
$CLAYER
  8
0
  9
$CELTYPE
  6
BYLAYER
  9
$CECOLOR
 62
   256
  9
$CELTSCALE
 40
1.0
  9
$DELOBJ
 70
     1
  9
$DISPSILH
 70
     1
  9
$DIMSCALE
 40
1.0
  9
$DIMASZ
 40
0.125
  9
$DIMEXO
 40
0.125
  9
$DIMDLI
 40
0.375
  9
$DIMRND
 40
0.0
  9
$DIMDLE
 40
0.0
  9
$DIMEXE
 40
0.125
  9
$DIMTP
 40
0.0
  9
$DIMTM
 40
0.0
  9
$DIMTXT
 40
0.125
  9
$DIMCEN
 40
-0.125
  9
$DIMTSZ
 40
0.0
  9
$DIMTOL
 70
     0
  9
$DIMLIM
 70
     0
  9
$DIMTIH
 70
     1
  9
$DIMTOH
 70
     1
  9
$DIMSE1
 70
     0
  9
$DIMSE2
 70
     0
  9
$DIMTAD
 70
     0
  9
$DIMZIN
 70
     4
  9
$DIMBLK
  1

  9
$DIMASO
 70
     1
  9
$DIMSHO
 70
     1
  9
$DIMPOST
  1

  9
$DIMAPOST
  1

  9
$DIMALT
 70
     0
  9
$DIMALTD
 70
     2
  9
$DIMALTF
 40
25.4
  9
$DIMLFAC
 40
1.0
  9
$DIMTOFL
 70
     0
  9
$DIMTVP
 40
0.0
  9
$DIMTIX
 70
     1
  9
$DIMSOXD
 70
     0
  9
$DIMSAH
 70
     0
  9
$DIMBLK1
  1

  9
$DIMBLK2
  1

  9
$DIMSTYLE
  2
STANDARD
  9
$DIMCLRD
 70
     0
  9
$DIMCLRE
 70
     0
  9
$DIMCLRT
 70
     0
  9
$DIMTFAC
 40
1.0
  9
$DIMGAP
 40
0.09
  9
$DIMJUST
 70
     0
  9
$DIMSD1
 70
     0
  9
$DIMSD2
 70
     0
  9
$DIMTOLJ
 70
     1
  9
$DIMTZIN
 70
     4
  9
$DIMALTZ
 70
     0
  9
$DIMALTTZ
 70
     0
  9
$DIMFIT
 70
     3
  9
$DIMUPT
 70
     0
  9
$DIMUNIT
 70
     2
  9
$DIMDEC
 70
     3
  9
$DIMTDEC
 70
     3
  9
$DIMALTU
 70
     2
  9
$DIMALTTD
 70
     2
  9
$DIMTXSTY
  7
ROMANS
  9
$DIMAUNIT
 70
     0
  9
$LUNITS
 70
     2
  9
$LUPREC
 70
     3
  9
$SKETCHINC
 40
0.1
  9
$FILLETRAD
 40
0.03125
  9
$AUNITS
 70
     0
  9
$AUPREC
 70
     0
  9
$MENU
  1
ACAD
  9
$ELEVATION
 40
0.0
  9
$PELEVATION
 40
0.0
  9
$THICKNESS
 40
0.0
  9
$LIMCHECK
 70
     0
  9
$BLIPMODE
 70
     0
  9
$CHAMFERA
 40
0.0
  9
$CHAMFERB
 40
0.0
  9
$CHAMFERC
 40
0.0
  9
$CHAMFERD
 40
0.0
  9
$SKPOLY
 70
     0
  9
$TDCREATE
 40
2448994.645354166
  9
$TDUPDATE
 40
2452458.311005046
  9
$TDINDWG
 40
0.0008063079
  9
$TDUSRTIMER
 40
0.0008063079
  9
$USRTIMER
 70
     1
  9
$ANGBASE
 50
0.0
  9
$ANGDIR
 70
     0
  9
$PDMODE
 70
     0
  9
$PDSIZE
 40
0.0
  9
$PLINEWID
 40
0.0
  9
$COORDS
 70
     2
  9
$SPLFRAME
 70
     0
  9
$SPLINETYPE
 70
     6
  9
$SPLINESEGS
 70
     8
  9
$ATTDIA
 70
     0
  9
$ATTREQ
 70
     1
  9
$HANDLING
 70
 22529
  9
$HANDSEED
  5
7DE1B343D9E440E
  9
$SURFTAB1
 70
     6
  9
$SURFTAB2
 70
     6
  9
$SURFTYPE
 70
     6
  9
$SURFU
 70
     6
  9
$SURFV
 70
     6
  9
$UCSNAME
  2

  9
$UCSORG
 10
0.0
 20
0.0
 30
0.0
  9
$UCSXDIR
 10
1.0
 20
0.0
 30
0.0
  9
$UCSYDIR
 10
0.0
 20
1.0
 30
0.0
  9
$PUCSNAME
  2

  9
$PUCSORG
 10
0.0
 20
0.0
 30
0.0
  9
$PUCSXDIR
 10
1.0
 20
0.0
 30
0.0
  9
$PUCSYDIR
 10
0.0
 20
1.0
 30
0.0
  9
$USERI1
 70
     0
  9
$USERI2
 70
     0
  9
$USERI3
 70
     0
  9
$USERI4
 70
     0
  9
$USERI5
 70
     0
  9
$USERR1
 40
0.0
  9
$USERR2
 40
0.0
  9
$USERR3
 40
0.0
  9
$USERR4
 40
0.0
  9
$USERR5
 40
0.0
  9
$WORLDVIEW
 70
     1
  9
$SHADEDGE
 70
     3
  9
$SHADEDIF
 70
    70
  9
$TILEMODE
 70
     1
  9
$MAXACTVP
 70
    16
  9
$PINSBASE
 10
1.526408818355076
 20
50.00000000000001
 30
1.92987805908523
  9
$PLIMCHECK
 70
     0
  9
$PEXTMIN
 10
1.000000000000000E+20
 20
1.000000000000000E+20
 30
1.000000000000000E+20
  9
$PEXTMAX
 10
-1.000000000000000E+20
 20
-1.000000000000000E+20
 30
-1.000000000000000E+20
  9
$PLIMMIN
 10
0.0
 20
0.0
  9
$PLIMMAX
 10
12.0
 20
9.0
  9
$UNITMODE
 70
     0
  9
$VISRETAIN
 70
     0
  9
$PLINEGEN
 70
     1
  9
$PSLTSCALE
 70
     0
  9
$TREEDEPTH
 70
  3020
  9
$PICKSTYLE
 70
     1
  9
$CMLSTYLE
  2
STANDARD
  9
$CMLJUST
 70
     0
  9
$CMLSCALE
 40
1.0
  9
$PROXYGRAPHICS
 70
     1
  9
$MEASUREMENT
 70
     0
  0
ENDSEC
  0
SECTION
  2
CLASSES
  0
CLASS
  1
LWPOLYLINE
  2
AcDbPolyline
  3
AutoCAD 2000
 90
        0
280
     0
281
     1
  0
CLASS
  1
ACDBDICTIONARYWDFLT
  2
AcDbDictionaryWithDefault
  3
AutoCAD 2000
 90
        0
280
     0
281
     0
  0
CLASS
  1
ACDBPLACEHOLDER
  2
AcDbPlaceHolder
  3
AutoCAD 2000
 90
        0
280
     0
281
     0
  0
CLASS
  1
LAYOUT
  2
AcDbLayout
  3
AutoCAD 2000
 90
        0
280
     0
281
     0
  0
CLASS
  1
DICTIONARYVAR
  2
AcDbDictionaryVar
  3
AutoCAD 2000
 90
        0
280
     0
281
     0
  0
CLASS
  1
LONG_TRANSACTION
  2
AcDbLongTransaction
  3
AutoCAD 2000
 90
        0
280
     0
281
     0
  0
CLASS
  1
LWPOLYLINE
  2
AcDbPolyline
  3
AutoCAD 2000
 90
        0
280
     0
281
     1
  0
CLASS
  1
HATCH
  2
AcDbHatch
  3
AutoCAD 2000
 90
        0
280
     0
281
     1
  0
CLASS
  1
XRECORD
  2
AcDbXrecord
  3
AutoCAD 2000
 90
        0
280
     0
281
     0
  0
ENDSEC
  0
SECTION
  2
TABLES
  0
TABLE
  2
VPORT
  5
7DE1B343D9E43B5
330
0
100
AcDbSymbolTable
 70
     2
  0
VPORT
  5
7DE1B343D9E43E9
330
7DE1B343D9E43B5
100
AcDbSymbolTableRecord
100
AcDbViewportTableRecord
  2
*ACTIVE
 70
     0
 10
0.0
 20
0.0
 11
1.0
 21
1.0
 12
6.269275577679522
 22
0.743431313173076
 13
0.0
 23
0.0
 14
0.015625
 24
0.015625
 15
0.0
 25
0.0
 16
0.0
 26
0.0
 36
1.0
 17
0.0
 27
0.0
 37
0.0
 40
3.413537846956305
 41
4.320930232558139
 42
50.0
 43
0.0
 44
0.0
 50
0.0
 51
0.0
 71
     0
 72
  2000
 73
     1
 74
     0
 75
     0
 76
     0
 77
     0
 78
     0
  0
ENDTAB
  0
TABLE
  2
LTYPE
  5
7DE1B343D9E43B2
330
0
100
AcDbSymbolTable
 70
     1
  0
LTYPE
  5
7DE1B343D9E43BF
330
7DE1B343D9E43B2
100
AcDbSymbolTableRecord
100
AcDbLinetypeTableRecord
  2
BYBLOCK
 70
     0
  3

 72
    65
 73
     0
 40
0.0
  0
LTYPE
  5
7DE1B343D9E43C0
330
7DE1B343D9E43B2
100
AcDbSymbolTableRecord
100
AcDbLinetypeTableRecord
  2
BYLAYER
 70
     0
  3

 72
    65
 73
     0
 40
0.0
  0
LTYPE
  5
7DE1B343D9E43C1
330
7DE1B343D9E43B2
100
AcDbSymbolTableRecord
100
AcDbLinetypeTableRecord
  2
CONTINUOUS
 70
     0
  3
Solid line
 72
    65
 73
     0
 40
0.0
  0
ENDTAB
  0
TABLE
  2
LAYER
  5
7DE1B343D9E43AF
330
0
100
AcDbSymbolTable
 70
     2
  0
LAYER
  5
7DE1B343D9E43BC
330
7DE1B343D9E43AF
100
AcDbSymbolTableRecord
100
AcDbLayerTableRecord
  2
0
 70
     0
 62
     7
  6
CONTINUOUS
  0
LAYER
  5
7DE1B343D9E43CC
330
7DE1B343D9E43AF
100
AcDbSymbolTableRecord
100
AcDbLayerTableRecord
  2
TEXT
 70
     0
 62
     3
  6
CONTINUOUS
  0
ENDTAB
  0
TABLE
  2
STYLE
  5
7DE1B343D9E43B0
330
0
100
AcDbSymbolTable
 70
     3
  0
STYLE
  5
7DE1B343D9E43BD
330
7DE1B343D9E43B0
100
AcDbSymbolTableRecord
100
AcDbTextStyleTableRecord
  2
STANDARD
 70
     0
 40
0.0
 41
1.0
 50
0.0
 71
     0
 42
0.3125
  3
txt
  4

  0
STYLE
  5
7DE1B343D9E43C9
330
7DE1B343D9E43B0
100
AcDbSymbolTableRecord
100
AcDbTextStyleTableRecord
  2
ITALICC
 70
     0
 40
0.0
 41
1.0
 50
0.0
 71
     0
 42
0.125
  3
italicc
  4

  0
STYLE
  5
7DE1B343D9E43D9
330
7DE1B343D9E43B0
100
AcDbSymbolTableRecord
100
AcDbTextStyleTableRecord
  2
ROMANS
 70
     0
 40
0.0
 41
1.0
 50
0.0
 71
     0
 42
0.125
  3
romans.shx
  4

  0
ENDTAB
  0
TABLE
  2
VIEW
  5
7DE1B343D9E43B3
330
0
100
AcDbSymbolTable
 70
     0
  0
ENDTAB
  0
TABLE
  2
UCS
  5
7DE1B343D9E43B4
330
0
100
AcDbSymbolTable
 70
     0
  0
ENDTAB
  0
TABLE
  2
APPID
  5
7DE1B343D9E43B6
330
0
100
AcDbSymbolTable
 70
     1
  0
APPID
  5
7DE1B343D9E43BE
330
7DE1B343D9E43B6
100
AcDbSymbolTableRecord
100
AcDbRegAppTableRecord
  2
ACAD
 70
     0
  0
ENDTAB
  0
TABLE
  2
DIMSTYLE
  5
7DE1B343D9E43B7
330
0
100
AcDbSymbolTable
 70
     1
  0
DIMSTYLE
105
7DE1B343D9E43D1
330
7DE1B343D9E43B7
100
AcDbSymbolTableRecord
100
AcDbDimStyleTableRecord
  2
STANDARD
 70
     0
  3

  4

  5

  6

  7

 40
1.0
 41
0.125
 42
0.125
 43
0.375
 44
0.125
 45
0.0
 46
0.0
 47
0.0
 48
0.0
140
0.125
141
-0.125
142
0.0
143
25.4
144
1.0
145
0.0
146
1.0
147
0.09
 71
     0
 72
     0
 73
     1
 74
     1
 75
     0
 76
     0
 77
     0
 78
     4
170
     0
171
     2
172
     0
173
     0
174
     1
175
     0
176
     0
177
     0
178
     0
270
     2
271
     3
272
     3
273
     2
274
     2
340
7DE1B343D9E43D9
275
     0
280
     0
281
     0
282
     0
283
     1
284
     4
285
     0
286
     0
287
     3
288
     0
  0
ENDTAB
  0
TABLE
  2
BLOCK_RECORD
  5
7DE1B343D9E43AE
330
0
100
AcDbSymbolTable
 70
     0
  0
BLOCK_RECORD
  5
7DE1B343D9E43C5
102
{ACAD_XDICTIONARY
360
7DE1B343D9E440C
102
}
330
7DE1B343D9E43AE
100
AcDbSymbolTableRecord
100
AcDbBlockTableRecord
  2
*MODEL_SPACE
  0
BLOCK_RECORD
  5
7DE1B343D9E43C2
102
{ACAD_XDICTIONARY
360
7DE1B343D9E440A
102
}
330
7DE1B343D9E43AE
100
AcDbSymbolTableRecord
100
AcDbBlockTableRecord
  2
*PAPER_SPACE
  0
ENDTAB
  0
ENDSEC
  0
SECTION
  2
BLOCKS
  0
BLOCK
  5
7DE1B343D9E43CF
330
7DE1B343D9E43C5
100
AcDbEntity
  8
0
100
AcDbBlockBegin
  2
*MODEL_SPACE
 70
     0
 10
0.0
 20
0.0
 30
0.0
  3
*MODEL_SPACE
  1

  0
ENDBLK
  5
7DE1B343D9E43D0
330
7DE1B343D9E43C5
100
AcDbEntity
  8
0
100
AcDbBlockEnd
  0
BLOCK
  5
7DE1B343D9E43CD
330
7DE1B343D9E43C2
100
AcDbEntity
 67
     1
  8
0
100
AcDbBlockBegin
  2
*PAPER_SPACE
 70
     0
 10
0.0
 20
0.0
 30
0.0
  3
*PAPER_SPACE
  1

  0
ENDBLK
  5
7DE1B343D9E43CE
330
7DE1B343D9E43C2
100
AcDbEntity
 67
     1
  8
0
100
AcDbBlockEnd
  0
ENDSEC
  0
SECTION
  2
ENTITIES
  0
LWPOLYLINE
  5
7DE1B343D9E1D73
330
7DE1B343D9E43C5
100
AcDbEntity
  8
0
100
AcDbPolyline
 90
       26
 70
     0
 43
0.0
 10
1.609019251263752
 20
2.225559086733493
 42
0.0089620918864502
 10
1.609023105961957
 20
-0.0108050959257993
 42
0.9822434891780517
 10
1.680999999999999
 20
-0.009515485373945
 10
1.680999999999999
 20
0.7669845146260438
 10
1.725249999999999
 20
0.7669845146260438
 10
1.725249999999999
 20
0.8269845146260424
 10
1.680999999999999
 20
0.8269845146260442
 10
1.680999999999999
 20
1.069484514626054
 10
1.818999999999999
 20
1.069484514626054
 10
1.957
 20
1.069484514626054
 10
1.957
 20
0.8269845146260442
 10
1.912749999999999
 20
0.8269845146260424
 10
1.912749999999999
 20
0.7669845146260438
 10
1.957
 20
0.7669845146260438
 10
1.957
 20
0.2144845146260543
 10
1.96697020561473
 20
0.2045143090113246
 10
1.957
 20
0.1945441033965949
 10
1.957
 20
-0.009515485373945
 42
1.0
 10
2.029000000000013
 20
-0.0095154853739654
 42
0.0089526160502265
 10
2.029000000000003
 20
2.224484514626071
 42
1.0
 10
1.969000000000001
 20
2.224484514626057
 10
1.968999999999999
 20
1.139484514626055
 10
1.818999999999999
 20
1.139484514626055
 10
1.669000000000001
 20
1.139484514626055
 10
1.668999999999999
 20
2.224484514626057
 42
0.9999999999999998
 10
1.608999999999995
 20
2.224484514626059
  0
TEXT
  5
7DE1B343D9E4270
330
7DE1B343D9E43C5
100
AcDbEntity
  8
TEXT
100
AcDbText
 10
1.066023809523809
 20
-0.3099984099432927
 30
0.0
 40
0.125
  1
PART #110412
  7
ITALICC
 72
     1
 11
1.818999999999999
 21
-0.3099984099432927
 31
0.0
100
AcDbText
  0
TEXT
  5
7DE1B343D9E4271
330
7DE1B343D9E43C5
100
AcDbEntity
  8
TEXT
100
AcDbText
 10
2.23230515825032
 20
-0.7569210526156678
 30
0.0
 40
0.0522247191011236
  1
Phone  1-800-328-2495
 41
1.272321428571429
 72
     5
 11
3.561237742519984
 21
-0.7569210526156678
 31
0.0
100
AcDbText
  0
TEXT
  5
7DE1B343D9E4272
330
7DE1B343D9E43C5
100
AcDbEntity
  8
TEXT
100
AcDbText
 10
2.23230515825032
 20
-0.4771457717167914
 30
0.0
 40
0.0522247191011236
  1
Stylmark  Incorporated
 41
1.221428571428573
 72
     5
 11
3.561237742519984
 21
-0.4771457717167914
 31
0.0
100
AcDbText
  0
TEXT
  5
7DE1B343D9E4273
330
7DE1B343D9E43C5
100
AcDbEntity
  8
TEXT
100
AcDbText
 10
2.23230515825032
 20
-0.5704041986830834
 30
0.0
 40
0.0522247191011236
  1
6536 Main St. N.E. * P.O. Box 32008
 41
0.8388932496075366
 72
     5
 11
3.561237742519984
 21
-0.5704041986830834
 31
0.0
100
AcDbText
  0
TEXT
  5
7DE1B343D9E4274
330
7DE1B343D9E43C5
100
AcDbEntity
  8
TEXT
100
AcDbText
 10
2.23230515825032
 20
-0.6636626256493756
 30
0.0
 40
0.0522247191011236
  1
Minneapolis, MN 55432-0008
 41
1.11444212721585
 72
     5
 11
3.561237742519984
 21
-0.6636626256493756
 31
0.0
100
AcDbText
  0
LWPOLYLINE
  5
7DE1B343D9E4275
330
7DE1B343D9E43C5
100
AcDbEntity
  8
TEXT
100
AcDbPolyline
 90
        3
 70
     0
 43
0.0006660908203125
 10
0.0763514661830129
 20
-0.6432762899782329
 10
0.0763514661830129
 20
-0.7565117294313606
 10
0.1895869056361352
 20
-0.7565117294313606
  0
LWPOLYLINE
  5
7DE1B343D9E427A
330
7DE1B343D9E43C5
100
AcDbEntity
  8
TEXT
100
AcDbPolyline
 90
        3
 70
     0
 43
0.0006660908203125
 10
0.1029950989955104
 20
-0.6432762899782329
 10
0.1029950989955104
 20
-0.7298680966188595
 10
0.1895869056361352
 20
-0.7298680966188595
  0
LWPOLYLINE
  5
7DE1B343D9E427F
330
7DE1B343D9E43C5
100
AcDbEntity
  8
TEXT
100
AcDbPolyline
 90
        2
 70
     0
 43
0.0001332181640625
 10
0.1496214564173872
 20
-0.6332849276735477
 10
0.0763514661830129
 20
-0.6432762899782329
  0
LWPOLYLINE
  5
7DE1B343D9E4283
330
7DE1B343D9E43C5
100
AcDbEntity
  8
TEXT
100
AcDbPolyline
 90
        2
 70
     0
 43
0.0001332181640625
 10
0.1029950989955104
 20
-0.6432762899782329
 10
0.1629432728236377
 20
-0.6332849276735477
  0
LWPOLYLINE
  5
7DE1B343D9E4287
330
7DE1B343D9E43C5
100
AcDbEntity
  8
TEXT
100
AcDbPolyline
 90
        2
 70
     0
 43
0.0001332181640625
 10
0.1029950989955104
 20
-0.7298680966188595
 10
0.1629432728236377
 20
-0.669919922790734
  0
LWPOLYLINE
  5
7DE1B343D9E428B
330
7DE1B343D9E43C5
100
AcDbEntity
  8
TEXT
100
AcDbPolyline
 90
        3
 70
     0
 43
0.0006660908203125
 10
0.1895869056361352
 20
-0.4900754013063574
 10
0.0763514661830129
 20
-0.4900754013063574
 10
0.0763514661830129
 20
-0.6033108407594849
  0
LWPOLYLINE
  5
7DE1B343D9E4290
330
7DE1B343D9E43C5
100
AcDbEntity
  8
TEXT
100
AcDbPolyline
 90
        3
 70
     0
 43
0.0006660908203125
 10
0.1895869056361352
 20
-0.5167190341188583
 10
0.1029950989955104
 20
-0.5167190341188583
 10
0.1029950989955104
 20
-0.6033108407594849
  0
LWPOLYLINE
  5
7DE1B343D9E4295
330
7DE1B343D9E43C5
100
AcDbEntity
  8
TEXT
100
AcDbPolyline
 90
        2
 70
     0
 43
0.0001332181640625
 10
0.1029950989955104
 20
-0.5167190341188583
 10
0.162943272823636
 20
-0.5766672079469839
  0
LWPOLYLINE
  5
7DE1B343D9E4299
330
7DE1B343D9E43C5
100
AcDbEntity
  8
TEXT
100
AcDbPolyline
 90
        2
 70
     0
 43
0.0001332181640625
 10
0.1029950989955104
 20
-0.6033108407594849
 10
0.162943272823636
 20
-0.6133022030641737
  0
LWPOLYLINE
  5
7DE1B343D9E429D
330
7DE1B343D9E43C5
100
AcDbEntity
  8
TEXT
100
AcDbPolyline
 90
        2
 70
     0
 43
0.0001332181640625
 10
0.0763514661830129
 20
-0.6033108407594849
 10
0.1496214564173872
 20
-0.6133022030641737
  0
LWPOLYLINE
  5
7DE1B343D9E42A1
330
7DE1B343D9E43C5
100
AcDbEntity
  8
TEXT
100
AcDbPolyline
 90
        2
 70
     0
 43
0.0006660908203125
 10
0.1029950989955104
 20
-0.6432762899782329
 10
0.0763514661830129
 20
-0.6432762899782329
  0
LWPOLYLINE
  5
7DE1B343D9E42A5
330
7DE1B343D9E43C5
100
AcDbEntity
  8
TEXT
100
AcDbPolyline
 90
        2
 70
     0
 43
0.0006660908203125
 10
0.1029950989955104
 20
-0.6033108407594849
 10
0.0763514661830129
 20
-0.6033108407594849
  0
LINE
  5
7DE1B343D9E42A9
330
7DE1B343D9E43C5
100
AcDbEntity
  8
TEXT
100
AcDbLine
 10
1.59154189530951
 20
-0.5543520959631263
 30
0.0
 11
1.484335621922221
 21
-0.5543520959631263
 31
0.0
  0
LINE
  5
7DE1B343D9E42AA
330
7DE1B343D9E43C5
100
AcDbEntity
  8
TEXT
100
AcDbLine
 10
1.620572793653988
 20
-0.4900754013063609
 30
0.0
 11
1.485740884436929
 21
-0.4900754013063609
 31
0.0
  0
ARC
  5
7DE1B343D9E42AB
330
7DE1B343D9E43C5
100
AcDbEntity
  8
TEXT
100
AcDbCircle
 10
1.545054980830246
 20
-0.6593126505693772
 30
0.0
 40
0.0676855811441166
100
AcDbArc
 50
90.0
 51
153.7768192527749
  0
LWPOLYLINE
  5
7DE1B343D9E42AC
330
7DE1B343D9E43C5
100
AcDbEntity
  8
TEXT
100
AcDbPolyline
 90
        2
 70
     0
 43
0.0
 10
1.483303126467411
 20
-0.7130574893444337
 42
0.2901071551932823
 10
1.526379059335046
 20
-0.7565484342948718
 42
5.328517124445801
  0
ARC
  5
7DE1B343D9E42B0
330
7DE1B343D9E43C5
100
AcDbEntity
  8
TEXT
100
AcDbCircle
 10
0.8399236031587609
 20
-0.696756042956822
 30
0.0
 40
0.0601160179737537
100
AcDbArc
 50
180.0000000000003
 51
264.0521544866073
  0
LINE
  5
7DE1B343D9E42B1
330
7DE1B343D9E43C5
100
AcDbEntity
  8
TEXT
100
AcDbLine
 10
0.8434389587843087
 20
-0.4556874837122228
 30
0.0
 11
0.7833963539403018
 21
-0.4556874837122228
 31
0.0
  0
ARC
  5
7DE1B343D9E42B2
330
7DE1B343D9E43C5
100
AcDbEntity
  8
TEXT
100
AcDbCircle
 10
0.6076646010417904
 20
-0.5721628607528626
 30
0.0
 40
0.0820874594465043
100
AcDbArc
 50
90.0
 51
270.0
  0
LWPOLYLINE
  5
7DE1B343D9E42B3
330
7DE1B343D9E43C5
100
AcDbEntity
  8
TEXT
100
AcDbPolyline
 90
        2
 70
     0
 43
0.0001332181640625
 10
0.1995782679408258
 20
-0.5633453915407369
 10
0.1895869056361352
 20
-0.4900754013063574
  0
LWPOLYLINE
  5
7DE1B343D9E42B7
330
7DE1B343D9E43C5
100
AcDbEntity
  8
TEXT
100
AcDbPolyline
 90
        2
 70
     0
 43
0.0001332181640625
 10
0.1895869056361352
 20
-0.5167190341188583
 10
0.1995782679408258
 20
-0.5766672079469839
  0
LWPOLYLINE
  5
7DE1B343D9E42BB
330
7DE1B343D9E43C5
100
AcDbEntity
  8
TEXT
100
AcDbPolyline
 90
        3
 70
     0
 43
0.0006660908203125
 10
0.3427877943080126
 20
-0.6033108407594849
 10
0.3427877943080126
 20
-0.4900754013063574
 10
0.2295523548548868
 20
-0.4900754013063574
  0
LWPOLYLINE
  5
7DE1B343D9E42C0
330
7DE1B343D9E43C5
100
AcDbEntity
  8
TEXT
100
AcDbPolyline
 90
        3
 70
     0
 43
0.0006660908203125
 10
0.3161441614955116
 20
-0.6033108407594849
 10
0.3161441614955116
 20
-0.5167190341188583
 10
0.2295523548548868
 20
-0.5167190341188583
  0
LWPOLYLINE
  5
7DE1B343D9E42C5
330
7DE1B343D9E43C5
100
AcDbEntity
  8
TEXT
100
AcDbPolyline
 90
        2
 70
     0
 43
0.0001332181640625
 10
0.3161441614955116
 20
-0.5167190341188583
 10
0.2561959876673878
 20
-0.5766672079469839
  0
LWPOLYLINE
  5
7DE1B343D9E42C9
330
7DE1B343D9E43C5
100
AcDbEntity
  8
TEXT
100
AcDbPolyline
 90
        2
 70
     0
 43
0.0001332181640625
 10
0.2295523548548868
 20
-0.5167190341188583
 10
0.219560992550198
 20
-0.5766672079469839
  0
LWPOLYLINE
  5
7DE1B343D9E42CD
330
7DE1B343D9E43C5
100
AcDbEntity
  8
TEXT
100
AcDbPolyline
 90
        2
 70
     0
 43
0.0001332181640625
 10
0.2295523548548868
 20
-0.4900754013063574
 10
0.219560992550198
 20
-0.5633453915407369
  0
LWPOLYLINE
  5
7DE1B343D9E42D1
330
7DE1B343D9E43C5
100
AcDbEntity
  8
TEXT
100
AcDbPolyline
 90
        2
 70
     0
 43
0.0001332181640625
 10
0.2695178040736366
 20
-0.6133022030641737
 10
0.3427877943080126
 20
-0.6033108407594849
  0
LWPOLYLINE
  5
7DE1B343D9E42D5
330
7DE1B343D9E43C5
100
AcDbEntity
  8
TEXT
100
AcDbPolyline
 90
        2
 70
     0
 43
0.0001332181640625
 10
0.3161441614955116
 20
-0.6033108407594849
 10
0.2561959876673878
 20
-0.6133022030641737
  0
LWPOLYLINE
  5
7DE1B343D9E42D9
330
7DE1B343D9E43C5
100
AcDbEntity
  8
TEXT
100
AcDbPolyline
 90
        2
 70
     0
 43
0.0001332181640625
 10
0.3427877943080126
 20
-0.6432762899782329
 10
0.2695178040736366
 20
-0.6332849276735477
  0
LWPOLYLINE
  5
7DE1B343D9E42DD
330
7DE1B343D9E43C5
100
AcDbEntity
  8
TEXT
100
AcDbPolyline
 90
        2
 70
     0
 43
0.0001332181640625
 10
0.3161441614955116
 20
-0.6432762899782329
 10
0.2561959876673878
 20
-0.6332849276735477
  0
LWPOLYLINE
  5
7DE1B343D9E42E1
330
7DE1B343D9E43C5
100
AcDbEntity
  8
TEXT
100
AcDbPolyline
 90
        2
 70
     0
 43
0.0001332181640625
 10
0.3161441614955116
 20
-0.7298680966188595
 10
0.2561959876673878
 20
-0.669919922790734
  0
LWPOLYLINE
  5
7DE1B343D9E42E5
330
7DE1B343D9E43C5
100
AcDbEntity
  8
TEXT
100
AcDbPolyline
 90
        3
 70
     0
 43
0.0006660908203125
 10
0.2295523548548868
 20
-0.7298680966188595
 10
0.3161441614955116
 20
-0.7298680966188595
 10
0.3161441614955116
 20
-0.6432762899782329
  0
LWPOLYLINE
  5
7DE1B343D9E42EA
330
7DE1B343D9E43C5
100
AcDbEntity
  8
TEXT
100
AcDbPolyline
 90
        3
 70
     0
 43
0.0006660908203125
 10
0.2295523548548868
 20
-0.7565117294313606
 10
0.3427877943080126
 20
-0.7565117294313606
 10
0.3427877943080126
 20
-0.6432762899782329
  0
LWPOLYLINE
  5
7DE1B343D9E42EF
330
7DE1B343D9E43C5
100
AcDbEntity
  8
TEXT
100
AcDbPolyline
 90
        5
 70
     0
 43
0.0001332181640625
 10
0.1995782679408258
 20
-0.6832417391969845
 10
0.1995782679408258
 20
-0.669919922790734
 10
0.1629432728236377
 20
-0.669919922790734
 10
0.1629432728236377
 20
-0.6332849276735477
 10
0.1496214564173872
 20
-0.6332849276735477
  0
LWPOLYLINE
  5
7DE1B343D9E42F6
330
7DE1B343D9E43C5
100
AcDbEntity
  8
TEXT
100
AcDbPolyline
 90
        2
 70
     0
 43
0.0006660908203125
 10
0.1895869056361352
 20
-0.7298680966188595
 10
0.1895869056361352
 20
-0.7565117294313606
  0
LWPOLYLINE
  5
7DE1B343D9E42FA
330
7DE1B343D9E43C5
100
AcDbEntity
  8
TEXT
100
AcDbPolyline
 90
        2
 70
     0
 43
0.0001332181640625
 10
0.1895869056361352
 20
-0.7298680966188595
 10
0.1995782679408258
 20
-0.669919922790734
  0
LWPOLYLINE
  5
7DE1B343D9E42FE
330
7DE1B343D9E43C5
100
AcDbEntity
  8
TEXT
100
AcDbPolyline
 90
        2
 70
     0
 43
0.0001332181640625
 10
0.1895869056361352
 20
-0.7565117294313606
 10
0.1995782679408258
 20
-0.6832417391969845
  0
LWPOLYLINE
  5
7DE1B343D9E4302
330
7DE1B343D9E43C5
100
AcDbEntity
  8
TEXT
100
AcDbPolyline
 90
        5
 70
     0
 43
0.0001332181640625
 10
0.1496214564173872
 20
-0.6133022030641737
 10
0.162943272823636
 20
-0.6133022030641737
 10
0.162943272823636
 20
-0.5766672079469839
 10
0.1995782679408258
 20
-0.5766672079469839
 10
0.1995782679408258
 20
-0.5633453915407369
  0
LWPOLYLINE
  5
7DE1B343D9E4309
330
7DE1B343D9E43C5
100
AcDbEntity
  8
TEXT
100
AcDbPolyline
 90
        5
 70
     0
 43
0.0001332181640625
 10
0.219560992550198
 20
-0.5633453915407369
 10
0.219560992550198
 20
-0.5766672079469839
 10
0.2561959876673878
 20
-0.5766672079469839
 10
0.2561959876673878
 20
-0.6133022030641737
 10
0.2695178040736366
 20
-0.6133022030641737
  0
LWPOLYLINE
  5
7DE1B343D9E4310
330
7DE1B343D9E43C5
100
AcDbEntity
  8
TEXT
100
AcDbPolyline
 90
        2
 70
     0
 43
0.0001332181640625
 10
0.2295523548548868
 20
-0.7298680966188595
 10
0.219560992550198
 20
-0.669919922790734
  0
LWPOLYLINE
  5
7DE1B343D9E4314
330
7DE1B343D9E43C5
100
AcDbEntity
  8
TEXT
100
AcDbPolyline
 90
        2
 70
     0
 43
0.0001332181640625
 10
0.219560992550198
 20
-0.6832417391969845
 10
0.2295523548548868
 20
-0.7565117294313606
  0
LWPOLYLINE
  5
7DE1B343D9E4318
330
7DE1B343D9E43C5
100
AcDbEntity
  8
TEXT
100
AcDbPolyline
 90
        2
 70
     0
 43
0.0006660908203125
 10
0.2295523548548868
 20
-0.7298680966188595
 10
0.2295523548548868
 20
-0.7565117294313606
  0
LWPOLYLINE
  5
7DE1B343D9E431C
330
7DE1B343D9E43C5
100
AcDbEntity
  8
TEXT
100
AcDbPolyline
 90
        5
 70
     0
 43
0.0001332181640625
 10
0.2695178040736366
 20
-0.6332849276735477
 10
0.2561959876673878
 20
-0.6332849276735477
 10
0.2561959876673878
 20
-0.669919922790734
 10
0.219560992550198
 20
-0.669919922790734
 10
0.219560992550198
 20
-0.6832417391969845
  0
LWPOLYLINE
  5
7DE1B343D9E4323
330
7DE1B343D9E43C5
100
AcDbEntity
  8
TEXT
100
AcDbPolyline
 90
        2
 70
     0
 43
0.0006660908203125
 10
0.3161441614955116
 20
-0.6033108407594849
 10
0.3427877943080126
 20
-0.6033108407594849
  0
LWPOLYLINE
  5
7DE1B343D9E4327
330
7DE1B343D9E43C5
100
AcDbEntity
  8
TEXT
100
AcDbPolyline
 90
        2
 70
     0
 43
0.0006660908203125
 10
0.3161441614955116
 20
-0.6432762899782329
 10
0.3427877943080126
 20
-0.6432762899782329
  0
LINE
  5
7DE1B343D9E432B
330
7DE1B343D9E43C5
100
AcDbEntity
  8
TEXT
100
AcDbLine
 10
0.6129019311560376
 20
-0.5543520959631263
 30
0.0
 11
0.7798075851850089
 21
-0.5543520959631263
 31
0.0
  0
LINE
  5
7DE1B343D9E432C
330
7DE1B343D9E43C5
100
AcDbEntity
  8
TEXT
100
AcDbLine
 10
0.6785020674003386
 20
-0.5901568175737541
 30
0.0
 11
0.6129019311560376
 21
-0.5901568175737541
 31
0.0
  0
LINE
  5
7DE1B343D9E432D
330
7DE1B343D9E43C5
100
AcDbEntity
  8
TEXT
100
AcDbLine
 10
0.5255771415952859
 20
-0.7565484342948718
 30
0.0
 11
0.6785020674003386
 21
-0.7565484342948718
 31
0.0
  0
LINE
  5
7DE1B343D9E432E
330
7DE1B343D9E43C5
100
AcDbEntity
  8
TEXT
100
AcDbLine
 10
0.6834424413066183
 20
-0.6881914279614325
 30
0.0
 11
0.5255771415952842
 21
-0.6881914279614325
 31
0.0
  0
LINE
  5
7DE1B343D9E432F
330
7DE1B343D9E43C5
100
AcDbEntity
  8
TEXT
100
AcDbLine
 10
0.6076646010417895
 20
-0.6542503201993679
 30
0.0
 11
0.6834424413066183
 21
-0.6542503201993679
 31
0.0
  0
ARC
  5
7DE1B343D9E4330
330
7DE1B343D9E43C5
100
AcDbEntity
  8
TEXT
100
AcDbCircle
 10
0.6129019311560385
 20
-0.5722544567684384
 30
0.0
 40
0.017902360805315
100
AcDbArc
 50
90.0
 51
270.0
  0
LINE
  5
7DE1B343D9E4331
330
7DE1B343D9E43C5
100
AcDbEntity
  8
TEXT
100
AcDbLine
 10
0.5255771415952842
 20
-0.6881914279614325
 30
0.0
 11
0.5255771415952859
 21
-0.7565484342948718
 31
0.0
  0
LINE
  5
7DE1B343D9E4332
330
7DE1B343D9E43C5
100
AcDbEntity
  8
TEXT
100
AcDbLine
 10
0.7798075851850089
 20
-0.5543520959631263
 30
0.0
 11
0.7798075851850089
 21
-0.696756042956822
 31
0.0
  0
ARC
  5
7DE1B343D9E4333
330
7DE1B343D9E43C5
100
AcDbEntity
  8
TEXT
100
AcDbCircle
 10
0.6785020674003395
 20
-0.6733526259343148
 30
0.0
 40
0.0831958083605586
100
AcDbArc
 50
270.0
 51
90.0
  0
ARC
  5
7DE1B343D9E4334
330
7DE1B343D9E43C5
100
AcDbEntity
  8
TEXT
100
AcDbCircle
 10
0.6834424413066192
 20
-0.6712208740803984
 30
0.0
 40
0.0169705538810321
100
AcDbArc
 50
270.0
 51
90.0
  0
LWPOLYLINE
  5
7DE1B343D9E4335
330
7DE1B343D9E43C5
100
AcDbEntity
  8
TEXT
100
AcDbPolyline
 90
        2
 70
     0
 43
0.0006660908203125
 10
0.1895869056361352
 20
-0.5167190341188583
 10
0.1895869056361352
 20
-0.4900754013063574
  0
LWPOLYLINE
  5
7DE1B343D9E4339
330
7DE1B343D9E43C5
100
AcDbEntity
  8
TEXT
100
AcDbPolyline
 90
        2
 70
     0
 43
0.0006660908203125
 10
0.2295523548548868
 20
-0.5167190341188583
 10
0.2295523548548868
 20
-0.4900754013063574
  0
LINE
  5
7DE1B343D9E433D
330
7DE1B343D9E43C5
100
AcDbEntity
  8
TEXT
100
AcDbLine
 10
0.7833963539403018
 20
-0.4900754013063609
 30
0.0
 11
0.6076646010417895
 21
-0.4900754013063609
 31
0.0
  0
LINE
  5
7DE1B343D9E433E
330
7DE1B343D9E43C5
100
AcDbEntity
  8
TEXT
100
AcDbLine
 10
0.7833963539403018
 20
-0.4556874837122228
 30
0.0
 11
0.7833963539403018
 21
-0.4900754013063609
 31
0.0
  0
LINE
  5
7DE1B343D9E433F
330
7DE1B343D9E43C5
100
AcDbEntity
  8
TEXT
100
AcDbLine
 10
0.9738682459601539
 20
-0.5909473974194814
 30
0.0
 11
0.915237924928216
 21
-0.4900754013063609
 31
0.0
  0
LINE
  5
7DE1B343D9E4340
330
7DE1B343D9E43C5
100
AcDbEntity
  8
TEXT
100
AcDbLine
 10
1.032616808766019
 20
-0.4900754013063609
 30
0.0
 11
0.9738682459601539
 21
-0.5909473974194814
 31
0.0
  0
LINE
  5
7DE1B343D9E4341
330
7DE1B343D9E43C5
100
AcDbEntity
  8
TEXT
100
AcDbLine
 10
1.12954743412576
 20
-0.6741605961918726
 30
0.0
 11
1.12954743412576
 21
-0.4220639235675504
 31
0.0
  0
LINE
  5
7DE1B343D9E4342
330
7DE1B343D9E43C5
100
AcDbEntity
  8
TEXT
100
AcDbLine
 10
1.16185928826342
 20
-0.4900754013063609
 30
0.0
 11
1.16185928826342
 21
-0.6909396080387691
 31
0.0
  0
LINE
  5
7DE1B343D9E4343
330
7DE1B343D9E43C5
100
AcDbEntity
  8
TEXT
100
AcDbLine
 10
1.16185928826342
 20
-0.6909396080387691
 30
0.0
 11
1.144865651378819
 21
-0.6909396080387691
 31
0.0
  0
LINE
  5
7DE1B343D9E4344
330
7DE1B343D9E43C5
100
AcDbEntity
  8
TEXT
100
AcDbLine
 10
1.130687007621955
 20
-0.7565484342948718
 30
0.0
 11
1.22869034132139
 21
-0.7565484342948718
 31
0.0
  0
LINE
  5
7DE1B343D9E4345
330
7DE1B343D9E43C5
100
AcDbEntity
  8
TEXT
100
AcDbLine
 10
0.9642680089631996
 20
-0.7365899281898589
 30
0.0
 11
1.061567715056644
 21
-0.5722397172545908
 31
0.0
  0
ARC
  5
7DE1B343D9E4346
330
7DE1B343D9E43C5
100
AcDbEntity
  8
TEXT
100
AcDbCircle
 10
0.9302244490509856
 20
-0.7170007120211761
 30
0.0
 40
0.0392772371940762
100
AcDbArc
 50
270.1604552698595
 51
330.0831797321295
  0
LINE
  5
7DE1B343D9E4347
330
7DE1B343D9E43C5
100
AcDbEntity
  8
TEXT
100
AcDbLine
 10
0.8336941926651144
 20
-0.7565484342948718
 30
0.0
 11
0.9303344437401088
 21
-0.7562777951965895
 31
0.0
  0
LWPOLYLINE
  5
7DE1B343D9E4348
330
7DE1B343D9E43C5
100
AcDbEntity
  8
TEXT
100
AcDbPolyline
 90
        6
 70
     1
 43
0.0
 10
0.876217996240264
 20
-0.5543520959631263
 10
0.8459014020200559
 20
-0.5543520959631263
 10
0.8459014020200559
 20
-0.6774630940180206
 42
0.407328721240804
 10
0.8574450531815323
 20
-0.6892820086944067
 10
0.9180667522262631
 20
-0.6892820086944067
 10
0.935532092633581
 20
-0.6564697796509276
  0
LINE
  5
7DE1B343D9E4350
330
7DE1B343D9E43C5
100
AcDbEntity
  8
TEXT
100
AcDbLine
 10
1.061567715056644
 20
-0.5722397172545908
 30
0.0
 11
1.061567715056644
 21
-0.7049970920799471
 31
0.0
  0
ARC
  5
7DE1B343D9E4351
330
7DE1B343D9E43C5
100
AcDbEntity
  8
TEXT
100
AcDbCircle
 10
1.144865651378817
 20
-0.6755578017953436
 30
0.0
 40
0.0153818062434269
100
AcDbArc
 50
174.7883570302258
 51
270.0
  0
LWPOLYLINE
  5
7DE1B343D9E4352
330
7DE1B343D9E43C5
100
AcDbEntity
  8
TEXT
100
AcDbPolyline
 90
        2
 70
     0
 43
0.0
 10
1.061567715056642
 20
-0.7049970920799435
 42
0.3318488747599744
 10
1.130687007621955
 20
-0.7565484342948718
 42
-6.868794160588311
  0
LINE
  5
7DE1B343D9E4356
330
7DE1B343D9E43C5
100
AcDbEntity
  8
TEXT
100
AcDbLine
 10
1.286079410310651
 20
-0.7565484342948718
 30
0.0
 11
1.353137457092491
 21
-0.7565484342948718
 31
0.0
  0
LINE
  5
7DE1B343D9E4357
330
7DE1B343D9E43C5
100
AcDbEntity
  8
TEXT
100
AcDbLine
 10
1.286079410310651
 20
-0.5619058851292362
 30
0.0
 11
1.286079410310651
 21
-0.7565484342948718
 31
0.0
  0
LINE
  5
7DE1B343D9E4358
330
7DE1B343D9E43C5
100
AcDbEntity
  8
TEXT
100
AcDbLine
 10
1.22869034132139
 20
-0.5543520959631263
 30
0.0
 11
1.278525621144537
 21
-0.5543520959631263
 31
0.0
  0
LINE
  5
7DE1B343D9E4359
330
7DE1B343D9E43C5
100
AcDbEntity
  8
TEXT
100
AcDbLine
 10
1.22869034132139
 20
-0.7565484342948718
 30
0.0
 11
1.22869034132139
 21
-0.5543520959631263
 31
0.0
  0
LWPOLYLINE
  5
7DE1B343D9E435A
330
7DE1B343D9E43C5
100
AcDbEntity
  8
TEXT
100
AcDbPolyline
 90
        2
 70
     0
 43
0.0
 10
1.278525621144535
 20
-0.5543520959631263
 42
-0.4142135623731017
 10
1.286079410310649
 20
-0.5619058851292362
 42
-0.9999999999999998
  0
LINE
  5
7DE1B343D9E435E
330
7DE1B343D9E43C5
100
AcDbEntity
  8
TEXT
100
AcDbLine
 10
1.484335621922221
 20
-0.5543520959631263
 30
0.0
 11
1.484335621922221
 21
-0.6294045020373329
 31
0.0
  0
LINE
  5
7DE1B343D9E435F
330
7DE1B343D9E43C5
100
AcDbEntity
  8
TEXT
100
AcDbLine
 10
1.353137457092491
 20
-0.5543520959631263
 30
0.0
 11
1.407271054013441
 21
-0.5543520959631263
 31
0.0
  0
LINE
  5
7DE1B343D9E4360
330
7DE1B343D9E43C5
100
AcDbEntity
  8
TEXT
100
AcDbLine
 10
1.353137457092491
 20
-0.7565484342948718
 30
0.0
 11
1.353137457092491
 21
-0.5543520959631263
 31
0.0
  0
LWPOLYLINE
  5
7DE1B343D9E4361
330
7DE1B343D9E43C5
100
AcDbEntity
  8
TEXT
100
AcDbPolyline
 90
        2
 70
     0
 43
0.0
 10
1.407271054013439
 20
-0.5543520959631263
 42
-0.4142135623731017
 10
1.414824843179553
 20
-0.5619058851292362
 42
-0.9999999999999998
  0
LWPOLYLINE
  5
7DE1B343D9E4365
330
7DE1B343D9E43C5
100
AcDbEntity
  8
TEXT
100
AcDbPolyline
 90
        4
 70
     0
 43
0.0
 10
1.414824843179553
 20
-0.5619058851292362
 10
1.414824843179553
 20
-0.7565484342948718
 10
1.483303126467411
 20
-0.7565484342948718
 10
1.483303126467411
 20
-0.7130574893444337
 42
-1.714843617202739
  0
LINE
  5
7DE1B343D9E436B
330
7DE1B343D9E43C5
100
AcDbEntity
  8
TEXT
100
AcDbLine
 10
0.8434389587843087
 20
-0.4900754013063609
 30
0.0
 11
0.8434389587843087
 21
-0.4556874837122228
 31
0.0
  0
LINE
  5
7DE1B343D9E436C
330
7DE1B343D9E43C5
100
AcDbEntity
  8
TEXT
100
AcDbLine
 10
0.915237924928216
 20
-0.4900754013063609
 30
0.0
 11
0.8434389587843087
 21
-0.4900754013063609
 31
0.0
  0
LINE
  5
7DE1B343D9E436D
330
7DE1B343D9E43C5
100
AcDbEntity
  8
TEXT
100
AcDbLine
 10
1.062738721559395
 20
-0.4900754013063609
 30
0.0
 11
1.032616808766019
 21
-0.4900754013063609
 31
0.0
  0
LINE
  5
7DE1B343D9E436E
330
7DE1B343D9E43C5
100
AcDbEntity
  8
TEXT
100
AcDbLine
 10
1.062738721559395
 20
-0.4220639235675504
 30
0.0
 11
1.062738721559395
 21
-0.4900754013063609
 31
0.0
  0
LINE
  5
7DE1B343D9E436F
330
7DE1B343D9E43C5
100
AcDbEntity
  8
TEXT
100
AcDbLine
 10
1.12954743412576
 20
-0.4220639235675504
 30
0.0
 11
1.062738721559395
 21
-0.4220639235675504
 31
0.0
  0
LWPOLYLINE
  5
7DE1B343D9E4370
330
7DE1B343D9E43C5
100
AcDbEntity
  8
TEXT
100
AcDbPolyline
 90
        3
 70
     0
 43
0.0
 10
1.449959193723763
 20
-0.4900754013063574
 10
1.331659034907718
 20
-0.4900754013063574
 10
1.331659034907718
 20
-0.5172428980672532
 42
-1.960274751411753
  0
LINE
  5
7DE1B343D9E4375
330
7DE1B343D9E43C5
100
AcDbEntity
  8
TEXT
100
AcDbLine
 10
1.295877344194557
 20
-0.4900754013063609
 30
0.0
 11
1.16185928826342
 21
-0.4900754013063609
 31
0.0
  0
LWPOLYLINE
  5
7DE1B343D9E4376
330
7DE1B343D9E43C5
100
AcDbEntity
  8
TEXT
100
AcDbPolyline
 90
        2
 70
     0
 43
0.0
 10
1.295877344194557
 20
-0.4900754013063574
 42
-0.3328679258950098
 10
1.331659034907718
 20
-0.5172428980672532
 42
6.772930709997214
  0
LINE
  5
7DE1B343D9E437A
330
7DE1B343D9E43C5
100
AcDbEntity
  8
TEXT
100
AcDbLine
 10
1.485740884436929
 20
-0.4900754013063609
 30
0.0
 11
1.485740884436929
 21
-0.5183979470760047
 31
0.0
  0
LWPOLYLINE
  5
7DE1B343D9E437B
330
7DE1B343D9E43C5
100
AcDbEntity
  8
TEXT
100
AcDbPolyline
 90
        2
 70
     0
 43
0.0
 10
1.449959193723763
 20
-0.4900754013063574
 42
-0.3277054968067132
 10
1.485740884436927
 20
-0.5183979470760012
 42
6.667889725900311
  0
LINE
  5
7DE1B343D9E437F
330
7DE1B343D9E43C5
100
AcDbEntity
  8
TEXT
100
AcDbLine
 10
1.699532732529029
 20
-0.5952873798597882
 30
0.0
 11
1.655781961347128
 21
-0.513037103863643
 31
0.0
  0
LINE
  5
7DE1B343D9E4380
330
7DE1B343D9E43C5
100
AcDbEntity
  8
TEXT
100
AcDbLine
 10
1.699532732529029
 20
-0.4900754013063609
 30
0.0
 11
1.699532732529029
 21
-0.5952873798597882
 31
0.0
  0
LINE
  5
7DE1B343D9E4381
330
7DE1B343D9E43C5
100
AcDbEntity
  8
TEXT
100
AcDbLine
 10
1.927216471467398
 20
-0.5659407277178989
 30
0.0
 11
1.927216471467398
 21
-0.4246111955387602
 31
0.0
  0
LINE
  5
7DE1B343D9E4382
330
7DE1B343D9E43C5
100
AcDbEntity
  8
TEXT
100
AcDbLine
 10
1.974314630023383
 20
-0.4900754013063609
 30
0.0
 11
1.927216471467398
 21
-0.5659407277178989
 31
0.0
  0
LINE
  5
7DE1B343D9E4383
330
7DE1B343D9E43C5
100
AcDbEntity
  8
TEXT
100
AcDbLine
 10
1.984749346787306
 20
-0.5999686442473344
 30
0.0
 11
2.049306462753011
 21
-0.4900754013063609
 31
0.0
  0
LINE
  5
7DE1B343D9E4384
330
7DE1B343D9E43C5
100
AcDbEntity
  8
TEXT
100
AcDbLine
 10
1.863381480244625
 20
-0.7565484342948718
 30
0.0
 11
1.927759664563246
 21
-0.7565484342948718
 31
0.0
  0
LWPOLYLINE
  5
7DE1B343D9E4385
330
7DE1B343D9E43C5
100
AcDbEntity
  8
TEXT
100
AcDbPolyline
 90
        2
 70
     0
 43
0.0
 10
1.703472409834067
 20
-0.7130574893444337
 42
-0.2901071551932486
 10
1.660396476966423
 20
-0.7565484342948718
 42
-5.328517124445184
  0
ARC
  5
7DE1B343D9E4389
330
7DE1B343D9E43C5
100
AcDbEntity
  8
TEXT
100
AcDbCircle
 10
1.591541895309508
 20
-0.5827114709631236
 30
0.0
 40
0.028359375
100
AcDbArc
 50
25.78218179591245
 51
90.0
  0
LINE
  5
7DE1B343D9E438A
330
7DE1B343D9E43C5
100
AcDbEntity
  8
TEXT
100
AcDbLine
 10
1.627342970613631
 20
-0.5916270694252586
 30
0.0
 11
1.617078210200067
 21
-0.5703765298525643
 31
0.0
  0
LINE
  5
7DE1B343D9E438B
330
7DE1B343D9E43C5
100
AcDbEntity
  8
TEXT
100
AcDbLine
 10
1.545054980830248
 20
-0.5916270694252586
 30
0.0
 11
1.627342970613631
 21
-0.5916270694252586
 31
0.0
  0
LWPOLYLINE
  5
7DE1B343D9E438C
330
7DE1B343D9E43C5
100
AcDbEntity
  8
TEXT
100
AcDbPolyline
 90
        4
 70
     1
 43
0.0
 10
1.64027401189653
 20
-0.6535844563108466
 10
1.551613693236672
 20
-0.6535844563108466
 42
0.9999999999999998
 10
1.551613693236672
 20
-0.6959829968147073
 10
1.64027401189653
 20
-0.6959829968147073
 42
1.0
  0
LWPOLYLINE
  5
7DE1B343D9E4392
330
7DE1B343D9E43C5
100
AcDbEntity
  8
TEXT
100
AcDbPolyline
 90
        2
 70
     0
 43
0.0
 10
1.526379059335046
 20
-0.7565484342948718
 10
1.660396476966423
 20
-0.7565484342948718
 42
0.9999999999999998
  0
LINE
  5
7DE1B343D9E4396
330
7DE1B343D9E43C5
100
AcDbEntity
  8
TEXT
100
AcDbLine
 10
1.786733498952062
 20
-0.5543520959631263
 30
0.0
 11
1.86338148024462
 21
-0.5543520959631263
 31
0.0
  0
LINE
  5
7DE1B343D9E4397
330
7DE1B343D9E43C5
100
AcDbEntity
  8
TEXT
100
AcDbLine
 10
1.86338148024462
 20
-0.5543520959631263
 30
0.0
 11
1.863381480244625
 21
-0.7565484342948718
 31
0.0
  0
ARC
  5
7DE1B343D9E4398
330
7DE1B343D9E43C5
100
AcDbEntity
  8
TEXT
100
AcDbCircle
 10
1.78673349895206
 20
-0.579257971245789
 30
0.0
 40
0.0249058752826653
100
AcDbArc
 50
89.99971217465335
 51
179.9999999999985
  0
LINE
  5
7DE1B343D9E4399
330
7DE1B343D9E43C5
100
AcDbEntity
  8
TEXT
100
AcDbLine
 10
1.761827623669403
 20
-0.7565484342948718
 30
0.0
 11
1.761827623669398
 21
-0.5792579288634034
 31
0.0
  0
LWPOLYLINE
  5
7DE1B343D9E439A
330
7DE1B343D9E43C5
100
AcDbEntity
  8
TEXT
100
AcDbPolyline
 90
        2
 70
     0
 43
0.0
 10
1.703472409834067
 20
-0.7565484342948718
 10
1.761827623669401
 20
-0.7565484342948718
  0
LWPOLYLINE
  5
7DE1B343D9E439E
330
7DE1B343D9E43C5
100
AcDbEntity
  8
TEXT
100
AcDbPolyline
 90
        2
 70
     0
 43
0.0
 10
1.703472409834067
 20
-0.7130574893444337
 10
1.703472409834067
 20
-0.7565484342948718
  0
LINE
  5
7DE1B343D9E43A2
330
7DE1B343D9E43C5
100
AcDbEntity
  8
TEXT
100
AcDbLine
 10
2.080241570150916
 20
-0.7565484342948718
 30
0.0
 11
1.984749346787306
 21
-0.5999686442473344
 31
0.0
  0
LINE
  5
7DE1B343D9E43A3
330
7DE1B343D9E43C5
100
AcDbEntity
  8
TEXT
100
AcDbLine
 10
2.00366319777471
 20
-0.7565484342948718
 30
0.0
 11
2.080241570150916
 21
-0.7565484342948718
 31
0.0
  0
LINE
  5
7DE1B343D9E43A4
330
7DE1B343D9E43C5
100
AcDbEntity
  8
TEXT
100
AcDbLine
 10
1.927759664563246
 20
-0.6249688658186916
 30
0.0
 11
2.00366319777471
 21
-0.7565484342948718
 31
0.0
  0
LINE
  5
7DE1B343D9E43A5
330
7DE1B343D9E43C5
100
AcDbEntity
  8
TEXT
100
AcDbLine
 10
1.927759664563246
 20
-0.7565484342948718
 30
0.0
 11
1.927759664563246
 21
-0.6249688658186916
 31
0.0
  0
LINE
  5
7DE1B343D9E43A6
330
7DE1B343D9E43C5
100
AcDbEntity
  8
TEXT
100
AcDbLine
 10
1.927216471467398
 20
-0.4246111955387602
 30
0.0
 11
1.858901592918125
 21
-0.4246111955387602
 31
0.0
  0
ARC
  5
7DE1B343D9E43A7
330
7DE1B343D9E43C5
100
AcDbEntity
  8
TEXT
100
AcDbCircle
 10
1.618545853876919
 20
-0.5316589684272632
 30
0.0
 40
0.0416329381542859
100
AcDbArc
 50
26.56974201007528
 51
87.20939649401342
  0
LINE
  5
7DE1B343D9E43A8
330
7DE1B343D9E43C5
100
AcDbEntity
  8
TEXT
100
AcDbLine
 10
1.76342963882853
 20
-0.4900754013063609
 30
0.0
 11
1.699532732529029
 21
-0.4900754013063609
 31
0.0
  0
LINE
  5
7DE1B343D9E43A9
330
7DE1B343D9E43C5
100
AcDbEntity
  8
TEXT
100
AcDbLine
 10
1.76342963882853
 20
-0.5176230511672355
 30
0.0
 11
1.76342963882853
 21
-0.4900754013063609
 31
0.0
  0
ARC
  5
7DE1B343D9E43AA
330
7DE1B343D9E43C5
100
AcDbEntity
  8
TEXT
100
AcDbCircle
 10
1.794622455891638
 20
-0.5213211285886257
 30
0.0
 40
0.0314112657011332
100
AcDbArc
 50
95.88484768694724
 51
173.2388340632136
  0
LINE
  5
7DE1B343D9E43AB
330
7DE1B343D9E43C5
100
AcDbEntity
  8
TEXT
100
AcDbLine
 10
1.85890159291812
 20
-0.4900754013063609
 30
0.0
 11
1.791401875268603
 21
-0.4900754013063609
 31
0.0
  0
LINE
  5
7DE1B343D9E43AC
330
7DE1B343D9E43C5
100
AcDbEntity
  8
TEXT
100
AcDbLine
 10
1.858901592918125
 20
-0.4246111955387602
 30
0.0
 11
1.85890159291812
 21
-0.4900754013063609
 31
0.0
  0
LINE
  5
7DE1B343D9E43AD
330
7DE1B343D9E43C5
100
AcDbEntity
  8
TEXT
100
AcDbLine
 10
2.049306462753011
 20
-0.4900754013063609
 30
0.0
 11
1.974314630023385
 21
-0.4900754013063609
 31
0.0
  0
ENDSEC
  0
SECTION
  2
OBJECTS
  0
DICTIONARY
  5
7DE1B343D9E43B9
330
0
100
AcDbDictionary
  3
ACAD_GROUP
350
7DE1B343D9E43BA
  3
ACAD_LAYOUT
350
7DE1B343D9E43DF
  3
ACAD_MLINESTYLE
350
7DE1B343D9E43BB
  3
ACAD_PLOTSETTINGS
350
7DE1B343D9E43E0
  3
ACAD_PLOTSTYLENAME
350
7DE1B343D9E43DD
  3
ACDBHEADERROUNDTRIPXREC
350
7DE1B343D9E43EA
  3
ACDBVARIABLEDICTIONARY
350
7DE1B343D9E43E7
  0
DICTIONARY
  5
7DE1B343D9E440C
330
7DE1B343D9E43C5
100
AcDbDictionary
280
     1
  3
ACAD_LAYOUTSELFREF
360
7DE1B343D9E440D
  0
DICTIONARY
  5
7DE1B343D9E440A
330
7DE1B343D9E43C2
100
AcDbDictionary
280
     1
  3
ACAD_LAYOUTSELFREF
360
7DE1B343D9E440B
  0
DICTIONARY
  5
7DE1B343D9E43BA
102
{ACAD_REACTORS
330
7DE1B343D9E43B9
102
}
330
7DE1B343D9E43B9
100
AcDbDictionary
  0
DICTIONARY
  5
7DE1B343D9E43DF
102
{ACAD_REACTORS
330
7DE1B343D9E43B9
102
}
330
7DE1B343D9E43B9
100
AcDbDictionary
  0
DICTIONARY
  5
7DE1B343D9E43BB
102
{ACAD_REACTORS
330
7DE1B343D9E43B9
102
}
330
7DE1B343D9E43B9
100
AcDbDictionary
  3
STANDARD
350
7DE1B343D9E43C8
  0
DICTIONARY
  5
7DE1B343D9E43E0
102
{ACAD_REACTORS
330
7DE1B343D9E43B9
102
}
330
7DE1B343D9E43B9
100
AcDbDictionary
  0
ACDBDICTIONARYWDFLT
  5
7DE1B343D9E43DD
102
{ACAD_REACTORS
330
7DE1B343D9E43B9
102
}
330
7DE1B343D9E43B9
100
AcDbDictionary
281
     1
  3
Normal
350
7DE1B343D9E43DE
100
AcDbDictionaryWithDefault
340
7DE1B343D9E43DE
  0
DICTIONARY
  5
7DE1B343D9E43EA
102
{ACAD_REACTORS
330
7DE1B343D9E43B9
102
}
330
7DE1B343D9E43B9
100
AcDbDictionary
  3
CEPSNTYPE
350
7DE1B343D9E43F4
  3
FINGERPRINTGUID
350
7DE1B343D9E43F5
  3
HYPERLINKBASE
350
7DE1B343D9E43ED
  3
INSUNITS
350
7DE1B343D9E43F3
  3
LAYOUTDICT
350
7DE1B343D9E43EF
  3
LWETCUNION
350
7DE1B343D9E43F2
  3
PLOTSETDICT
350
7DE1B343D9E43F0
  3
PLOTSTYLNAMDICT
350
7DE1B343D9E43F1
  3
PSVPSCALE
350
7DE1B343D9E43F7
  3
PUCSBASE
350
7DE1B343D9E43FA
  3
PUCSORGBACK
350
7DE1B343D9E4400
  3
PUCSORGBOTTOM
350
7DE1B343D9E43FC
  3
PUCSORGFRONT
350
7DE1B343D9E43FF
  3
PUCSORGLEFT
350
7DE1B343D9E43FD
  3
PUCSORGRIGHT
350
7DE1B343D9E43FE
  3
PUCSORGTOP
350
7DE1B343D9E43FB
  3
PUCSORTHOREF
350
7DE1B343D9E43F8
  3
PUCSORTHOVIEW
350
7DE1B343D9E43F9
  3
STYLESHEET
350
7DE1B343D9E43EE
  3
TSTACKALIGN
350
7DE1B343D9E43EB
  3
TSTACKSIZE
350
7DE1B343D9E43EC
  3
UCSBASE
350
7DE1B343D9E4403
  3
UCSORGBACK
350
7DE1B343D9E4409
  3
UCSORGBOTTOM
350
7DE1B343D9E4405
  3
UCSORGFRONT
350
7DE1B343D9E4408
  3
UCSORGLEFT
350
7DE1B343D9E4406
  3
UCSORGRIGHT
350
7DE1B343D9E4407
  3
UCSORGTOP
350
7DE1B343D9E4404
  3
UCSORTHOREF
350
7DE1B343D9E4401
  3
UCSORTHOVIEW
350
7DE1B343D9E4402
  3
VERSIONGUID
350
7DE1B343D9E43F6
  0
DICTIONARY
  5
7DE1B343D9E43E7
102
{ACAD_REACTORS
330
7DE1B343D9E43B9
102
}
330
7DE1B343D9E43B9
100
AcDbDictionary
  3
DIMASSOC
350
7DE1B343D9E43E8
  0
XRECORD
  5
7DE1B343D9E440D
102
{ACAD_REACTORS
330
7DE1B343D9E440C
102
}
330
7DE1B343D9E440C
100
AcDbXrecord
340
7DE1B343D9E43C5
  0
XRECORD
  5
7DE1B343D9E440B
102
{ACAD_REACTORS
330
7DE1B343D9E440A
102
}
330
7DE1B343D9E440A
100
AcDbXrecord
340
7DE1B343D9E43C2
  0
MLINESTYLE
  5
7DE1B343D9E43C8
102
{ACAD_REACTORS
330
7DE1B343D9E43BB
102
}
330
7DE1B343D9E43BB
100
AcDbMlineStyle
  2
STANDARD
 70
     0
  3

 62
     0
 51
90.0
 52
90.0
 71
     2
 49
0.5
 62
   256
  6
BYLAYER
 49
-0.5
 62
   256
  6
BYLAYER
  0
ACDBPLACEHOLDER
  5
7DE1B343D9E43DE
102
{ACAD_REACTORS
330
7DE1B343D9E43DD
102
}
330
7DE1B343D9E43DD
100
AcDbPlaceHolder
280
     0
  0
XRECORD
  5
7DE1B343D9E43F4
102
{ACAD_REACTORS
330
7DE1B343D9E43EA
102
}
330
7DE1B343D9E43EA
100
AcDbXrecord
 90
        0
  0
XRECORD
  5
7DE1B343D9E43F5
102
{ACAD_REACTORS
330
7DE1B343D9E43EA
102
}
330
7DE1B343D9E43EA
100
AcDbXrecord
  1
{1E509F30-8DB7-11D6-88E6-0090279574E7}
  0
XRECORD
  5
7DE1B343D9E43ED
102
{ACAD_REACTORS
330
7DE1B343D9E43EA
102
}
330
7DE1B343D9E43EA
100
AcDbXrecord
  1

  0
XRECORD
  5
7DE1B343D9E43F3
102
{ACAD_REACTORS
330
7DE1B343D9E43EA
102
}
330
7DE1B343D9E43EA
100
AcDbXrecord
 90
        0
  0
XRECORD
  5
7DE1B343D9E43EF
102
{ACAD_REACTORS
330
7DE1B343D9E43EA
102
}
330
7DE1B343D9E43EA
100
AcDbXrecord
340
7DE1B343D9E43DF
  0
XRECORD
  5
7DE1B343D9E43F2
102
{ACAD_REACTORS
330
7DE1B343D9E43EA
102
}
330
7DE1B343D9E43EA
100
AcDbXrecord
 90
    14877
  0
XRECORD
  5
7DE1B343D9E43F0
102
{ACAD_REACTORS
330
7DE1B343D9E43EA
102
}
330
7DE1B343D9E43EA
100
AcDbXrecord
340
7DE1B343D9E43E0
  0
XRECORD
  5
7DE1B343D9E43F1
102
{ACAD_REACTORS
330
7DE1B343D9E43EA
102
}
330
7DE1B343D9E43EA
100
AcDbXrecord
340
7DE1B343D9E43DD
  0
XRECORD
  5
7DE1B343D9E43F7
102
{ACAD_REACTORS
330
7DE1B343D9E43EA
102
}
330
7DE1B343D9E43EA
100
AcDbXrecord
 40
0.0
  0
XRECORD
  5
7DE1B343D9E43FA
102
{ACAD_REACTORS
330
7DE1B343D9E43EA
102
}
330
7DE1B343D9E43EA
100
AcDbXrecord
340
0
  0
XRECORD
  5
7DE1B343D9E4400
102
{ACAD_REACTORS
330
7DE1B343D9E43EA
102
}
330
7DE1B343D9E43EA
100
AcDbXrecord
 10
0.0
 20
0.0
 30
0.0
  0
XRECORD
  5
7DE1B343D9E43FC
102
{ACAD_REACTORS
330
7DE1B343D9E43EA
102
}
330
7DE1B343D9E43EA
100
AcDbXrecord
 10
0.0
 20
0.0
 30
0.0
  0
XRECORD
  5
7DE1B343D9E43FF
102
{ACAD_REACTORS
330
7DE1B343D9E43EA
102
}
330
7DE1B343D9E43EA
100
AcDbXrecord
 10
0.0
 20
0.0
 30
0.0
  0
XRECORD
  5
7DE1B343D9E43FD
102
{ACAD_REACTORS
330
7DE1B343D9E43EA
102
}
330
7DE1B343D9E43EA
100
AcDbXrecord
 10
0.0
 20
0.0
 30
0.0
  0
XRECORD
  5
7DE1B343D9E43FE
102
{ACAD_REACTORS
330
7DE1B343D9E43EA
102
}
330
7DE1B343D9E43EA
100
AcDbXrecord
 10
0.0
 20
0.0
 30
0.0
  0
XRECORD
  5
7DE1B343D9E43FB
102
{ACAD_REACTORS
330
7DE1B343D9E43EA
102
}
330
7DE1B343D9E43EA
100
AcDbXrecord
 10
0.0
 20
0.0
 30
0.0
  0
XRECORD
  5
7DE1B343D9E43F8
102
{ACAD_REACTORS
330
7DE1B343D9E43EA
102
}
330
7DE1B343D9E43EA
100
AcDbXrecord
340
0
  0
XRECORD
  5
7DE1B343D9E43F9
102
{ACAD_REACTORS
330
7DE1B343D9E43EA
102
}
330
7DE1B343D9E43EA
100
AcDbXrecord
 70
     0
  0
XRECORD
  5
7DE1B343D9E43EE
102
{ACAD_REACTORS
330
7DE1B343D9E43EA
102
}
330
7DE1B343D9E43EA
100
AcDbXrecord
  1

  0
XRECORD
  5
7DE1B343D9E43EB
102
{ACAD_REACTORS
330
7DE1B343D9E43EA
102
}
330
7DE1B343D9E43EA
100
AcDbXrecord
 90
        1
  0
XRECORD
  5
7DE1B343D9E43EC
102
{ACAD_REACTORS
330
7DE1B343D9E43EA
102
}
330
7DE1B343D9E43EA
100
AcDbXrecord
 90
       70
  0
XRECORD
  5
7DE1B343D9E4403
102
{ACAD_REACTORS
330
7DE1B343D9E43EA
102
}
330
7DE1B343D9E43EA
100
AcDbXrecord
340
0
  0
XRECORD
  5
7DE1B343D9E4409
102
{ACAD_REACTORS
330
7DE1B343D9E43EA
102
}
330
7DE1B343D9E43EA
100
AcDbXrecord
 10
0.0
 20
0.0
 30
0.0
  0
XRECORD
  5
7DE1B343D9E4405
102
{ACAD_REACTORS
330
7DE1B343D9E43EA
102
}
330
7DE1B343D9E43EA
100
AcDbXrecord
 10
0.0
 20
0.0
 30
0.0
  0
XRECORD
  5
7DE1B343D9E4408
102
{ACAD_REACTORS
330
7DE1B343D9E43EA
102
}
330
7DE1B343D9E43EA
100
AcDbXrecord
 10
0.0
 20
0.0
 30
0.0
  0
XRECORD
  5
7DE1B343D9E4406
102
{ACAD_REACTORS
330
7DE1B343D9E43EA
102
}
330
7DE1B343D9E43EA
100
AcDbXrecord
 10
0.0
 20
0.0
 30
0.0
  0
XRECORD
  5
7DE1B343D9E4407
102
{ACAD_REACTORS
330
7DE1B343D9E43EA
102
}
330
7DE1B343D9E43EA
100
AcDbXrecord
 10
0.0
 20
0.0
 30
0.0
  0
XRECORD
  5
7DE1B343D9E4404
102
{ACAD_REACTORS
330
7DE1B343D9E43EA
102
}
330
7DE1B343D9E43EA
100
AcDbXrecord
 10
0.0
 20
0.0
 30
0.0
  0
XRECORD
  5
7DE1B343D9E4401
102
{ACAD_REACTORS
330
7DE1B343D9E43EA
102
}
330
7DE1B343D9E43EA
100
AcDbXrecord
340
0
  0
XRECORD
  5
7DE1B343D9E4402
102
{ACAD_REACTORS
330
7DE1B343D9E43EA
102
}
330
7DE1B343D9E43EA
100
AcDbXrecord
 70
     0
  0
XRECORD
  5
7DE1B343D9E43F6
102
{ACAD_REACTORS
330
7DE1B343D9E43EA
102
}
330
7DE1B343D9E43EA
100
AcDbXrecord
  1
{1E509F32-8DB7-11D6-88E6-0090279574E7}
  0
DICTIONARYVAR
  5
7DE1B343D9E43E8
102
{ACAD_REACTORS
330
7DE1B343D9E43E7
102
}
330
7DE1B343D9E43E7
100
DictionaryVariables
280
     0
  1
1
  0
ENDSEC
  0
EOF
