  0
SECTION
  2
HEADER
  9
$ACADVER
  1
AC1014
  9
$ACADMAINTVER
 70
     9
  9
$DWGCODEPAGE
  3
ANSI_1252
  9
$INSBASE
 10
0.9945727965583229
 20
0.9749284790063498
 30
0.0
  9
$EXTMIN
 10
-0.7484087826688202
 20
-0.5567894537343938
 30
0.0
  9
$EXTMAX
 10
2.736810539078307
 20
0.980106148536014
 30
0.0
  9
$LIMMIN
 10
0.0
 20
0.0
  9
$LIMMAX
 10
18.0
 20
12.0
  9
$ORTHOMODE
 70
     1
  9
$REGENMODE
 70
     1
  9
$FILLMODE
 70
     1
  9
$QTEXTMODE
 70
     0
  9
$MIRRTEXT
 70
     0
  9
$DRAGMODE
 70
     2
  9
$LTSCALE
 40
1.0
  9
$OSMODE
 70
    39
  9
$ATTMODE
 70
     1
  9
$TEXTSIZE
 40
0.125
  9
$TRACEWID
 40
0.05
  9
$TEXTSTYLE
  7
ROMANS
  9
$CLAYER
  8
0
  9
$CELTYPE
  6
BYLAYER
  9
$CECOLOR
 62
   256
  9
$CELTSCALE
 40
1.0
  9
$DELOBJ
 70
     1
  9
$DISPSILH
 70
     1
  9
$DIMSCALE
 40
1.0
  9
$DIMASZ
 40
0.125
  9
$DIMEXO
 40
0.125
  9
$DIMDLI
 40
0.375
  9
$DIMRND
 40
0.0
  9
$DIMDLE
 40
0.0
  9
$DIMEXE
 40
0.125
  9
$DIMTP
 40
0.0
  9
$DIMTM
 40
0.0
  9
$DIMTXT
 40
0.125
  9
$DIMCEN
 40
-0.125
  9
$DIMTSZ
 40
0.0
  9
$DIMTOL
 70
     0
  9
$DIMLIM
 70
     0
  9
$DIMTIH
 70
     1
  9
$DIMTOH
 70
     1
  9
$DIMSE1
 70
     0
  9
$DIMSE2
 70
     0
  9
$DIMTAD
 70
     0
  9
$DIMZIN
 70
     4
  9
$DIMBLK
  1

  9
$DIMASO
 70
     1
  9
$DIMSHO
 70
     1
  9
$DIMPOST
  1

  9
$DIMAPOST
  1

  9
$DIMALT
 70
     0
  9
$DIMALTD
 70
     2
  9
$DIMALTF
 40
25.4
  9
$DIMLFAC
 40
1.0
  9
$DIMTOFL
 70
     0
  9
$DIMTVP
 40
0.0
  9
$DIMTIX
 70
     1
  9
$DIMSOXD
 70
     0
  9
$DIMSAH
 70
     0
  9
$DIMBLK1
  1

  9
$DIMBLK2
  1

  9
$DIMSTYLE
  2
STANDARD
  9
$DIMCLRD
 70
     0
  9
$DIMCLRE
 70
     0
  9
$DIMCLRT
 70
     0
  9
$DIMTFAC
 40
1.0
  9
$DIMGAP
 40
0.09
  9
$DIMJUST
 70
     0
  9
$DIMSD1
 70
     0
  9
$DIMSD2
 70
     0
  9
$DIMTOLJ
 70
     1
  9
$DIMTZIN
 70
     4
  9
$DIMALTZ
 70
     0
  9
$DIMALTTZ
 70
     0
  9
$DIMFIT
 70
     3
  9
$DIMUPT
 70
     0
  9
$DIMUNIT
 70
     2
  9
$DIMDEC
 70
     3
  9
$DIMTDEC
 70
     3
  9
$DIMALTU
 70
     2
  9
$DIMALTTD
 70
     2
  9
$DIMTXSTY
  7
ROMANS
  9
$DIMAUNIT
 70
     0
  9
$LUNITS
 70
     2
  9
$LUPREC
 70
     3
  9
$SKETCHINC
 40
0.1
  9
$FILLETRAD
 40
0.03125
  9
$AUNITS
 70
     0
  9
$AUPREC
 70
     0
  9
$MENU
  1
ACAD
  9
$ELEVATION
 40
0.0
  9
$PELEVATION
 40
0.0
  9
$THICKNESS
 40
0.0
  9
$LIMCHECK
 70
     0
  9
$BLIPMODE
 70
     0
  9
$CHAMFERA
 40
0.0
  9
$CHAMFERB
 40
0.0
  9
$CHAMFERC
 40
0.0
  9
$CHAMFERD
 40
0.0
  9
$SKPOLY
 70
     0
  9
$TDCREATE
 40
2448994.643725463
  9
$TDUPDATE
 40
2452458.310832233
  9
$TDINDWG
 40
0.0012196412
  9
$TDUSRTIMER
 40
0.0012196412
  9
$USRTIMER
 70
     1
  9
$ANGBASE
 50
0.0
  9
$ANGDIR
 70
     0
  9
$PDMODE
 70
     0
  9
$PDSIZE
 40
0.0
  9
$PLINEWID
 40
0.0
  9
$COORDS
 70
     2
  9
$SPLFRAME
 70
     0
  9
$SPLINETYPE
 70
     6
  9
$SPLINESEGS
 70
     8
  9
$ATTDIA
 70
     0
  9
$ATTREQ
 70
     1
  9
$HANDLING
 70
 22529
  9
$HANDSEED
  5
7DE1B343D9E296B
  9
$SURFTAB1
 70
     6
  9
$SURFTAB2
 70
     6
  9
$SURFTYPE
 70
     6
  9
$SURFU
 70
     6
  9
$SURFV
 70
     6
  9
$UCSNAME
  2

  9
$UCSORG
 10
0.0
 20
0.0
 30
0.0
  9
$UCSXDIR
 10
1.0
 20
0.0
 30
0.0
  9
$UCSYDIR
 10
0.0
 20
1.0
 30
0.0
  9
$PUCSNAME
  2

  9
$PUCSORG
 10
0.0
 20
0.0
 30
0.0
  9
$PUCSXDIR
 10
1.0
 20
0.0
 30
0.0
  9
$PUCSYDIR
 10
0.0
 20
1.0
 30
0.0
  9
$USERI1
 70
     0
  9
$USERI2
 70
     0
  9
$USERI3
 70
     0
  9
$USERI4
 70
     0
  9
$USERI5
 70
     0
  9
$USERR1
 40
0.0
  9
$USERR2
 40
0.0
  9
$USERR3
 40
0.0
  9
$USERR4
 40
0.0
  9
$USERR5
 40
0.0
  9
$WORLDVIEW
 70
     1
  9
$SHADEDGE
 70
     3
  9
$SHADEDIF
 70
    70
  9
$TILEMODE
 70
     1
  9
$MAXACTVP
 70
    16
  9
$PINSBASE
 10
2.349024343738807
 20
50.00000000000001
 30
2.539634136050253
  9
$PLIMCHECK
 70
     0
  9
$PEXTMIN
 10
1.000000000000000E+20
 20
1.000000000000000E+20
 30
1.000000000000000E+20
  9
$PEXTMAX
 10
-1.000000000000000E+20
 20
-1.000000000000000E+20
 30
-1.000000000000000E+20
  9
$PLIMMIN
 10
0.0
 20
0.0
  9
$PLIMMAX
 10
12.0
 20
9.0
  9
$UNITMODE
 70
     0
  9
$VISRETAIN
 70
     0
  9
$PLINEGEN
 70
     1
  9
$PSLTSCALE
 70
     0
  9
$TREEDEPTH
 70
  3020
  9
$PICKSTYLE
 70
     1
  9
$CMLSTYLE
  2
STANDARD
  9
$CMLJUST
 70
     0
  9
$CMLSCALE
 40
1.0
  9
$PROXYGRAPHICS
 70
     1
  9
$MEASUREMENT
 70
     0
  0
ENDSEC
  0
SECTION
  2
CLASSES
  0
CLASS
  1
LWPOLYLINE
  2
AcDbPolyline
  3
AutoCAD 2000
 90
        0
280
     0
281
     1
  0
CLASS
  1
ACDBDICTIONARYWDFLT
  2
AcDbDictionaryWithDefault
  3
AutoCAD 2000
 90
        0
280
     0
281
     0
  0
CLASS
  1
ACDBPLACEHOLDER
  2
AcDbPlaceHolder
  3
AutoCAD 2000
 90
        0
280
     0
281
     0
  0
CLASS
  1
LAYOUT
  2
AcDbLayout
  3
AutoCAD 2000
 90
        0
280
     0
281
     0
  0
CLASS
  1
DICTIONARYVAR
  2
AcDbDictionaryVar
  3
AutoCAD 2000
 90
        0
280
     0
281
     0
  0
CLASS
  1
LONG_TRANSACTION
  2
AcDbLongTransaction
  3
AutoCAD 2000
 90
        0
280
     0
281
     0
  0
CLASS
  1
LWPOLYLINE
  2
AcDbPolyline
  3
AutoCAD 2000
 90
        0
280
     0
281
     1
  0
CLASS
  1
HATCH
  2
AcDbHatch
  3
AutoCAD 2000
 90
        0
280
     0
281
     1
  0
CLASS
  1
XRECORD
  2
AcDbXrecord
  3
AutoCAD 2000
 90
        0
280
     0
281
     0
  0
ENDSEC
  0
SECTION
  2
TABLES
  0
TABLE
  2
VPORT
  5
7DE1B343D9E28F6
330
0
100
AcDbSymbolTable
 70
     2
  0
VPORT
  5
7DE1B343D9E2946
330
7DE1B343D9E28F6
100
AcDbSymbolTableRecord
100
AcDbViewportTableRecord
  2
*ACTIVE
 70
     0
 10
0.0
 20
0.0
 11
1.0
 21
1.0
 12
3.969495868926867
 22
0.2116279901107934
 13
0.0
 23
0.0
 14
0.015625
 24
0.015625
 15
0.0
 25
0.0
 16
0.0
 26
0.0
 36
1.0
 17
0.0
 27
0.0
 37
0.0
 40
2.282041475632742
 41
4.320930232558139
 42
50.0
 43
0.0
 44
0.0
 50
0.0
 51
0.0
 71
     0
 72
  2000
 73
     1
 74
     0
 75
     0
 76
     0
 77
     0
 78
     0
  0
ENDTAB
  0
TABLE
  2
LTYPE
  5
7DE1B343D9E28F3
330
0
100
AcDbSymbolTable
 70
     1
  0
LTYPE
  5
7DE1B343D9E2900
330
7DE1B343D9E28F3
100
AcDbSymbolTableRecord
100
AcDbLinetypeTableRecord
  2
BYBLOCK
 70
     0
  3

 72
    65
 73
     0
 40
0.0
  0
LTYPE
  5
7DE1B343D9E2901
330
7DE1B343D9E28F3
100
AcDbSymbolTableRecord
100
AcDbLinetypeTableRecord
  2
BYLAYER
 70
     0
  3

 72
    65
 73
     0
 40
0.0
  0
LTYPE
  5
7DE1B343D9E2902
330
7DE1B343D9E28F3
100
AcDbSymbolTableRecord
100
AcDbLinetypeTableRecord
  2
CONTINUOUS
 70
     0
  3
Solid line
 72
    65
 73
     0
 40
0.0
  0
ENDTAB
  0
TABLE
  2
LAYER
  5
7DE1B343D9E28F0
330
0
100
AcDbSymbolTable
 70
     4
  0
LAYER
  5
7DE1B343D9E28FD
330
7DE1B343D9E28F0
100
AcDbSymbolTableRecord
100
AcDbLayerTableRecord
  2
0
 70
     0
 62
     7
  6
CONTINUOUS
  0
LAYER
  5
7DE1B343D9E290D
330
7DE1B343D9E28F0
100
AcDbSymbolTableRecord
100
AcDbLayerTableRecord
  2
SCALE
 70
     0
 62
     7
  6
CONTINUOUS
  0
LAYER
  5
7DE1B343D9E290E
330
7DE1B343D9E28F0
100
AcDbSymbolTableRecord
100
AcDbLayerTableRecord
  2
TEXT
 70
     0
 62
     3
  6
CONTINUOUS
  0
LAYER
  5
7DE1B343D9E291E
330
7DE1B343D9E28F0
100
AcDbSymbolTableRecord
100
AcDbLayerTableRecord
  2
ASHADE
 70
     4
 62
     7
  6
CONTINUOUS
  0
ENDTAB
  0
TABLE
  2
STYLE
  5
7DE1B343D9E28F1
330
0
100
AcDbSymbolTable
 70
     4
  0
STYLE
  5
7DE1B343D9E28FE
330
7DE1B343D9E28F1
100
AcDbSymbolTableRecord
100
AcDbTextStyleTableRecord
  2
STANDARD
 70
     0
 40
0.0
 41
1.0
 50
0.0
 71
     0
 42
0.3125
  3
txt
  4

  0
STYLE
  5
7DE1B343D9E290A
330
7DE1B343D9E28F1
100
AcDbSymbolTableRecord
100
AcDbTextStyleTableRecord
  2
ITALICC
 70
     0
 40
0.0
 41
1.0
 50
0.0
 71
     0
 42
0.125
  3
italicc
  4

  0
STYLE
  5
7DE1B343D9E291B
330
7DE1B343D9E28F1
100
AcDbSymbolTableRecord
100
AcDbTextStyleTableRecord
  2
ASHADE
 70
     0
 40
0.2
 41
1.0
 50
0.0
 71
     0
 42
0.3125
  3
simplex
  4

  0
STYLE
  5
7DE1B343D9E2936
330
7DE1B343D9E28F1
100
AcDbSymbolTableRecord
100
AcDbTextStyleTableRecord
  2
ROMANS
 70
     0
 40
0.0
 41
1.0
 50
0.0
 71
     0
 42
0.125
  3
romans.shx
  4

  0
ENDTAB
  0
TABLE
  2
VIEW
  5
7DE1B343D9E28F4
330
0
100
AcDbSymbolTable
 70
     0
  0
ENDTAB
  0
TABLE
  2
UCS
  5
7DE1B343D9E28F5
330
0
100
AcDbSymbolTable
 70
     0
  0
ENDTAB
  0
TABLE
  2
APPID
  5
7DE1B343D9E28F7
330
0
100
AcDbSymbolTable
 70
     6
  0
APPID
  5
7DE1B343D9E28FF
330
7DE1B343D9E28F7
100
AcDbSymbolTableRecord
100
AcDbRegAppTableRecord
  2
ACAD
 70
     0
  0
APPID
  5
7DE1B343D9E291C
330
7DE1B343D9E28F7
100
AcDbSymbolTableRecord
100
AcDbRegAppTableRecord
  2
AVE_RENDER
 70
     0
  0
APPID
  5
7DE1B343D9E291D
330
7DE1B343D9E28F7
100
AcDbSymbolTableRecord
100
AcDbRegAppTableRecord
  2
AVE_ENTITY_MATERIAL
 70
     0
  0
APPID
  5
7DE1B343D9E292A
330
7DE1B343D9E28F7
100
AcDbSymbolTableRecord
100
AcDbRegAppTableRecord
  2
AVE_FINISH
 70
     0
  0
APPID
  5
7DE1B343D9E292B
330
7DE1B343D9E28F7
100
AcDbSymbolTableRecord
100
AcDbRegAppTableRecord
  2
AVE_MATERIAL
 70
     0
  0
APPID
  5
7DE1B343D9E292C
330
7DE1B343D9E28F7
100
AcDbSymbolTableRecord
100
AcDbRegAppTableRecord
  2
AVE_GLOBAL
 70
     0
  0
ENDTAB
  0
TABLE
  2
DIMSTYLE
  5
7DE1B343D9E28F8
330
0
100
AcDbSymbolTable
 70
     1
  0
DIMSTYLE
105
7DE1B343D9E2913
330
7DE1B343D9E28F8
100
AcDbSymbolTableRecord
100
AcDbDimStyleTableRecord
  2
STANDARD
 70
     0
  3

  4

  5

  6

  7

 40
1.0
 41
0.125
 42
0.125
 43
0.375
 44
0.125
 45
0.0
 46
0.0
 47
0.0
 48
0.0
140
0.125
141
-0.125
142
0.0
143
25.4
144
1.0
145
0.0
146
1.0
147
0.09
 71
     0
 72
     0
 73
     1
 74
     1
 75
     0
 76
     0
 77
     0
 78
     4
170
     0
171
     2
172
     0
173
     0
174
     1
175
     0
176
     0
177
     0
178
     0
270
     2
271
     3
272
     3
273
     2
274
     2
340
7DE1B343D9E2936
275
     0
280
     0
281
     0
282
     0
283
     1
284
     4
285
     0
286
     0
287
     3
288
     0
  0
ENDTAB
  0
TABLE
  2
BLOCK_RECORD
  5
7DE1B343D9E28EF
330
0
100
AcDbSymbolTable
 70
     2
  0
BLOCK_RECORD
  5
7DE1B343D9E2906
102
{ACAD_XDICTIONARY
360
7DE1B343D9E2969
102
}
330
7DE1B343D9E28EF
100
AcDbSymbolTableRecord
100
AcDbBlockTableRecord
  2
*MODEL_SPACE
  0
BLOCK_RECORD
  5
7DE1B343D9E2903
102
{ACAD_XDICTIONARY
360
7DE1B343D9E2967
102
}
330
7DE1B343D9E28EF
100
AcDbSymbolTableRecord
100
AcDbBlockTableRecord
  2
*PAPER_SPACE
  0
BLOCK_RECORD
  5
7DE1B343D9E291F
330
7DE1B343D9E28EF
100
AcDbSymbolTableRecord
100
AcDbBlockTableRecord
  2
AVE_RENDER
  0
BLOCK_RECORD
  5
7DE1B343D9E292D
330
7DE1B343D9E28EF
100
AcDbSymbolTableRecord
100
AcDbBlockTableRecord
  2
AVE_GLOBAL
  0
ENDTAB
  0
ENDSEC
  0
SECTION
  2
BLOCKS
  0
BLOCK
  5
7DE1B343D9E2911
330
7DE1B343D9E2906
100
AcDbEntity
  8
0
100
AcDbBlockBegin
  2
*MODEL_SPACE
 70
     0
 10
0.0
 20
0.0
 30
0.0
  3
*MODEL_SPACE
  1

  0
ENDBLK
  5
7DE1B343D9E2912
330
7DE1B343D9E2906
100
AcDbEntity
  8
0
100
AcDbBlockEnd
  0
BLOCK
  5
7DE1B343D9E290F
330
7DE1B343D9E2903
100
AcDbEntity
 67
     1
  8
0
100
AcDbBlockBegin
  2
*PAPER_SPACE
 70
     0
 10
0.0
 20
0.0
 30
0.0
  3
*PAPER_SPACE
  1

  0
ENDBLK
  5
7DE1B343D9E2910
330
7DE1B343D9E2903
100
AcDbEntity
 67
     1
  8
0
100
AcDbBlockEnd
  0
BLOCK
  5
7DE1B343D9E2920
330
7DE1B343D9E291F
100
AcDbEntity
  8
0
100
AcDbBlockBegin
  2
AVE_RENDER
 70
     0
 10
0.0
 20
0.0
 30
0.0
  3
AVE_RENDER
  1
AVE_RENDER
  0
ENDBLK
  5
7DE1B343D9E2921
330
7DE1B343D9E291F
100
AcDbEntity
  8
0
100
AcDbBlockEnd
  0
BLOCK
  5
7DE1B343D9E292E
330
7DE1B343D9E292D
100
AcDbEntity
  8
0
100
AcDbBlockBegin
  2
AVE_GLOBAL
 70
     0
 10
0.0
 20
0.0
 30
0.0
  3
AVE_GLOBAL
  1
AVE_GLOBAL
  0
ENDBLK
  5
7DE1B343D9E292F
330
7DE1B343D9E292D
100
AcDbEntity
  8
0
100
AcDbBlockEnd
  0
ENDSEC
  0
SECTION
  2
ENTITIES
  0
LWPOLYLINE
  5
7DE1B343D9E152E
330
7DE1B343D9E2906
100
AcDbEntity
  8
SCALE
100
AcDbPolyline
 90
       22
 70
     1
 43
0.0
 10
1.344572796558322
 20
0.97492847900635
 42
-0.4142135623730951
 10
1.369572796558323
 20
0.9499284790063505
 10
1.369572796558323
 20
0.2499284790063504
 42
-0.8713212815092436
 10
1.320509601895079
 20
0.2431489021317349
 10
1.302072796558322
 20
0.3085878585727825
 42
0.1989123673796566
 10
1.319572796558323
 20
0.3508365959143132
 10
1.319572796558323
 20
0.3649284790063506
 10
1.284824059216791
 20
0.364928479006351
 42
-0.9999999999999889
 10
1.28482405921679
 20
0.41492847900635
 10
1.319572796558323
 20
0.4149284790063509
 10
1.319572796558323
 20
0.9249284790063502
 10
0.6695727965583233
 20
0.9249284790063502
 10
0.6695727965583235
 20
0.4149284790063509
 10
0.7043215338998558
 20
0.4149284790063505
 42
-0.9999999999999889
 10
0.7043215338998556
 20
0.364928479006351
 10
0.6695727965583233
 20
0.3649284790063506
 10
0.6695727965583233
 20
0.3508365959143132
 42
0.1989123673796566
 10
0.6870727965583238
 20
0.3085878585727825
 10
0.6686359912215671
 20
0.2431489021317349
 42
-0.8713212815092436
 10
0.6195727965583228
 20
0.2499284790063504
 10
0.619572796558323
 20
0.9499284790063505
 42
-0.4142135623730964
 10
0.6445727965583234
 20
0.9749284790063496
  0
TEXT
  5
7DE1B343D9E27B1
330
7DE1B343D9E2906
100
AcDbEntity
  8
TEXT
100
AcDbText
 10
0.2415966060821325
 20
-0.0987708496518122
 30
0.0
 40
0.125
  1
PART #110410
  7
ITALICC
 72
     1
 11
0.994572796558323
 21
-0.0987708496518122
 31
0.0
100
AcDbText
  0
TEXT
  5
7DE1B343D9E27B2
330
7DE1B343D9E2906
100
AcDbEntity
  8
TEXT
100
AcDbText
 10
1.407877954808643
 20
-0.5456934923241873
 30
0.0
 40
0.0522247191011236
  1
Phone  1-800-328-2495
 41
1.272321428571429
 72
     5
 11
2.736810539078307
 21
-0.5456934923241873
 31
0.0
100
AcDbText
  0
TEXT
  5
7DE1B343D9E27B3
330
7DE1B343D9E2906
100
AcDbEntity
  8
TEXT
100
AcDbText
 10
1.407877954808643
 20
-0.2659182114253108
 30
0.0
 40
0.0522247191011236
  1
Stylmark  Incorporated
 41
1.221428571428573
 72
     5
 11
2.736810539078307
 21
-0.2659182114253108
 31
0.0
100
AcDbText
  0
TEXT
  5
7DE1B343D9E27B4
330
7DE1B343D9E2906
100
AcDbEntity
  8
TEXT
100
AcDbText
 10
1.407877954808643
 20
-0.3591766383916029
 30
0.0
 40
0.0522247191011236
  1
6536 Main St. N.E. * P.O. Box 32008
 41
0.8388932496075366
 72
     5
 11
2.736810539078307
 21
-0.3591766383916029
 31
0.0
100
AcDbText
  0
TEXT
  5
7DE1B343D9E27B5
330
7DE1B343D9E2906
100
AcDbEntity
  8
TEXT
100
AcDbText
 10
1.407877954808643
 20
-0.4524350653578951
 30
0.0
 40
0.0522247191011236
  1
Minneapolis, MN 55432-0008
 41
1.11444212721585
 72
     5
 11
2.736810539078307
 21
-0.4524350653578951
 31
0.0
100
AcDbText
  0
LWPOLYLINE
  5
7DE1B343D9E27B6
330
7DE1B343D9E2906
100
AcDbEntity
  8
TEXT
100
AcDbPolyline
 90
        3
 70
     0
 43
0.0006660908203125
 10
-0.748075737258664
 20
-0.4320487296867525
 10
-0.748075737258664
 20
-0.5452841691398801
 10
-0.6348402978055417
 20
-0.5452841691398801
  0
LWPOLYLINE
  5
7DE1B343D9E27BB
330
7DE1B343D9E2906
100
AcDbEntity
  8
TEXT
100
AcDbPolyline
 90
        3
 70
     0
 43
0.0006660908203125
 10
-0.7214321044461665
 20
-0.4320487296867525
 10
-0.7214321044461665
 20
-0.5186405363273791
 10
-0.6348402978055417
 20
-0.5186405363273791
  0
LWPOLYLINE
  5
7DE1B343D9E27C0
330
7DE1B343D9E2906
100
AcDbEntity
  8
TEXT
100
AcDbPolyline
 90
        2
 70
     0
 43
0.0001332181640625
 10
-0.6748057470242897
 20
-0.4220573673820672
 10
-0.748075737258664
 20
-0.4320487296867525
  0
LWPOLYLINE
  5
7DE1B343D9E27C4
330
7DE1B343D9E2906
100
AcDbEntity
  8
TEXT
100
AcDbPolyline
 90
        2
 70
     0
 43
0.0001332181640625
 10
-0.7214321044461665
 20
-0.4320487296867525
 10
-0.6614839306180392
 20
-0.4220573673820672
  0
LWPOLYLINE
  5
7DE1B343D9E27C8
330
7DE1B343D9E2906
100
AcDbEntity
  8
TEXT
100
AcDbPolyline
 90
        2
 70
     0
 43
0.0001332181640625
 10
-0.7214321044461665
 20
-0.5186405363273791
 10
-0.6614839306180392
 20
-0.4586923624992535
  0
LWPOLYLINE
  5
7DE1B343D9E27CC
330
7DE1B343D9E2906
100
AcDbEntity
  8
TEXT
100
AcDbPolyline
 90
        3
 70
     0
 43
0.0006660908203125
 10
-0.6348402978055417
 20
-0.2788478410148768
 10
-0.748075737258664
 20
-0.2788478410148768
 10
-0.748075737258664
 20
-0.3920832804680044
  0
LWPOLYLINE
  5
7DE1B343D9E27D1
330
7DE1B343D9E2906
100
AcDbEntity
  8
TEXT
100
AcDbPolyline
 90
        3
 70
     0
 43
0.0006660908203125
 10
-0.6348402978055417
 20
-0.3054914738273778
 10
-0.7214321044461665
 20
-0.3054914738273778
 10
-0.7214321044461665
 20
-0.3920832804680044
  0
LWPOLYLINE
  5
7DE1B343D9E27D6
330
7DE1B343D9E2906
100
AcDbEntity
  8
TEXT
100
AcDbPolyline
 90
        2
 70
     0
 43
0.0001332181640625
 10
-0.7214321044461665
 20
-0.3054914738273778
 10
-0.6614839306180409
 20
-0.3654396476555034
  0
LWPOLYLINE
  5
7DE1B343D9E27DA
330
7DE1B343D9E2906
100
AcDbEntity
  8
TEXT
100
AcDbPolyline
 90
        2
 70
     0
 43
0.0001332181640625
 10
-0.7214321044461665
 20
-0.3920832804680044
 10
-0.6614839306180409
 20
-0.4020746427726932
  0
LWPOLYLINE
  5
7DE1B343D9E27DE
330
7DE1B343D9E2906
100
AcDbEntity
  8
TEXT
100
AcDbPolyline
 90
        2
 70
     0
 43
0.0001332181640625
 10
-0.748075737258664
 20
-0.3920832804680044
 10
-0.6748057470242897
 20
-0.4020746427726932
  0
LWPOLYLINE
  5
7DE1B343D9E27E2
330
7DE1B343D9E2906
100
AcDbEntity
  8
TEXT
100
AcDbPolyline
 90
        2
 70
     0
 43
0.0006660908203125
 10
-0.7214321044461665
 20
-0.4320487296867525
 10
-0.748075737258664
 20
-0.4320487296867525
  0
LWPOLYLINE
  5
7DE1B343D9E27E6
330
7DE1B343D9E2906
100
AcDbEntity
  8
TEXT
100
AcDbPolyline
 90
        2
 70
     0
 43
0.0006660908203125
 10
-0.7214321044461665
 20
-0.3920832804680044
 10
-0.748075737258664
 20
-0.3920832804680044
  0
LINE
  5
7DE1B343D9E27EA
330
7DE1B343D9E2906
100
AcDbEntity
  8
TEXT
100
AcDbLine
 10
0.7671146918678336
 20
-0.3431245356716458
 30
0.0
 11
0.6599084184805442
 21
-0.3431245356716458
 31
0.0
  0
LINE
  5
7DE1B343D9E27EB
330
7DE1B343D9E2906
100
AcDbEntity
  8
TEXT
100
AcDbLine
 10
0.7961455902123121
 20
-0.2788478410148803
 30
0.0
 11
0.6613136809952529
 21
-0.2788478410148803
 31
0.0
  0
ARC
  5
7DE1B343D9E27EC
330
7DE1B343D9E2906
100
AcDbEntity
  8
TEXT
100
AcDbCircle
 10
0.7206277773885699
 20
-0.4480850902778967
 30
0.0
 40
0.0676855811441166
100
AcDbArc
 50
90.0
 51
153.7768192527749
  0
LWPOLYLINE
  5
7DE1B343D9E27ED
330
7DE1B343D9E2906
100
AcDbEntity
  8
TEXT
100
AcDbPolyline
 90
        2
 70
     0
 43
0.0
 10
0.6588759230257342
 20
-0.5018299290529532
 42
0.2901071551932823
 10
0.7019518558933698
 20
-0.5453208740033914
 42
5.328517124445801
  0
ARC
  5
7DE1B343D9E27F1
330
7DE1B343D9E2906
100
AcDbEntity
  8
TEXT
100
AcDbCircle
 10
0.0154963997170841
 20
-0.4855284826653416
 30
0.0
 40
0.0601160179737537
100
AcDbArc
 50
180.0000000000003
 51
264.0521544866073
  0
LINE
  5
7DE1B343D9E27F2
330
7DE1B343D9E2906
100
AcDbEntity
  8
TEXT
100
AcDbLine
 10
0.0190117553426319
 20
-0.2444599234207422
 30
0.0
 11
-0.0410308495013752
 21
-0.2444599234207422
 31
0.0
  0
ARC
  5
7DE1B343D9E27F3
330
7DE1B343D9E2906
100
AcDbEntity
  8
TEXT
100
AcDbCircle
 10
-0.2167626023998865
 20
-0.3609353004613821
 30
0.0
 40
0.0820874594465043
100
AcDbArc
 50
90.0
 51
270.0
  0
LWPOLYLINE
  5
7DE1B343D9E27F4
330
7DE1B343D9E2906
100
AcDbEntity
  8
TEXT
100
AcDbPolyline
 90
        2
 70
     0
 43
0.0001332181640625
 10
-0.6248489355008511
 20
-0.3521178312492564
 10
-0.6348402978055417
 20
-0.2788478410148768
  0
LWPOLYLINE
  5
7DE1B343D9E27F8
330
7DE1B343D9E2906
100
AcDbEntity
  8
TEXT
100
AcDbPolyline
 90
        2
 70
     0
 43
0.0001332181640625
 10
-0.6348402978055417
 20
-0.3054914738273778
 10
-0.6248489355008511
 20
-0.3654396476555034
  0
LWPOLYLINE
  5
7DE1B343D9E27FC
330
7DE1B343D9E2906
100
AcDbEntity
  8
TEXT
100
AcDbPolyline
 90
        3
 70
     0
 43
0.0006660908203125
 10
-0.4816394091336642
 20
-0.3920832804680044
 10
-0.4816394091336642
 20
-0.2788478410148768
 10
-0.5948748485867901
 20
-0.2788478410148768
  0
LWPOLYLINE
  5
7DE1B343D9E2801
330
7DE1B343D9E2906
100
AcDbEntity
  8
TEXT
100
AcDbPolyline
 90
        3
 70
     0
 43
0.0006660908203125
 10
-0.5082830419461653
 20
-0.3920832804680044
 10
-0.5082830419461653
 20
-0.3054914738273778
 10
-0.5948748485867901
 20
-0.3054914738273778
  0
LWPOLYLINE
  5
7DE1B343D9E2806
330
7DE1B343D9E2906
100
AcDbEntity
  8
TEXT
100
AcDbPolyline
 90
        2
 70
     0
 43
0.0001332181640625
 10
-0.5082830419461653
 20
-0.3054914738273778
 10
-0.5682312157742891
 20
-0.3654396476555034
  0
LWPOLYLINE
  5
7DE1B343D9E280A
330
7DE1B343D9E2906
100
AcDbEntity
  8
TEXT
100
AcDbPolyline
 90
        2
 70
     0
 43
0.0001332181640625
 10
-0.5948748485867901
 20
-0.3054914738273778
 10
-0.6048662108914789
 20
-0.3654396476555034
  0
LWPOLYLINE
  5
7DE1B343D9E280E
330
7DE1B343D9E2906
100
AcDbEntity
  8
TEXT
100
AcDbPolyline
 90
        2
 70
     0
 43
0.0001332181640625
 10
-0.5948748485867901
 20
-0.2788478410148768
 10
-0.6048662108914789
 20
-0.3521178312492564
  0
LWPOLYLINE
  5
7DE1B343D9E2812
330
7DE1B343D9E2906
100
AcDbEntity
  8
TEXT
100
AcDbPolyline
 90
        2
 70
     0
 43
0.0001332181640625
 10
-0.5549093993680403
 20
-0.4020746427726932
 10
-0.4816394091336642
 20
-0.3920832804680044
  0
LWPOLYLINE
  5
7DE1B343D9E2816
330
7DE1B343D9E2906
100
AcDbEntity
  8
TEXT
100
AcDbPolyline
 90
        2
 70
     0
 43
0.0001332181640625
 10
-0.5082830419461653
 20
-0.3920832804680044
 10
-0.5682312157742891
 20
-0.4020746427726932
  0
LWPOLYLINE
  5
7DE1B343D9E281A
330
7DE1B343D9E2906
100
AcDbEntity
  8
TEXT
100
AcDbPolyline
 90
        2
 70
     0
 43
0.0001332181640625
 10
-0.4816394091336642
 20
-0.4320487296867525
 10
-0.5549093993680403
 20
-0.4220573673820672
  0
LWPOLYLINE
  5
7DE1B343D9E281E
330
7DE1B343D9E2906
100
AcDbEntity
  8
TEXT
100
AcDbPolyline
 90
        2
 70
     0
 43
0.0001332181640625
 10
-0.5082830419461653
 20
-0.4320487296867525
 10
-0.5682312157742891
 20
-0.4220573673820672
  0
LWPOLYLINE
  5
7DE1B343D9E2822
330
7DE1B343D9E2906
100
AcDbEntity
  8
TEXT
100
AcDbPolyline
 90
        2
 70
     0
 43
0.0001332181640625
 10
-0.5082830419461653
 20
-0.5186405363273791
 10
-0.5682312157742891
 20
-0.4586923624992535
  0
LWPOLYLINE
  5
7DE1B343D9E2826
330
7DE1B343D9E2906
100
AcDbEntity
  8
TEXT
100
AcDbPolyline
 90
        3
 70
     0
 43
0.0006660908203125
 10
-0.5948748485867901
 20
-0.5186405363273791
 10
-0.5082830419461653
 20
-0.5186405363273791
 10
-0.5082830419461653
 20
-0.4320487296867525
  0
LWPOLYLINE
  5
7DE1B343D9E282B
330
7DE1B343D9E2906
100
AcDbEntity
  8
TEXT
100
AcDbPolyline
 90
        3
 70
     0
 43
0.0006660908203125
 10
-0.5948748485867901
 20
-0.5452841691398801
 10
-0.4816394091336642
 20
-0.5452841691398801
 10
-0.4816394091336642
 20
-0.4320487296867525
  0
LWPOLYLINE
  5
7DE1B343D9E2830
330
7DE1B343D9E2906
100
AcDbEntity
  8
TEXT
100
AcDbPolyline
 90
        5
 70
     0
 43
0.0001332181640625
 10
-0.6248489355008511
 20
-0.472014178905504
 10
-0.6248489355008511
 20
-0.4586923624992535
 10
-0.6614839306180392
 20
-0.4586923624992535
 10
-0.6614839306180392
 20
-0.4220573673820672
 10
-0.6748057470242897
 20
-0.4220573673820672
  0
LWPOLYLINE
  5
7DE1B343D9E2837
330
7DE1B343D9E2906
100
AcDbEntity
  8
TEXT
100
AcDbPolyline
 90
        2
 70
     0
 43
0.0006660908203125
 10
-0.6348402978055417
 20
-0.5186405363273791
 10
-0.6348402978055417
 20
-0.5452841691398801
  0
LWPOLYLINE
  5
7DE1B343D9E283B
330
7DE1B343D9E2906
100
AcDbEntity
  8
TEXT
100
AcDbPolyline
 90
        2
 70
     0
 43
0.0001332181640625
 10
-0.6348402978055417
 20
-0.5186405363273791
 10
-0.6248489355008511
 20
-0.4586923624992535
  0
LWPOLYLINE
  5
7DE1B343D9E283F
330
7DE1B343D9E2906
100
AcDbEntity
  8
TEXT
100
AcDbPolyline
 90
        2
 70
     0
 43
0.0001332181640625
 10
-0.6348402978055417
 20
-0.5452841691398801
 10
-0.6248489355008511
 20
-0.472014178905504
  0
LWPOLYLINE
  5
7DE1B343D9E2843
330
7DE1B343D9E2906
100
AcDbEntity
  8
TEXT
100
AcDbPolyline
 90
        5
 70
     0
 43
0.0001332181640625
 10
-0.6748057470242897
 20
-0.4020746427726932
 10
-0.6614839306180409
 20
-0.4020746427726932
 10
-0.6614839306180409
 20
-0.3654396476555034
 10
-0.6248489355008511
 20
-0.3654396476555034
 10
-0.6248489355008511
 20
-0.3521178312492564
  0
LWPOLYLINE
  5
7DE1B343D9E284A
330
7DE1B343D9E2906
100
AcDbEntity
  8
TEXT
100
AcDbPolyline
 90
        5
 70
     0
 43
0.0001332181640625
 10
-0.6048662108914789
 20
-0.3521178312492564
 10
-0.6048662108914789
 20
-0.3654396476555034
 10
-0.5682312157742891
 20
-0.3654396476555034
 10
-0.5682312157742891
 20
-0.4020746427726932
 10
-0.5549093993680403
 20
-0.4020746427726932
  0
LWPOLYLINE
  5
7DE1B343D9E2851
330
7DE1B343D9E2906
100
AcDbEntity
  8
TEXT
100
AcDbPolyline
 90
        2
 70
     0
 43
0.0001332181640625
 10
-0.5948748485867901
 20
-0.5186405363273791
 10
-0.6048662108914789
 20
-0.4586923624992535
  0
LWPOLYLINE
  5
7DE1B343D9E2855
330
7DE1B343D9E2906
100
AcDbEntity
  8
TEXT
100
AcDbPolyline
 90
        2
 70
     0
 43
0.0001332181640625
 10
-0.6048662108914789
 20
-0.472014178905504
 10
-0.5948748485867901
 20
-0.5452841691398801
  0
LWPOLYLINE
  5
7DE1B343D9E2859
330
7DE1B343D9E2906
100
AcDbEntity
  8
TEXT
100
AcDbPolyline
 90
        2
 70
     0
 43
0.0006660908203125
 10
-0.5948748485867901
 20
-0.5186405363273791
 10
-0.5948748485867901
 20
-0.5452841691398801
  0
LWPOLYLINE
  5
7DE1B343D9E285D
330
7DE1B343D9E2906
100
AcDbEntity
  8
TEXT
100
AcDbPolyline
 90
        5
 70
     0
 43
0.0001332181640625
 10
-0.5549093993680403
 20
-0.4220573673820672
 10
-0.5682312157742891
 20
-0.4220573673820672
 10
-0.5682312157742891
 20
-0.4586923624992535
 10
-0.6048662108914789
 20
-0.4586923624992535
 10
-0.6048662108914789
 20
-0.472014178905504
  0
LWPOLYLINE
  5
7DE1B343D9E2864
330
7DE1B343D9E2906
100
AcDbEntity
  8
TEXT
100
AcDbPolyline
 90
        2
 70
     0
 43
0.0006660908203125
 10
-0.5082830419461653
 20
-0.3920832804680044
 10
-0.4816394091336642
 20
-0.3920832804680044
  0
LWPOLYLINE
  5
7DE1B343D9E2868
330
7DE1B343D9E2906
100
AcDbEntity
  8
TEXT
100
AcDbPolyline
 90
        2
 70
     0
 43
0.0006660908203125
 10
-0.5082830419461653
 20
-0.4320487296867525
 10
-0.4816394091336642
 20
-0.4320487296867525
  0
LINE
  5
7DE1B343D9E286C
330
7DE1B343D9E2906
100
AcDbEntity
  8
TEXT
100
AcDbLine
 10
-0.2115252722856393
 20
-0.3431245356716458
 30
0.0
 11
-0.0446196182566681
 21
-0.3431245356716458
 31
0.0
  0
LINE
  5
7DE1B343D9E286D
330
7DE1B343D9E2906
100
AcDbEntity
  8
TEXT
100
AcDbLine
 10
-0.1459251360413383
 20
-0.3789292572822736
 30
0.0
 11
-0.2115252722856393
 21
-0.3789292572822736
 31
0.0
  0
LINE
  5
7DE1B343D9E286E
330
7DE1B343D9E2906
100
AcDbEntity
  8
TEXT
100
AcDbLine
 10
-0.2988500618463909
 20
-0.5453208740033914
 30
0.0
 11
-0.1459251360413383
 21
-0.5453208740033914
 31
0.0
  0
LINE
  5
7DE1B343D9E286F
330
7DE1B343D9E2906
100
AcDbEntity
  8
TEXT
100
AcDbLine
 10
-0.1409847621350586
 20
-0.476963867669952
 30
0.0
 11
-0.2988500618463927
 21
-0.476963867669952
 31
0.0
  0
LINE
  5
7DE1B343D9E2870
330
7DE1B343D9E2906
100
AcDbEntity
  8
TEXT
100
AcDbLine
 10
-0.2167626023998874
 20
-0.4430227599078874
 30
0.0
 11
-0.1409847621350586
 21
-0.4430227599078874
 31
0.0
  0
ARC
  5
7DE1B343D9E2871
330
7DE1B343D9E2906
100
AcDbEntity
  8
TEXT
100
AcDbCircle
 10
-0.2115252722856384
 20
-0.3610268964769579
 30
0.0
 40
0.017902360805315
100
AcDbArc
 50
90.0
 51
270.0
  0
LINE
  5
7DE1B343D9E2872
330
7DE1B343D9E2906
100
AcDbEntity
  8
TEXT
100
AcDbLine
 10
-0.2988500618463927
 20
-0.476963867669952
 30
0.0
 11
-0.2988500618463909
 21
-0.5453208740033914
 31
0.0
  0
LINE
  5
7DE1B343D9E2873
330
7DE1B343D9E2906
100
AcDbEntity
  8
TEXT
100
AcDbLine
 10
-0.0446196182566681
 20
-0.3431245356716458
 30
0.0
 11
-0.0446196182566681
 21
-0.4855284826653416
 31
0.0
  0
ARC
  5
7DE1B343D9E2874
330
7DE1B343D9E2906
100
AcDbEntity
  8
TEXT
100
AcDbCircle
 10
-0.1459251360413374
 20
-0.4621250656428343
 30
0.0
 40
0.0831958083605586
100
AcDbArc
 50
270.0
 51
90.0
  0
ARC
  5
7DE1B343D9E2875
330
7DE1B343D9E2906
100
AcDbEntity
  8
TEXT
100
AcDbCircle
 10
-0.1409847621350577
 20
-0.459993313788918
 30
0.0
 40
0.0169705538810321
100
AcDbArc
 50
270.0
 51
90.0
  0
LWPOLYLINE
  5
7DE1B343D9E2876
330
7DE1B343D9E2906
100
AcDbEntity
  8
TEXT
100
AcDbPolyline
 90
        2
 70
     0
 43
0.0006660908203125
 10
-0.6348402978055417
 20
-0.3054914738273778
 10
-0.6348402978055417
 20
-0.2788478410148768
  0
LWPOLYLINE
  5
7DE1B343D9E287A
330
7DE1B343D9E2906
100
AcDbEntity
  8
TEXT
100
AcDbPolyline
 90
        2
 70
     0
 43
0.0006660908203125
 10
-0.5948748485867901
 20
-0.3054914738273778
 10
-0.5948748485867901
 20
-0.2788478410148768
  0
LINE
  5
7DE1B343D9E287E
330
7DE1B343D9E2906
100
AcDbEntity
  8
TEXT
100
AcDbLine
 10
-0.0410308495013752
 20
-0.2788478410148803
 30
0.0
 11
-0.2167626023998874
 21
-0.2788478410148803
 31
0.0
  0
LINE
  5
7DE1B343D9E287F
330
7DE1B343D9E2906
100
AcDbEntity
  8
TEXT
100
AcDbLine
 10
-0.0410308495013752
 20
-0.2444599234207422
 30
0.0
 11
-0.0410308495013752
 21
-0.2788478410148803
 31
0.0
  0
LINE
  5
7DE1B343D9E2880
330
7DE1B343D9E2906
100
AcDbEntity
  8
TEXT
100
AcDbLine
 10
0.1494410425184771
 20
-0.3797198371280009
 30
0.0
 11
0.0908107214865393
 21
-0.2788478410148803
 31
0.0
  0
LINE
  5
7DE1B343D9E2881
330
7DE1B343D9E2906
100
AcDbEntity
  8
TEXT
100
AcDbLine
 10
0.2081896053243426
 20
-0.2788478410148803
 30
0.0
 11
0.1494410425184771
 21
-0.3797198371280009
 31
0.0
  0
LINE
  5
7DE1B343D9E2882
330
7DE1B343D9E2906
100
AcDbEntity
  8
TEXT
100
AcDbLine
 10
0.3051202306840839
 20
-0.4629330359003922
 30
0.0
 11
0.3051202306840839
 21
-0.2108363632760698
 31
0.0
  0
LINE
  5
7DE1B343D9E2883
330
7DE1B343D9E2906
100
AcDbEntity
  8
TEXT
100
AcDbLine
 10
0.337432084821744
 20
-0.2788478410148803
 30
0.0
 11
0.337432084821744
 21
-0.4797120477472886
 31
0.0
  0
LINE
  5
7DE1B343D9E2884
330
7DE1B343D9E2906
100
AcDbEntity
  8
TEXT
100
AcDbLine
 10
0.337432084821744
 20
-0.4797120477472886
 30
0.0
 11
0.3204384479371427
 21
-0.4797120477472886
 31
0.0
  0
LINE
  5
7DE1B343D9E2885
330
7DE1B343D9E2906
100
AcDbEntity
  8
TEXT
100
AcDbLine
 10
0.3062598041802786
 20
-0.5453208740033914
 30
0.0
 11
0.4042631378797133
 21
-0.5453208740033914
 31
0.0
  0
LINE
  5
7DE1B343D9E2886
330
7DE1B343D9E2906
100
AcDbEntity
  8
TEXT
100
AcDbLine
 10
0.1398408055215228
 20
-0.5253623678983784
 30
0.0
 11
0.2371405116149674
 21
-0.3610121569631103
 31
0.0
  0
ARC
  5
7DE1B343D9E2887
330
7DE1B343D9E2906
100
AcDbEntity
  8
TEXT
100
AcDbCircle
 10
0.1057972456093088
 20
-0.5057731517296956
 30
0.0
 40
0.0392772371940762
100
AcDbArc
 50
270.1604552698595
 51
330.0831797321295
  0
LINE
  5
7DE1B343D9E2888
330
7DE1B343D9E2906
100
AcDbEntity
  8
TEXT
100
AcDbLine
 10
0.0092669892234376
 20
-0.5453208740033914
 30
0.0
 11
0.105907240298432
 21
-0.5450502349051091
 31
0.0
  0
LWPOLYLINE
  5
7DE1B343D9E2889
330
7DE1B343D9E2906
100
AcDbEntity
  8
TEXT
100
AcDbPolyline
 90
        6
 70
     1
 43
0.0
 10
0.0517907927985872
 20
-0.3431245356716458
 10
0.0214741985783791
 20
-0.3431245356716458
 10
0.0214741985783791
 20
-0.4662355337265402
 42
0.407328721240804
 10
0.0330178497398555
 20
-0.4780544484029262
 10
0.0936395487845863
 20
-0.4780544484029262
 10
0.1111048891919042
 20
-0.4452422193594471
  0
LINE
  5
7DE1B343D9E2891
330
7DE1B343D9E2906
100
AcDbEntity
  8
TEXT
100
AcDbLine
 10
0.2371405116149674
 20
-0.3610121569631103
 30
0.0
 11
0.2371405116149674
 21
-0.4937695317884666
 31
0.0
  0
ARC
  5
7DE1B343D9E2892
330
7DE1B343D9E2906
100
AcDbEntity
  8
TEXT
100
AcDbCircle
 10
0.3204384479371409
 20
-0.4643302415038632
 30
0.0
 40
0.0153818062434269
100
AcDbArc
 50
174.7883570302258
 51
270.0
  0
LWPOLYLINE
  5
7DE1B343D9E2893
330
7DE1B343D9E2906
100
AcDbEntity
  8
TEXT
100
AcDbPolyline
 90
        2
 70
     0
 43
0.0
 10
0.2371405116149656
 20
-0.4937695317884631
 42
0.3318488747599744
 10
0.3062598041802786
 20
-0.5453208740033914
 42
-6.868794160588311
  0
LINE
  5
7DE1B343D9E2897
330
7DE1B343D9E2906
100
AcDbEntity
  8
TEXT
100
AcDbLine
 10
0.4616522068689744
 20
-0.5453208740033914
 30
0.0
 11
0.5287102536508144
 21
-0.5453208740033914
 31
0.0
  0
LINE
  5
7DE1B343D9E2898
330
7DE1B343D9E2906
100
AcDbEntity
  8
TEXT
100
AcDbLine
 10
0.4616522068689744
 20
-0.3506783248377557
 30
0.0
 11
0.4616522068689744
 21
-0.5453208740033914
 31
0.0
  0
LINE
  5
7DE1B343D9E2899
330
7DE1B343D9E2906
100
AcDbEntity
  8
TEXT
100
AcDbLine
 10
0.4042631378797133
 20
-0.3431245356716458
 30
0.0
 11
0.4540984177028609
 21
-0.3431245356716458
 31
0.0
  0
LINE
  5
7DE1B343D9E289A
330
7DE1B343D9E2906
100
AcDbEntity
  8
TEXT
100
AcDbLine
 10
0.4042631378797133
 20
-0.5453208740033914
 30
0.0
 11
0.4042631378797133
 21
-0.3431245356716458
 31
0.0
  0
LWPOLYLINE
  5
7DE1B343D9E289B
330
7DE1B343D9E2906
100
AcDbEntity
  8
TEXT
100
AcDbPolyline
 90
        2
 70
     0
 43
0.0
 10
0.4540984177028591
 20
-0.3431245356716458
 42
-0.4142135623731017
 10
0.4616522068689726
 20
-0.3506783248377557
 42
-0.9999999999999998
  0
LINE
  5
7DE1B343D9E289F
330
7DE1B343D9E2906
100
AcDbEntity
  8
TEXT
100
AcDbLine
 10
0.6599084184805442
 20
-0.3431245356716458
 30
0.0
 11
0.6599084184805442
 21
-0.4181769417458524
 31
0.0
  0
LINE
  5
7DE1B343D9E28A0
330
7DE1B343D9E2906
100
AcDbEntity
  8
TEXT
100
AcDbLine
 10
0.5287102536508144
 20
-0.3431245356716458
 30
0.0
 11
0.5828438505717646
 21
-0.3431245356716458
 31
0.0
  0
LINE
  5
7DE1B343D9E28A1
330
7DE1B343D9E2906
100
AcDbEntity
  8
TEXT
100
AcDbLine
 10
0.5287102536508144
 20
-0.5453208740033914
 30
0.0
 11
0.5287102536508144
 21
-0.3431245356716458
 31
0.0
  0
LWPOLYLINE
  5
7DE1B343D9E28A2
330
7DE1B343D9E2906
100
AcDbEntity
  8
TEXT
100
AcDbPolyline
 90
        2
 70
     0
 43
0.0
 10
0.5828438505717628
 20
-0.3431245356716458
 42
-0.4142135623731017
 10
0.5903976397378763
 20
-0.3506783248377557
 42
-0.9999999999999998
  0
LWPOLYLINE
  5
7DE1B343D9E28A6
330
7DE1B343D9E2906
100
AcDbEntity
  8
TEXT
100
AcDbPolyline
 90
        4
 70
     0
 43
0.0
 10
0.5903976397378763
 20
-0.3506783248377557
 10
0.5903976397378763
 20
-0.5453208740033914
 10
0.6588759230257342
 20
-0.5453208740033914
 10
0.6588759230257342
 20
-0.5018299290529532
 42
-1.714843617202739
  0
LINE
  5
7DE1B343D9E28AC
330
7DE1B343D9E2906
100
AcDbEntity
  8
TEXT
100
AcDbLine
 10
0.0190117553426319
 20
-0.2788478410148803
 30
0.0
 11
0.0190117553426319
 21
-0.2444599234207422
 31
0.0
  0
LINE
  5
7DE1B343D9E28AD
330
7DE1B343D9E2906
100
AcDbEntity
  8
TEXT
100
AcDbLine
 10
0.0908107214865393
 20
-0.2788478410148803
 30
0.0
 11
0.0190117553426319
 21
-0.2788478410148803
 31
0.0
  0
LINE
  5
7DE1B343D9E28AE
330
7DE1B343D9E2906
100
AcDbEntity
  8
TEXT
100
AcDbLine
 10
0.2383115181177189
 20
-0.2788478410148803
 30
0.0
 11
0.2081896053243426
 21
-0.2788478410148803
 31
0.0
  0
LINE
  5
7DE1B343D9E28AF
330
7DE1B343D9E2906
100
AcDbEntity
  8
TEXT
100
AcDbLine
 10
0.2383115181177189
 20
-0.2108363632760698
 30
0.0
 11
0.2383115181177189
 21
-0.2788478410148803
 31
0.0
  0
LINE
  5
7DE1B343D9E28B0
330
7DE1B343D9E2906
100
AcDbEntity
  8
TEXT
100
AcDbLine
 10
0.3051202306840839
 20
-0.2108363632760698
 30
0.0
 11
0.2383115181177189
 21
-0.2108363632760698
 31
0.0
  0
LWPOLYLINE
  5
7DE1B343D9E28B1
330
7DE1B343D9E2906
100
AcDbEntity
  8
TEXT
100
AcDbPolyline
 90
        3
 70
     0
 43
0.0
 10
0.6255319902820862
 20
-0.2788478410148768
 10
0.5072318314660418
 20
-0.2788478410148768
 10
0.5072318314660418
 20
-0.3060153377757727
 42
-1.960274751411753
  0
LINE
  5
7DE1B343D9E28B6
330
7DE1B343D9E2906
100
AcDbEntity
  8
TEXT
100
AcDbLine
 10
0.4714501407528804
 20
-0.2788478410148803
 30
0.0
 11
0.337432084821744
 21
-0.2788478410148803
 31
0.0
  0
LWPOLYLINE
  5
7DE1B343D9E28B7
330
7DE1B343D9E2906
100
AcDbEntity
  8
TEXT
100
AcDbPolyline
 90
        2
 70
     0
 43
0.0
 10
0.4714501407528804
 20
-0.2788478410148768
 42
-0.3328679258950098
 10
0.5072318314660418
 20
-0.3060153377757727
 42
6.772930709997214
  0
LINE
  5
7DE1B343D9E28BB
330
7DE1B343D9E2906
100
AcDbEntity
  8
TEXT
100
AcDbLine
 10
0.6613136809952529
 20
-0.2788478410148803
 30
0.0
 11
0.6613136809952529
 21
-0.3071703867845242
 31
0.0
  0
LWPOLYLINE
  5
7DE1B343D9E28BC
330
7DE1B343D9E2906
100
AcDbEntity
  8
TEXT
100
AcDbPolyline
 90
        2
 70
     0
 43
0.0
 10
0.6255319902820862
 20
-0.2788478410148768
 42
-0.3277054968067132
 10
0.6613136809952512
 20
-0.3071703867845207
 42
6.667889725900311
  0
LINE
  5
7DE1B343D9E28C0
330
7DE1B343D9E2906
100
AcDbEntity
  8
TEXT
100
AcDbLine
 10
0.875105529087353
 20
-0.3840598195683077
 30
0.0
 11
0.8313547579054514
 21
-0.3018095435721625
 31
0.0
  0
LINE
  5
7DE1B343D9E28C1
330
7DE1B343D9E2906
100
AcDbEntity
  8
TEXT
100
AcDbLine
 10
0.875105529087353
 20
-0.2788478410148803
 30
0.0
 11
0.875105529087353
 21
-0.3840598195683077
 31
0.0
  0
LINE
  5
7DE1B343D9E28C2
330
7DE1B343D9E2906
100
AcDbEntity
  8
TEXT
100
AcDbLine
 10
1.102789268025722
 20
-0.3547131674264184
 30
0.0
 11
1.102789268025722
 21
-0.2133836352472796
 31
0.0
  0
LINE
  5
7DE1B343D9E28C3
330
7DE1B343D9E2906
100
AcDbEntity
  8
TEXT
100
AcDbLine
 10
1.149887426581706
 20
-0.2788478410148803
 30
0.0
 11
1.102789268025722
 21
-0.3547131674264184
 31
0.0
  0
LINE
  5
7DE1B343D9E28C4
330
7DE1B343D9E2906
100
AcDbEntity
  8
TEXT
100
AcDbLine
 10
1.160322143345629
 20
-0.3887410839558539
 30
0.0
 11
1.224879259311334
 21
-0.2788478410148803
 31
0.0
  0
LINE
  5
7DE1B343D9E28C5
330
7DE1B343D9E2906
100
AcDbEntity
  8
TEXT
100
AcDbLine
 10
1.038954276802948
 20
-0.5453208740033914
 30
0.0
 11
1.103332461121569
 21
-0.5453208740033914
 31
0.0
  0
LWPOLYLINE
  5
7DE1B343D9E28C6
330
7DE1B343D9E2906
100
AcDbEntity
  8
TEXT
100
AcDbPolyline
 90
        2
 70
     0
 43
0.0
 10
0.8790452063923908
 20
-0.5018299290529532
 42
-0.2901071551932486
 10
0.8359692735247463
 20
-0.5453208740033914
 42
-5.328517124445184
  0
ARC
  5
7DE1B343D9E28CA
330
7DE1B343D9E2906
100
AcDbEntity
  8
TEXT
100
AcDbCircle
 10
0.7671146918678318
 20
-0.3714839106716431
 30
0.0
 40
0.028359375
100
AcDbArc
 50
25.78218179591245
 51
90.0
  0
LINE
  5
7DE1B343D9E28CB
330
7DE1B343D9E2906
100
AcDbEntity
  8
TEXT
100
AcDbLine
 10
0.8029157671719548
 20
-0.380399509133778
 30
0.0
 11
0.7926510067583905
 21
-0.3591489695610837
 31
0.0
  0
LINE
  5
7DE1B343D9E28CC
330
7DE1B343D9E2906
100
AcDbEntity
  8
TEXT
100
AcDbLine
 10
0.7206277773885717
 20
-0.380399509133778
 30
0.0
 11
0.8029157671719548
 21
-0.380399509133778
 31
0.0
  0
LWPOLYLINE
  5
7DE1B343D9E28CD
330
7DE1B343D9E2906
100
AcDbEntity
  8
TEXT
100
AcDbPolyline
 90
        4
 70
     1
 43
0.0
 10
0.8158468084548538
 20
-0.4423568960193661
 10
0.7271864897949954
 20
-0.4423568960193661
 42
0.9999999999999998
 10
0.7271864897949954
 20
-0.4847554365232269
 10
0.8158468084548538
 20
-0.4847554365232269
 42
1.0
  0
LWPOLYLINE
  5
7DE1B343D9E28D3
330
7DE1B343D9E2906
100
AcDbEntity
  8
TEXT
100
AcDbPolyline
 90
        2
 70
     0
 43
0.0
 10
0.7019518558933698
 20
-0.5453208740033914
 10
0.8359692735247463
 20
-0.5453208740033914
 42
0.9999999999999998
  0
LINE
  5
7DE1B343D9E28D7
330
7DE1B343D9E2906
100
AcDbEntity
  8
TEXT
100
AcDbLine
 10
0.9623062955103858
 20
-0.3431245356716458
 30
0.0
 11
1.038954276802943
 21
-0.3431245356716458
 31
0.0
  0
LINE
  5
7DE1B343D9E28D8
330
7DE1B343D9E2906
100
AcDbEntity
  8
TEXT
100
AcDbLine
 10
1.038954276802943
 20
-0.3431245356716458
 30
0.0
 11
1.038954276802948
 21
-0.5453208740033914
 31
0.0
  0
ARC
  5
7DE1B343D9E28D9
330
7DE1B343D9E2906
100
AcDbEntity
  8
TEXT
100
AcDbCircle
 10
0.962306295510384
 20
-0.3680304109543085
 30
0.0
 40
0.0249058752826653
100
AcDbArc
 50
89.99971217465335
 51
179.9999999999985
  0
LINE
  5
7DE1B343D9E28DA
330
7DE1B343D9E2906
100
AcDbEntity
  8
TEXT
100
AcDbLine
 10
0.9374004202277266
 20
-0.5453208740033914
 30
0.0
 11
0.9374004202277212
 21
-0.3680303685719229
 31
0.0
  0
LWPOLYLINE
  5
7DE1B343D9E28DB
330
7DE1B343D9E2906
100
AcDbEntity
  8
TEXT
100
AcDbPolyline
 90
        2
 70
     0
 43
0.0
 10
0.8790452063923908
 20
-0.5453208740033914
 10
0.9374004202277248
 20
-0.5453208740033914
  0
LWPOLYLINE
  5
7DE1B343D9E28DF
330
7DE1B343D9E2906
100
AcDbEntity
  8
TEXT
100
AcDbPolyline
 90
        2
 70
     0
 43
0.0
 10
0.8790452063923908
 20
-0.5018299290529532
 10
0.8790452063923908
 20
-0.5453208740033914
  0
LINE
  5
7DE1B343D9E28E3
330
7DE1B343D9E2906
100
AcDbEntity
  8
TEXT
100
AcDbLine
 10
1.255814366709239
 20
-0.5453208740033914
 30
0.0
 11
1.160322143345629
 21
-0.3887410839558539
 31
0.0
  0
LINE
  5
7DE1B343D9E28E4
330
7DE1B343D9E2906
100
AcDbEntity
  8
TEXT
100
AcDbLine
 10
1.179235994333033
 20
-0.5453208740033914
 30
0.0
 11
1.255814366709239
 21
-0.5453208740033914
 31
0.0
  0
LINE
  5
7DE1B343D9E28E5
330
7DE1B343D9E2906
100
AcDbEntity
  8
TEXT
100
AcDbLine
 10
1.103332461121569
 20
-0.4137413055272111
 30
0.0
 11
1.179235994333033
 21
-0.5453208740033914
 31
0.0
  0
LINE
  5
7DE1B343D9E28E6
330
7DE1B343D9E2906
100
AcDbEntity
  8
TEXT
100
AcDbLine
 10
1.103332461121569
 20
-0.5453208740033914
 30
0.0
 11
1.103332461121569
 21
-0.4137413055272111
 31
0.0
  0
LINE
  5
7DE1B343D9E28E7
330
7DE1B343D9E2906
100
AcDbEntity
  8
TEXT
100
AcDbLine
 10
1.102789268025722
 20
-0.2133836352472796
 30
0.0
 11
1.034474389476448
 21
-0.2133836352472796
 31
0.0
  0
ARC
  5
7DE1B343D9E28E8
330
7DE1B343D9E2906
100
AcDbEntity
  8
TEXT
100
AcDbCircle
 10
0.7941186504352427
 20
-0.3204314081357827
 30
0.0
 40
0.0416329381542859
100
AcDbArc
 50
26.56974201007528
 51
87.20939649401342
  0
LINE
  5
7DE1B343D9E28E9
330
7DE1B343D9E2906
100
AcDbEntity
  8
TEXT
100
AcDbLine
 10
0.939002435386854
 20
-0.2788478410148803
 30
0.0
 11
0.875105529087353
 21
-0.2788478410148803
 31
0.0
  0
LINE
  5
7DE1B343D9E28EA
330
7DE1B343D9E2906
100
AcDbEntity
  8
TEXT
100
AcDbLine
 10
0.939002435386854
 20
-0.306395490875755
 30
0.0
 11
0.939002435386854
 21
-0.2788478410148803
 31
0.0
  0
ARC
  5
7DE1B343D9E28EB
330
7DE1B343D9E2906
100
AcDbEntity
  8
TEXT
100
AcDbCircle
 10
0.9701952524499617
 20
-0.3100935682971452
 30
0.0
 40
0.0314112657011332
100
AcDbArc
 50
95.88484768694724
 51
173.2388340632136
  0
LINE
  5
7DE1B343D9E28EC
330
7DE1B343D9E2906
100
AcDbEntity
  8
TEXT
100
AcDbLine
 10
1.034474389476443
 20
-0.2788478410148803
 30
0.0
 11
0.9669746718269269
 21
-0.2788478410148803
 31
0.0
  0
LINE
  5
7DE1B343D9E28ED
330
7DE1B343D9E2906
100
AcDbEntity
  8
TEXT
100
AcDbLine
 10
1.034474389476448
 20
-0.2133836352472796
 30
0.0
 11
1.034474389476443
 21
-0.2788478410148803
 31
0.0
  0
LINE
  5
7DE1B343D9E28EE
330
7DE1B343D9E2906
100
AcDbEntity
  8
TEXT
100
AcDbLine
 10
1.224879259311334
 20
-0.2788478410148803
 30
0.0
 11
1.149887426581708
 21
-0.2788478410148803
 31
0.0
  0
INSERT
  5
7DE1B343D9E2922
330
7DE1B343D9E2906
100
AcDbEntity
  8
ASHADE
 62
     1
100
AcDbBlockReference
  2
AVE_RENDER
 10
0.0
 20
0.0
 30
0.0
1001
AVE_RENDER
1002
{
1070
     6
1000
Pref
1070
    30
1070
    20
1070
     1
1070
     0
1000

1070
    10
1070
     1
1070
    30
1040
1.0
1070
     1
1040
0.3
1040
0.7
1040
0.0
1040
10.0
1010
-1.0
1020
-1.0
1030
-1.0
1040
0.3
1070
    49
1070
     0
1070
     0
1010
1.0
1020
1.0
1030
1.0
1040
45.0
1070
     1
1070
     0
1000
WCS
1040
0.0
1002
}
  0
INSERT
  5
7DE1B343D9E2923
330
7DE1B343D9E2906
100
AcDbEntity
  8
ASHADE
 62
     3
100
AcDbBlockReference
  2
AVE_RENDER
 10
0.0
 20
0.0
 30
0.0
1001
AVE_RENDER
1002
{
1070
     0
1000
Full Opt
1070
     0
1070
     1
1070
     1
1070
     1
1070
     0
1070
     0
1070
     0
1070
     1
1070
     1
1040
0.0001
1040
0.0001
1002
}
  0
INSERT
  5
7DE1B343D9E2924
330
7DE1B343D9E2906
100
AcDbEntity
  8
ASHADE
 62
     4
100
AcDbBlockReference
  2
AVE_RENDER
 10
0.0
 20
0.0
 30
0.0
1001
AVE_RENDER
1002
{
1070
     0
1000
Quick Opt
1070
     0
1070
     1
1070
     1
1070
     1
1070
     0
1070
     0
1070
     1
1002
}
  0
INSERT
  5
7DE1B343D9E2925
330
7DE1B343D9E2906
100
AcDbEntity
  8
ASHADE
 62
     5
100
AcDbBlockReference
  2
AVE_RENDER
 10
0.0
 20
0.0
 30
0.0
1001
AVE_RENDER
1002
{
1070
     1
1000
Scanl Opt
1070
     2
1070
     0
1070
     2
1040
2.0
1040
4.0
1070
     0
1070
     1
1070
     0
1040
0.03
1002
}
  0
INSERT
  5
7DE1B343D9E2926
330
7DE1B343D9E2906
100
AcDbEntity
  8
ASHADE
 62
     6
100
AcDbBlockReference
  2
AVE_RENDER
 10
0.0
 20
0.0
 30
0.0
1001
AVE_RENDER
1002
{
1070
     2
1000
Raytr Opt
1070
     2
1070
     0
1070
     2
1040
2.0
1040
4.0
1070
     0
1070
     1
1070
     1
1040
0.03
1070
     3
1040
0.03
1002
}
  0
INSERT
  5
7DE1B343D9E2927
330
7DE1B343D9E2906
100
AcDbEntity
  8
ASHADE
 62
     7
100
AcDbBlockReference
  2
AVE_RENDER
 10
0.0
 20
0.0
 30
0.0
1001
AVE_RENDER
1002
{
1070
     0
1000
RFile Opt
1070
     5
1070
   640
1070
   480
1070
 10000
1070
     3
1070
    32
1070
    24
1070
     0
1070
     0
1070
     0
1070
     1
1070
     0
1070
     0
1070
     0
1002
}
  0
INSERT
  5
7DE1B343D9E2928
330
7DE1B343D9E2906
100
AcDbEntity
  8
ASHADE
 62
     8
100
AcDbBlockReference
  2
AVE_RENDER
 10
0.0
 20
0.0
 30
0.0
1001
AVE_RENDER
1002
{
1070
     0
1000
Fog Opt
1070
     0
1070
     0
1040
0.0
1040
1.0
1040
0.0
1040
1.0
1010
0.5
1020
0.5
1030
0.5
1002
}
  0
INSERT
  5
7DE1B343D9E2929
330
7DE1B343D9E2906
100
AcDbEntity
  8
ASHADE
 62
     9
100
AcDbBlockReference
  2
AVE_RENDER
 10
0.0
 20
0.0
 30
0.0
1001
AVE_RENDER
1002
{
1070
     0
1000
BG Opt
1070
     0
1070
     1
1010
0.0
1020
0.0
1030
0.0
1010
1.0
1020
0.0
1030
0.0
1010
0.0
1020
1.0
1030
0.0
1010
0.0
1020
0.0
1030
1.0
1040
0.5
1040
0.33
1040
0.0
1000

1070
     1
1000

1070
     1
1070
     1
1040
1.0
1040
1.0
1040
0.0
1040
0.0
1070
     0
1002
}
  0
INSERT
  5
7DE1B343D9E2930
330
7DE1B343D9E2906
100
AcDbEntity
  8
ASHADE
 62
     1
100
AcDbBlockReference
  2
AVE_GLOBAL
 10
0.0
 20
0.0
 30
0.0
1001
AVE_MATERIAL
1002
{
1000
*GLOBAL*
1000
1
1000
Global finish.
1002
{
1002
}
1002
{
1070
    63
1002
{
1002
{
1010
-1.0
1020
-1.0
1030
-1.0
1002
}
1040
0.1000000014901161
1000

1040
0.0
1002
{
1002
}
1040
0.0
1002
{
1002
}
1040
0.0
1002
}
1002
{
1002
{
1010
-1.0
1020
-1.0
1030
-1.0
1002
}
1040
0.6999999880790711
1000

1040
0.0
1002
{
1002
}
1040
0.0
1002
{
1002
}
1040
0.0
1002
}
1002
{
1002
{
1010
-1.0
1020
-1.0
1030
-1.0
1002
}
1040
0.2000000029802322
1000

1040
0.0
1002
{
1002
}
1040
0.0
1002
{
1002
}
1040
0.0
1002
}
1002
{
1070
     0
1002
{
1070
     1
1002
{
1040
1.0
1040
1.0
1000

1040
0.0
1002
{
1002
}
1040
0.0
1002
{
1002
}
1040
0.0
1002
}
1002
}
1040
1.0
1040
0.0
1040
0.0
1002
}
1002
{
1040
1.0
1040
1.0
1000

1040
0.0
1002
{
1002
}
1040
0.0
1002
{
1002
}
1040
0.0
1002
}
1002
{
1040
0.5
1040
1.0
1000

1040
0.0
1002
{
1002
}
1040
0.0
1002
{
1002
}
1040
0.0
1002
}
1002
{
1070
     0
1040
0.0
1002
{
1002
}
1040
1.0
1002
{
1002
}
1040
0.0
1002
}
1002
{
1040
0.0
1002
{
1002
{
1010
0.0
1020
0.0
1030
0.0
1002
}
1040
1.0
1000

1040
0.0
1002
{
1002
}
1040
0.0
1002
{
1002
}
1040
0.0
1002
}
1002
}
1002
{
1002
{
1070
     1
1002
{
1040
0.0
1040
1.0
1000

1040
0.0
1002
{
1002
}
1040
0.0
1002
{
1002
}
1040
0.0
1002
}
1002
}
1040
0.0
1002
{
1002
}
1010
1.0
1020
0.0
1030
0.0
1010
0.0
1020
1.0
1030
0.0
1010
0.0
1020
0.0
1030
1.0
1070
     0
1002
}
1002
{
1002
{
1040
1.0
1040
1.0
1002
{
1070
     1
1002
{
1040
1.0
1040
1.0
1000

1040
0.0
1002
{
1002
}
1040
0.0
1002
{
1002
}
1040
0.0
1002
}
1002
}
1002
}
1070
     0
1040
0.0
1002
{
1002
}
1002
}
1002
{
1002
}
1002
}
1002
{
1071
        3
1070
     3
1070
     0
1002
{
1070
     2
1070
     0
1070
     0
1040
0.0
1002
}
1070
     0
1070
     2
1002
{
1002
}
1002
}
1002
{
1040
8030.0
1040
190.3000030517578
1040
0.3050000071525574
1040
228.0
1040
545.0
1040
14.0
1040
17.39999961853027
1040
0.4560000002384186
1002
}
1002
}
  0
ENDSEC
  0
SECTION
  2
OBJECTS
  0
DICTIONARY
  5
7DE1B343D9E28FA
330
0
100
AcDbDictionary
  3
ACAD_GROUP
350
7DE1B343D9E28FB
  3
ACAD_LAYOUT
350
7DE1B343D9E293C
  3
ACAD_MLINESTYLE
350
7DE1B343D9E28FC
  3
ACAD_PLOTSETTINGS
350
7DE1B343D9E293D
  3
ACAD_PLOTSTYLENAME
350
7DE1B343D9E293A
  3
ACDBHEADERROUNDTRIPXREC
350
7DE1B343D9E2947
  3
ACDBVARIABLEDICTIONARY
350
7DE1B343D9E2944
  0
DICTIONARY
  5
7DE1B343D9E2969
330
7DE1B343D9E2906
100
AcDbDictionary
280
     1
  3
ACAD_LAYOUTSELFREF
360
7DE1B343D9E296A
  0
DICTIONARY
  5
7DE1B343D9E2967
330
7DE1B343D9E2903
100
AcDbDictionary
280
     1
  3
ACAD_LAYOUTSELFREF
360
7DE1B343D9E2968
  0
DICTIONARY
  5
7DE1B343D9E28FB
102
{ACAD_REACTORS
330
7DE1B343D9E28FA
102
}
330
7DE1B343D9E28FA
100
AcDbDictionary
  0
DICTIONARY
  5
7DE1B343D9E293C
102
{ACAD_REACTORS
330
7DE1B343D9E28FA
102
}
330
7DE1B343D9E28FA
100
AcDbDictionary
  0
DICTIONARY
  5
7DE1B343D9E28FC
102
{ACAD_REACTORS
330
7DE1B343D9E28FA
102
}
330
7DE1B343D9E28FA
100
AcDbDictionary
  3
STANDARD
350
7DE1B343D9E2909
  0
DICTIONARY
  5
7DE1B343D9E293D
102
{ACAD_REACTORS
330
7DE1B343D9E28FA
102
}
330
7DE1B343D9E28FA
100
AcDbDictionary
  0
ACDBDICTIONARYWDFLT
  5
7DE1B343D9E293A
102
{ACAD_REACTORS
330
7DE1B343D9E28FA
102
}
330
7DE1B343D9E28FA
100
AcDbDictionary
281
     1
  3
Normal
350
7DE1B343D9E293B
100
AcDbDictionaryWithDefault
340
7DE1B343D9E293B
  0
DICTIONARY
  5
7DE1B343D9E2947
102
{ACAD_REACTORS
330
7DE1B343D9E28FA
102
}
330
7DE1B343D9E28FA
100
AcDbDictionary
  3
CEPSNTYPE
350
7DE1B343D9E2951
  3
FINGERPRINTGUID
350
7DE1B343D9E2952
  3
HYPERLINKBASE
350
7DE1B343D9E294A
  3
INSUNITS
350
7DE1B343D9E2950
  3
LAYOUTDICT
350
7DE1B343D9E294C
  3
LWETCUNION
350
7DE1B343D9E294F
  3
PLOTSETDICT
350
7DE1B343D9E294D
  3
PLOTSTYLNAMDICT
350
7DE1B343D9E294E
  3
PSVPSCALE
350
7DE1B343D9E2954
  3
PUCSBASE
350
7DE1B343D9E2957
  3
PUCSORGBACK
350
7DE1B343D9E295D
  3
PUCSORGBOTTOM
350
7DE1B343D9E2959
  3
PUCSORGFRONT
350
7DE1B343D9E295C
  3
PUCSORGLEFT
350
7DE1B343D9E295A
  3
PUCSORGRIGHT
350
7DE1B343D9E295B
  3
PUCSORGTOP
350
7DE1B343D9E2958
  3
PUCSORTHOREF
350
7DE1B343D9E2955
  3
PUCSORTHOVIEW
350
7DE1B343D9E2956
  3
STYLESHEET
350
7DE1B343D9E294B
  3
TSTACKALIGN
350
7DE1B343D9E2948
  3
TSTACKSIZE
350
7DE1B343D9E2949
  3
UCSBASE
350
7DE1B343D9E2960
  3
UCSORGBACK
350
7DE1B343D9E2966
  3
UCSORGBOTTOM
350
7DE1B343D9E2962
  3
UCSORGFRONT
350
7DE1B343D9E2965
  3
UCSORGLEFT
350
7DE1B343D9E2963
  3
UCSORGRIGHT
350
7DE1B343D9E2964
  3
UCSORGTOP
350
7DE1B343D9E2961
  3
UCSORTHOREF
350
7DE1B343D9E295E
  3
UCSORTHOVIEW
350
7DE1B343D9E295F
  3
VERSIONGUID
350
7DE1B343D9E2953
  0
DICTIONARY
  5
7DE1B343D9E2944
102
{ACAD_REACTORS
330
7DE1B343D9E28FA
102
}
330
7DE1B343D9E28FA
100
AcDbDictionary
  3
DIMASSOC
350
7DE1B343D9E2945
  0
XRECORD
  5
7DE1B343D9E296A
102
{ACAD_REACTORS
330
7DE1B343D9E2969
102
}
330
7DE1B343D9E2969
100
AcDbXrecord
340
7DE1B343D9E2906
  0
XRECORD
  5
7DE1B343D9E2968
102
{ACAD_REACTORS
330
7DE1B343D9E2967
102
}
330
7DE1B343D9E2967
100
AcDbXrecord
340
7DE1B343D9E2903
  0
MLINESTYLE
  5
7DE1B343D9E2909
102
{ACAD_REACTORS
330
7DE1B343D9E28FC
102
}
330
7DE1B343D9E28FC
100
AcDbMlineStyle
  2
STANDARD
 70
     0
  3

 62
     0
 51
90.0
 52
90.0
 71
     2
 49
0.5
 62
   256
  6
BYLAYER
 49
-0.5
 62
   256
  6
BYLAYER
  0
ACDBPLACEHOLDER
  5
7DE1B343D9E293B
102
{ACAD_REACTORS
330
7DE1B343D9E293A
102
}
330
7DE1B343D9E293A
100
AcDbPlaceHolder
280
     0
  0
XRECORD
  5
7DE1B343D9E2951
102
{ACAD_REACTORS
330
7DE1B343D9E2947
102
}
330
7DE1B343D9E2947
100
AcDbXrecord
 90
        0
  0
XRECORD
  5
7DE1B343D9E2952
102
{ACAD_REACTORS
330
7DE1B343D9E2947
102
}
330
7DE1B343D9E2947
100
AcDbXrecord
  1
{156A42A0-8DB7-11D6-88E6-0090279574E7}
  0
XRECORD
  5
7DE1B343D9E294A
102
{ACAD_REACTORS
330
7DE1B343D9E2947
102
}
330
7DE1B343D9E2947
100
AcDbXrecord
  1

  0
XRECORD
  5
7DE1B343D9E2950
102
{ACAD_REACTORS
330
7DE1B343D9E2947
102
}
330
7DE1B343D9E2947
100
AcDbXrecord
 90
        0
  0
XRECORD
  5
7DE1B343D9E294C
102
{ACAD_REACTORS
330
7DE1B343D9E2947
102
}
330
7DE1B343D9E2947
100
AcDbXrecord
340
7DE1B343D9E293C
  0
XRECORD
  5
7DE1B343D9E294F
102
{ACAD_REACTORS
330
7DE1B343D9E2947
102
}
330
7DE1B343D9E2947
100
AcDbXrecord
 90
    14877
  0
XRECORD
  5
7DE1B343D9E294D
102
{ACAD_REACTORS
330
7DE1B343D9E2947
102
}
330
7DE1B343D9E2947
100
AcDbXrecord
340
7DE1B343D9E293D
  0
XRECORD
  5
7DE1B343D9E294E
102
{ACAD_REACTORS
330
7DE1B343D9E2947
102
}
330
7DE1B343D9E2947
100
AcDbXrecord
340
7DE1B343D9E293A
  0
XRECORD
  5
7DE1B343D9E2954
102
{ACAD_REACTORS
330
7DE1B343D9E2947
102
}
330
7DE1B343D9E2947
100
AcDbXrecord
 40
0.0
  0
XRECORD
  5
7DE1B343D9E2957
102
{ACAD_REACTORS
330
7DE1B343D9E2947
102
}
330
7DE1B343D9E2947
100
AcDbXrecord
340
0
  0
XRECORD
  5
7DE1B343D9E295D
102
{ACAD_REACTORS
330
7DE1B343D9E2947
102
}
330
7DE1B343D9E2947
100
AcDbXrecord
 10
0.0
 20
0.0
 30
0.0
  0
XRECORD
  5
7DE1B343D9E2959
102
{ACAD_REACTORS
330
7DE1B343D9E2947
102
}
330
7DE1B343D9E2947
100
AcDbXrecord
 10
0.0
 20
0.0
 30
0.0
  0
XRECORD
  5
7DE1B343D9E295C
102
{ACAD_REACTORS
330
7DE1B343D9E2947
102
}
330
7DE1B343D9E2947
100
AcDbXrecord
 10
0.0
 20
0.0
 30
0.0
  0
XRECORD
  5
7DE1B343D9E295A
102
{ACAD_REACTORS
330
7DE1B343D9E2947
102
}
330
7DE1B343D9E2947
100
AcDbXrecord
 10
0.0
 20
0.0
 30
0.0
  0
XRECORD
  5
7DE1B343D9E295B
102
{ACAD_REACTORS
330
7DE1B343D9E2947
102
}
330
7DE1B343D9E2947
100
AcDbXrecord
 10
0.0
 20
0.0
 30
0.0
  0
XRECORD
  5
7DE1B343D9E2958
102
{ACAD_REACTORS
330
7DE1B343D9E2947
102
}
330
7DE1B343D9E2947
100
AcDbXrecord
 10
0.0
 20
0.0
 30
0.0
  0
XRECORD
  5
7DE1B343D9E2955
102
{ACAD_REACTORS
330
7DE1B343D9E2947
102
}
330
7DE1B343D9E2947
100
AcDbXrecord
340
0
  0
XRECORD
  5
7DE1B343D9E2956
102
{ACAD_REACTORS
330
7DE1B343D9E2947
102
}
330
7DE1B343D9E2947
100
AcDbXrecord
 70
     0
  0
XRECORD
  5
7DE1B343D9E294B
102
{ACAD_REACTORS
330
7DE1B343D9E2947
102
}
330
7DE1B343D9E2947
100
AcDbXrecord
  1

  0
XRECORD
  5
7DE1B343D9E2948
102
{ACAD_REACTORS
330
7DE1B343D9E2947
102
}
330
7DE1B343D9E2947
100
AcDbXrecord
 90
        1
  0
XRECORD
  5
7DE1B343D9E2949
102
{ACAD_REACTORS
330
7DE1B343D9E2947
102
}
330
7DE1B343D9E2947
100
AcDbXrecord
 90
       70
  0
XRECORD
  5
7DE1B343D9E2960
102
{ACAD_REACTORS
330
7DE1B343D9E2947
102
}
330
7DE1B343D9E2947
100
AcDbXrecord
340
0
  0
XRECORD
  5
7DE1B343D9E2966
102
{ACAD_REACTORS
330
7DE1B343D9E2947
102
}
330
7DE1B343D9E2947
100
AcDbXrecord
 10
0.0
 20
0.0
 30
0.0
  0
XRECORD
  5
7DE1B343D9E2962
102
{ACAD_REACTORS
330
7DE1B343D9E2947
102
}
330
7DE1B343D9E2947
100
AcDbXrecord
 10
0.0
 20
0.0
 30
0.0
  0
XRECORD
  5
7DE1B343D9E2965
102
{ACAD_REACTORS
330
7DE1B343D9E2947
102
}
330
7DE1B343D9E2947
100
AcDbXrecord
 10
0.0
 20
0.0
 30
0.0
  0
XRECORD
  5
7DE1B343D9E2963
102
{ACAD_REACTORS
330
7DE1B343D9E2947
102
}
330
7DE1B343D9E2947
100
AcDbXrecord
 10
0.0
 20
0.0
 30
0.0
  0
XRECORD
  5
7DE1B343D9E2964
102
{ACAD_REACTORS
330
7DE1B343D9E2947
102
}
330
7DE1B343D9E2947
100
AcDbXrecord
 10
0.0
 20
0.0
 30
0.0
  0
XRECORD
  5
7DE1B343D9E2961
102
{ACAD_REACTORS
330
7DE1B343D9E2947
102
}
330
7DE1B343D9E2947
100
AcDbXrecord
 10
0.0
 20
0.0
 30
0.0
  0
XRECORD
  5
7DE1B343D9E295E
102
{ACAD_REACTORS
330
7DE1B343D9E2947
102
}
330
7DE1B343D9E2947
100
AcDbXrecord
340
0
  0
XRECORD
  5
7DE1B343D9E295F
102
{ACAD_REACTORS
330
7DE1B343D9E2947
102
}
330
7DE1B343D9E2947
100
AcDbXrecord
 70
     0
  0
XRECORD
  5
7DE1B343D9E2953
102
{ACAD_REACTORS
330
7DE1B343D9E2947
102
}
330
7DE1B343D9E2947
100
AcDbXrecord
  1
{156A42A2-8DB7-11D6-88E6-0090279574E7}
  0
DICTIONARYVAR
  5
7DE1B343D9E2945
102
{ACAD_REACTORS
330
7DE1B343D9E2944
102
}
330
7DE1B343D9E2944
100
DictionaryVariables
280
     0
  1
1
  0
ENDSEC
  0
EOF
