  0
SECTION
  2
HEADER
  9
$ACADVER
  1
AC1014
  9
$ACADMAINTVER
 70
     9
  9
$DWGCODEPAGE
  3
ANSI_1252
  9
$INSBASE
 10
4.424690524793017
 20
3.620824105221797
 30
0.0
  9
$EXTMIN
 10
3.134055692291929
 20
1.632153525342058
 30
0.0
  9
$EXTMAX
 10
6.619275014039065
 20
4.323723949680644
 30
0.0
  9
$LIMMIN
 10
0.0
 20
0.0
  9
$LIMMAX
 10
8.5
 20
11.0
  9
$ORTHOMODE
 70
     0
  9
$REGENMODE
 70
     1
  9
$FILLMODE
 70
     1
  9
$QTEXTMODE
 70
     0
  9
$MIRRTEXT
 70
     0
  9
$DRAGMODE
 70
     2
  9
$LTSCALE
 40
1.0
  9
$OSMODE
 70
    39
  9
$ATTMODE
 70
     1
  9
$TEXTSIZE
 40
0.125
  9
$TRACEWID
 40
0.05
  9
$TEXTSTYLE
  7
ROMANS
  9
$CLAYER
  8
TEXT
  9
$CELTYPE
  6
BYLAYER
  9
$CECOLOR
 62
   256
  9
$CELTSCALE
 40
1.0
  9
$DELOBJ
 70
     1
  9
$DISPSILH
 70
     1
  9
$DIMSCALE
 40
0.125
  9
$DIMASZ
 40
0.125
  9
$DIMEXO
 40
0.125
  9
$DIMDLI
 40
0.375
  9
$DIMRND
 40
0.0
  9
$DIMDLE
 40
0.0
  9
$DIMEXE
 40
0.125
  9
$DIMTP
 40
0.005
  9
$DIMTM
 40
0.005
  9
$DIMTXT
 40
0.125
  9
$DIMCEN
 40
-0.125
  9
$DIMTSZ
 40
0.0
  9
$DIMTOL
 70
     1
  9
$DIMLIM
 70
     0
  9
$DIMTIH
 70
     1
  9
$DIMTOH
 70
     1
  9
$DIMSE1
 70
     1
  9
$DIMSE2
 70
     0
  9
$DIMTAD
 70
     0
  9
$DIMZIN
 70
     4
  9
$DIMBLK
  1

  9
$DIMASO
 70
     1
  9
$DIMSHO
 70
     1
  9
$DIMPOST
  1

  9
$DIMAPOST
  1

  9
$DIMALT
 70
     0
  9
$DIMALTD
 70
     2
  9
$DIMALTF
 40
25.4
  9
$DIMLFAC
 40
1.0
  9
$DIMTOFL
 70
     0
  9
$DIMTVP
 40
0.0
  9
$DIMTIX
 70
     0
  9
$DIMSOXD
 70
     0
  9
$DIMSAH
 70
     0
  9
$DIMBLK1
  1

  9
$DIMBLK2
  1

  9
$DIMSTYLE
  2
STANDARD
  9
$DIMCLRD
 70
     0
  9
$DIMCLRE
 70
     0
  9
$DIMCLRT
 70
     0
  9
$DIMTFAC
 40
1.0
  9
$DIMGAP
 40
0.09
  9
$DIMJUST
 70
     0
  9
$DIMSD1
 70
     0
  9
$DIMSD2
 70
     0
  9
$DIMTOLJ
 70
     1
  9
$DIMTZIN
 70
     0
  9
$DIMALTZ
 70
     0
  9
$DIMALTTZ
 70
     0
  9
$DIMFIT
 70
     3
  9
$DIMUPT
 70
     0
  9
$DIMUNIT
 70
     2
  9
$DIMDEC
 70
     3
  9
$DIMTDEC
 70
     4
  9
$DIMALTU
 70
     2
  9
$DIMALTTD
 70
     2
  9
$DIMTXSTY
  7
ROMANS
  9
$DIMAUNIT
 70
     0
  9
$LUNITS
 70
     2
  9
$LUPREC
 70
     3
  9
$SKETCHINC
 40
0.1
  9
$FILLETRAD
 40
0.0
  9
$AUNITS
 70
     0
  9
$AUPREC
 70
     3
  9
$MENU
  1
ACAD
  9
$ELEVATION
 40
0.0
  9
$PELEVATION
 40
0.0
  9
$THICKNESS
 40
0.0
  9
$LIMCHECK
 70
     0
  9
$BLIPMODE
 70
     0
  9
$CHAMFERA
 40
0.0
  9
$CHAMFERB
 40
0.0
  9
$CHAMFERC
 40
0.0
  9
$CHAMFERD
 40
0.0
  9
$SKPOLY
 70
     0
  9
$TDCREATE
 40
2449609.574228819
  9
$TDUPDATE
 40
2452458.310567384
  9
$TDINDWG
 40
0.0004515278
  9
$TDUSRTIMER
 40
0.0004515278
  9
$USRTIMER
 70
     1
  9
$ANGBASE
 50
0.0
  9
$ANGDIR
 70
     0
  9
$PDMODE
 70
     0
  9
$PDSIZE
 40
0.0
  9
$PLINEWID
 40
0.0
  9
$COORDS
 70
     2
  9
$SPLFRAME
 70
     0
  9
$SPLINETYPE
 70
     6
  9
$SPLINESEGS
 70
     8
  9
$ATTDIA
 70
     0
  9
$ATTREQ
 70
     1
  9
$HANDLING
 70
 22529
  9
$HANDSEED
  5
3BC
  9
$SURFTAB1
 70
     6
  9
$SURFTAB2
 70
     6
  9
$SURFTYPE
 70
     6
  9
$SURFU
 70
     6
  9
$SURFV
 70
     6
  9
$UCSNAME
  2

  9
$UCSORG
 10
0.0
 20
0.0
 30
0.0
  9
$UCSXDIR
 10
1.0
 20
0.0
 30
0.0
  9
$UCSYDIR
 10
0.0
 20
1.0
 30
0.0
  9
$PUCSNAME
  2

  9
$PUCSORG
 10
0.0
 20
0.0
 30
0.0
  9
$PUCSXDIR
 10
1.0
 20
0.0
 30
0.0
  9
$PUCSYDIR
 10
0.0
 20
1.0
 30
0.0
  9
$USERI1
 70
     0
  9
$USERI2
 70
     0
  9
$USERI3
 70
     0
  9
$USERI4
 70
     0
  9
$USERI5
 70
     0
  9
$USERR1
 40
0.0
  9
$USERR2
 40
0.0
  9
$USERR3
 40
0.0
  9
$USERR4
 40
0.0
  9
$USERR5
 40
0.0
  9
$WORLDVIEW
 70
     1
  9
$SHADEDGE
 70
     3
  9
$SHADEDIF
 70
    70
  9
$TILEMODE
 70
     1
  9
$MAXACTVP
 70
    16
  9
$PINSBASE
 10
0.0
 20
0.0
 30
0.0
  9
$PLIMCHECK
 70
     0
  9
$PEXTMIN
 10
1.000000000000000E+20
 20
1.000000000000000E+20
 30
1.000000000000000E+20
  9
$PEXTMAX
 10
-1.000000000000000E+20
 20
-1.000000000000000E+20
 30
-1.000000000000000E+20
  9
$PLIMMIN
 10
0.0
 20
0.0
  9
$PLIMMAX
 10
12.0
 20
9.0
  9
$UNITMODE
 70
     0
  9
$VISRETAIN
 70
     0
  9
$PLINEGEN
 70
     1
  9
$PSLTSCALE
 70
     0
  9
$TREEDEPTH
 70
  3020
  9
$PICKSTYLE
 70
     1
  9
$CMLSTYLE
  2
STANDARD
  9
$CMLJUST
 70
     0
  9
$CMLSCALE
 40
1.0
  9
$PROXYGRAPHICS
 70
     1
  9
$MEASUREMENT
 70
     0
  0
ENDSEC
  0
SECTION
  2
CLASSES
  0
CLASS
  1
LWPOLYLINE
  2
AcDbPolyline
  3
AutoCAD 2000
 90
        0
280
     0
281
     1
  0
CLASS
  1
ACDBDICTIONARYWDFLT
  2
AcDbDictionaryWithDefault
  3
AutoCAD 2000
 90
        0
280
     0
281
     0
  0
CLASS
  1
ACDBPLACEHOLDER
  2
AcDbPlaceHolder
  3
AutoCAD 2000
 90
        0
280
     0
281
     0
  0
CLASS
  1
LAYOUT
  2
AcDbLayout
  3
AutoCAD 2000
 90
        0
280
     0
281
     0
  0
CLASS
  1
DICTIONARYVAR
  2
AcDbDictionaryVar
  3
AutoCAD 2000
 90
        0
280
     0
281
     0
  0
CLASS
  1
LONG_TRANSACTION
  2
AcDbLongTransaction
  3
AutoCAD 2000
 90
        0
280
     0
281
     0
  0
CLASS
  1
LWPOLYLINE
  2
AcDbPolyline
  3
AutoCAD 2000
 90
        0
280
     0
281
     1
  0
CLASS
  1
HATCH
  2
AcDbHatch
  3
AutoCAD 2000
 90
        0
280
     0
281
     1
  0
CLASS
  1
XRECORD
  2
AcDbXrecord
  3
AutoCAD 2000
 90
        0
280
     0
281
     0
  0
ENDSEC
  0
SECTION
  2
TABLES
  0
TABLE
  2
VPORT
  5
8
330
0
100
AcDbSymbolTable
 70
     2
  0
VPORT
  5
397
330
8
100
AcDbSymbolTableRecord
100
AcDbViewportTableRecord
  2
*ACTIVE
 70
     0
 10
0.0
 20
0.0
 11
1.0
 21
1.0
 12
8.545834026401431
 22
2.977950080709646
 13
0.0
 23
0.0
 14
0.015625
 24
0.015625
 15
0.0
 25
0.0
 16
0.0
 26
0.0
 36
1.0
 17
0.0
 27
0.0
 37
0.0
 40
2.716771512245109
 41
4.320930232558139
 42
50.0
 43
0.0
 44
0.0
 50
0.0
 51
0.0
 71
     0
 72
  2000
 73
     1
 74
     1
 75
     0
 76
     0
 77
     0
 78
     0
  0
ENDTAB
  0
TABLE
  2
LTYPE
  5
5
330
0
100
AcDbSymbolTable
 70
     1
  0
LTYPE
  5
12
330
5
100
AcDbSymbolTableRecord
100
AcDbLinetypeTableRecord
  2
BYBLOCK
 70
     0
  3

 72
    65
 73
     0
 40
0.0
  0
LTYPE
  5
13
330
5
100
AcDbSymbolTableRecord
100
AcDbLinetypeTableRecord
  2
BYLAYER
 70
     0
  3

 72
    65
 73
     0
 40
0.0
  0
LTYPE
  5
14
330
5
100
AcDbSymbolTableRecord
100
AcDbLinetypeTableRecord
  2
CONTINUOUS
 70
     0
  3
Solid line
 72
    65
 73
     0
 40
0.0
  0
ENDTAB
  0
TABLE
  2
LAYER
  5
2
330
0
100
AcDbSymbolTable
 70
     2
  0
LAYER
  5
F
330
2
100
AcDbSymbolTableRecord
100
AcDbLayerTableRecord
  2
0
 70
     0
 62
     7
  6
CONTINUOUS
  0
LAYER
  5
21
330
2
100
AcDbSymbolTableRecord
100
AcDbLayerTableRecord
  2
TEXT
 70
     0
 62
     3
  6
CONTINUOUS
  0
ENDTAB
  0
TABLE
  2
STYLE
  5
3
330
0
100
AcDbSymbolTable
 70
     3
  0
STYLE
  5
10
330
3
100
AcDbSymbolTableRecord
100
AcDbTextStyleTableRecord
  2
STANDARD
 70
     0
 40
0.0
 41
1.0
 50
0.0
 71
     0
 42
0.125
  3
txt
  4

  0
STYLE
  5
283
330
3
100
AcDbSymbolTableRecord
100
AcDbTextStyleTableRecord
  2
ITALICC
 70
     0
 40
0.0
 41
1.0
 50
0.0
 71
     0
 42
0.125
  3
italicc
  4

  0
STYLE
  5
393
330
3
100
AcDbSymbolTableRecord
100
AcDbTextStyleTableRecord
  2
ROMANS
 70
     0
 40
0.0
 41
1.0
 50
0.0
 71
     0
 42
0.125
  3
romans.shx
  4

  0
ENDTAB
  0
TABLE
  2
VIEW
  5
6
330
0
100
AcDbSymbolTable
 70
     0
  0
ENDTAB
  0
TABLE
  2
UCS
  5
7
330
0
100
AcDbSymbolTable
 70
     0
  0
ENDTAB
  0
TABLE
  2
APPID
  5
9
330
0
100
AcDbSymbolTable
 70
     1
  0
APPID
  5
11
330
9
100
AcDbSymbolTableRecord
100
AcDbRegAppTableRecord
  2
ACAD
 70
     0
  0
ENDTAB
  0
TABLE
  2
DIMSTYLE
  5
A
330
0
100
AcDbSymbolTable
 70
     1
  0
DIMSTYLE
105
279
330
A
100
AcDbSymbolTableRecord
100
AcDbDimStyleTableRecord
  2
STANDARD
 70
     0
  3

  4

  5

  6

  7

 40
1.0
 41
0.18
 42
0.0625
 43
0.38
 44
0.18
 45
0.0
 46
0.0
 47
0.0
 48
0.0
140
0.18
141
0.09
142
0.0
143
25.4
144
1.0
145
0.0
146
1.0
147
0.09
 71
     0
 72
     0
 73
     1
 74
     1
 75
     0
 76
     0
 77
     0
 78
     0
170
     0
171
     2
172
     0
173
     0
174
     0
175
     0
176
     0
177
     0
178
     0
270
     2
271
     4
272
     4
273
     2
274
     2
340
10
275
     0
280
     0
281
     0
282
     0
283
     1
284
     0
285
     0
286
     0
287
     3
288
     0
  0
ENDTAB
  0
TABLE
  2
BLOCK_RECORD
  5
1
330
0
100
AcDbSymbolTable
 70
     0
  0
BLOCK_RECORD
  5
18
102
{ACAD_XDICTIONARY
360
3BA
102
}
330
1
100
AcDbSymbolTableRecord
100
AcDbBlockTableRecord
  2
*MODEL_SPACE
  0
BLOCK_RECORD
  5
15
102
{ACAD_XDICTIONARY
360
3B8
102
}
330
1
100
AcDbSymbolTableRecord
100
AcDbBlockTableRecord
  2
*PAPER_SPACE
  0
ENDTAB
  0
ENDSEC
  0
SECTION
  2
BLOCKS
  0
BLOCK
  5
26
330
18
100
AcDbEntity
  8
0
100
AcDbBlockBegin
  2
*MODEL_SPACE
 70
     0
 10
0.0
 20
0.0
 30
0.0
  3
*MODEL_SPACE
  1

  0
ENDBLK
  5
27
330
18
100
AcDbEntity
  8
0
100
AcDbBlockEnd
  0
BLOCK
  5
24
330
15
100
AcDbEntity
 67
     1
  8
0
100
AcDbBlockBegin
  2
*PAPER_SPACE
 70
     0
 10
0.0
 20
0.0
 30
0.0
  3
*PAPER_SPACE
  1

  0
ENDBLK
  5
25
330
15
100
AcDbEntity
 67
     1
  8
0
100
AcDbBlockEnd
  0
ENDSEC
  0
SECTION
  2
ENTITIES
  0
LWPOLYLINE
  5
34
330
18
100
AcDbEntity
  8
0
100
AcDbPolyline
 90
       28
 70
     1
 43
0.0
 10
3.9668618194954
 20
3.12492728424736
 42
0.326779459123872
 10
4.110220476944797
 20
3.131112952030645
 42
1.0
 10
4.071174033078428
 20
3.179914849753897
 42
-2.08078883411997
 10
4.071174033078428
 20
3.272052832655373
 42
1.0
 10
4.110220476944797
 20
3.320854730378625
 42
0.315438325216884
 10
3.971073520239095
 20
3.329728082873854
 42
-0.2392900823391244
 10
4.486944807132538
 20
4.099257043916038
 10
4.486944807132638
 20
3.971113714335912
 42
1.0
 10
4.556944807132617
 20
3.971113714335912
 10
4.556944807132631
 20
4.134997441939161
 42
-0.2202942040487581
 10
5.416944807132858
 20
4.134997441939601
 10
5.416944807132659
 20
3.971113714335926
 42
1.000000000000202
 10
5.486944807132624
 20
3.97111371433594
 10
5.486944807132652
 20
4.099257043915867
 42
-0.239290082338857
 10
6.002816094026095
 20
3.329728082874607
 42
0.3154383252136087
 10
5.86366913732163
 20
3.320854730378625
 42
1.0
 10
5.902715581187998
 20
3.272052832655373
 42
-2.08078883411997
 10
5.902715581187998
 20
3.179914849753897
 42
1.0
 10
5.86366913732163
 20
3.131112952030645
 42
0.3267794591205143
 10
6.007027794769805
 20
3.124927284246536
 42
-0.1204056497983763
 10
5.854505872158825
 20
2.663674241301318
 10
5.809853940851987
 20
2.663659928337712
 10
5.837169151603341
 20
2.5202288382044
 42
0.6426496776309039
 10
5.863674287173417
 20
2.513736208528127
 42
2.065415836078416
 10
4.110709755628399
 20
2.51311084509602
 42
0.6417434230247523
 10
4.137203028285548
 20
2.519584570088992
 10
4.164816258703365
 20
2.663132619355921
 10
4.119731852249375
 20
2.663118167764247
 42
-0.120568249102655
  0
LINE
  5
309
330
18
100
AcDbEntity
  8
TEXT
100
AcDbLine
 10
4.985253742986472
 20
1.834229811650033
 30
0.0
 11
4.985253742986472
 21
1.975559343829171
 31
0.0
  0
LINE
  5
30A
330
18
100
AcDbEntity
  8
TEXT
100
AcDbLine
 10
5.032351901542455
 20
1.910095138061571
 30
0.0
 11
4.985253742986472
 21
1.834229811650033
 31
0.0
  0
LINE
  5
30B
330
18
100
AcDbEntity
  8
TEXT
100
AcDbLine
 10
5.042786618306379
 20
1.800201895120597
 30
0.0
 11
5.107343734272085
 21
1.910095138061571
 31
0.0
  0
TEXT
  5
30C
330
18
100
AcDbEntity
  8
TEXT
100
AcDbText
 10
5.290342429769394
 20
1.829766340684848
 30
0.0
 40
0.0522247191011236
  1
6536 Main St. N.E. * P.O. Box 32008
 41
0.8388932496075355
 72
     5
 11
6.619275014039057
 21
1.829766340684848
 31
0.0
100
AcDbText
  0
ARC
  5
30D
330
18
100
AcDbEntity
  8
TEXT
100
AcDbCircle
 10
4.844770770471134
 20
1.820912568122142
 30
0.0
 40
0.0249058752826653
100
AcDbArc
 50
89.99971217465335
 51
179.9999999999985
  0
LINE
  5
30E
330
18
100
AcDbEntity
  8
TEXT
100
AcDbLine
 10
4.757570004048101
 20
1.804883159508143
 30
0.0
 11
4.7138192328662
 21
1.887133435504289
 31
0.0
  0
LINE
  5
30F
330
18
100
AcDbEntity
  8
TEXT
100
AcDbLine
 10
4.757570004048101
 20
1.910095138061571
 30
0.0
 11
4.757570004048101
 21
1.804883159508143
 31
0.0
  0
ARC
  5
310
330
18
100
AcDbEntity
  8
TEXT
100
AcDbCircle
 10
4.649579166828582
 20
1.817459068404808
 30
0.0
 40
0.028359375
100
AcDbArc
 50
25.78218179591245
 51
90.0
  0
LINE
  5
311
330
18
100
AcDbEntity
  8
TEXT
100
AcDbLine
 10
4.187584705644834
 20
1.726009943176059
 30
0.0
 11
4.187584705644834
 21
1.978106615800381
 31
0.0
  0
LINE
  5
312
330
18
100
AcDbEntity
  8
TEXT
100
AcDbLine
 10
4.219896559782494
 20
1.910095138061571
 30
0.0
 11
4.219896559782494
 21
1.709230931329162
 31
0.0
  0
LINE
  5
313
330
18
100
AcDbEntity
  8
TEXT
100
AcDbLine
 10
4.090654080285091
 20
1.910095138061571
 30
0.0
 11
4.031905517479227
 21
1.80922314194845
 31
0.0
  0
LINE
  5
314
330
18
100
AcDbEntity
  8
TEXT
100
AcDbLine
 10
4.031905517479227
 20
1.80922314194845
 30
0.0
 11
3.973275196447289
 21
1.910095138061571
 31
0.0
  0
ARC
  5
315
330
18
100
AcDbEntity
  8
TEXT
100
AcDbCircle
 10
3.665701872560862
 20
1.828007678615069
 30
0.0
 40
0.0820874594465043
100
AcDbArc
 50
90.0
 51
270.0
  0
LWPOLYLINE
  5
316
330
18
100
AcDbEntity
  8
TEXT
100
AcDbPolyline
 90
        2
 70
     0
 43
0.0001332181640625
 10
3.257615539459898
 20
1.836825147827195
 10
3.247624177155207
 20
1.910095138061574
  0
LWPOLYLINE
  5
317
330
18
100
AcDbEntity
  8
TEXT
100
AcDbPolyline
 90
        2
 70
     0
 43
0.0001332181640625
 10
3.247624177155207
 20
1.883451505249073
 10
3.257615539459898
 20
1.823503331420948
  0
LWPOLYLINE
  5
318
330
18
100
AcDbEntity
  8
TEXT
100
AcDbPolyline
 90
        2
 70
     0
 43
0.0001332181640625
 10
3.287589626373959
 20
1.883451505249073
 10
3.27759826406927
 20
1.823503331420948
  0
LWPOLYLINE
  5
319
330
18
100
AcDbEntity
  8
TEXT
100
AcDbPolyline
 90
        2
 70
     0
 43
0.0001332181640625
 10
3.287589626373959
 20
1.910095138061574
 10
3.27759826406927
 20
1.836825147827195
  0
LWPOLYLINE
  5
31A
330
18
100
AcDbEntity
  8
TEXT
100
AcDbPolyline
 90
        3
 70
     0
 43
0.0006660908203125
 10
3.400825065827085
 20
1.796859698608447
 10
3.400825065827085
 20
1.910095138061574
 10
3.287589626373959
 20
1.910095138061574
  0
LWPOLYLINE
  5
31B
330
18
100
AcDbEntity
  8
TEXT
100
AcDbPolyline
 90
        3
 70
     0
 43
0.0006660908203125
 10
3.374181433014584
 20
1.796859698608447
 10
3.374181433014584
 20
1.883451505249073
 10
3.287589626373959
 20
1.883451505249073
  0
LWPOLYLINE
  5
31C
330
18
100
AcDbEntity
  8
TEXT
100
AcDbPolyline
 90
        2
 70
     0
 43
0.0001332181640625
 10
3.374181433014584
 20
1.883451505249073
 10
3.31423325918646
 20
1.823503331420948
  0
LWPOLYLINE
  5
31D
330
18
100
AcDbEntity
  8
TEXT
100
AcDbPolyline
 90
        2
 70
     0
 43
0.0001332181640625
 10
3.161032370514583
 20
1.883451505249073
 10
3.220980544342708
 20
1.823503331420948
  0
LWPOLYLINE
  5
31E
330
18
100
AcDbEntity
  8
TEXT
100
AcDbPolyline
 90
        3
 70
     0
 43
0.0006660908203125
 10
3.247624177155207
 20
1.910095138061574
 10
3.134388737702085
 20
1.910095138061574
 10
3.134388737702085
 20
1.796859698608447
  0
LWPOLYLINE
  5
31F
330
18
100
AcDbEntity
  8
TEXT
100
AcDbPolyline
 90
        3
 70
     0
 43
0.0006660908203125
 10
3.247624177155207
 20
1.883451505249073
 10
3.161032370514583
 20
1.883451505249073
 10
3.161032370514583
 20
1.796859698608447
  0
LINE
  5
320
330
18
100
AcDbEntity
  8
TEXT
100
AcDbLine
 10
3.736539338919412
 20
1.810013721794177
 30
0.0
 11
3.670939202675111
 21
1.810013721794177
 31
0.0
  0
LINE
  5
321
330
18
100
AcDbEntity
  8
TEXT
100
AcDbLine
 10
3.665701872560862
 20
1.745920219168564
 30
0.0
 11
3.741479712825691
 21
1.745920219168564
 31
0.0
  0
LINE
  5
322
330
18
100
AcDbEntity
  8
TEXT
100
AcDbLine
 10
3.583614413114359
 20
1.64362210507306
 30
0.0
 11
3.736539338919412
 21
1.64362210507306
 31
0.0
  0
LINE
  5
323
330
18
100
AcDbEntity
  8
TEXT
100
AcDbLine
 10
3.741479712825691
 20
1.711979111406499
 30
0.0
 11
3.583614413114357
 21
1.711979111406499
 31
0.0
  0
LINE
  5
324
330
18
100
AcDbEntity
  8
TEXT
100
AcDbLine
 10
3.670939202675111
 20
1.845818443404805
 30
0.0
 11
3.83784485670408
 21
1.845818443404805
 31
0.0
  0
LWPOLYLINE
  5
325
330
18
100
AcDbEntity
  8
TEXT
100
AcDbPolyline
 90
        2
 70
     0
 43
0.0006660908203125
 10
3.374181433014584
 20
1.796859698608447
 10
3.400825065827085
 20
1.796859698608447
  0
LWPOLYLINE
  5
326
330
18
100
AcDbEntity
  8
TEXT
100
AcDbPolyline
 90
        2
 70
     0
 43
0.0001332181640625
 10
3.327555075592709
 20
1.786868336303758
 10
3.400825065827085
 20
1.796859698608447
  0
LWPOLYLINE
  5
327
330
18
100
AcDbEntity
  8
TEXT
100
AcDbPolyline
 90
        2
 70
     0
 43
0.0006660908203125
 10
3.374181433014584
 20
1.756894249389699
 10
3.400825065827085
 20
1.756894249389699
  0
LWPOLYLINE
  5
328
330
18
100
AcDbEntity
  8
TEXT
100
AcDbPolyline
 90
        3
 70
     0
 43
0.0006660908203125
 10
3.287589626373959
 20
1.643658809936571
 10
3.400825065827085
 20
1.643658809936571
 10
3.400825065827085
 20
1.756894249389699
  0
LWPOLYLINE
  5
329
330
18
100
AcDbEntity
  8
TEXT
100
AcDbPolyline
 90
        2
 70
     0
 43
0.0001332181640625
 10
3.400825065827085
 20
1.756894249389699
 10
3.327555075592709
 20
1.766885611694384
  0
LWPOLYLINE
  5
32A
330
18
100
AcDbEntity
  8
TEXT
100
AcDbPolyline
 90
        3
 70
     0
 43
0.0006660908203125
 10
3.134388737702085
 20
1.756894249389699
 10
3.134388737702085
 20
1.643658809936571
 10
3.247624177155207
 20
1.643658809936571
  0
LWPOLYLINE
  5
32B
330
18
100
AcDbEntity
  8
TEXT
100
AcDbPolyline
 90
        3
 70
     0
 43
0.0006660908203125
 10
3.161032370514583
 20
1.756894249389699
 10
3.161032370514583
 20
1.670302442749072
 10
3.247624177155207
 20
1.670302442749072
  0
LWPOLYLINE
  5
32C
330
18
100
AcDbEntity
  8
TEXT
100
AcDbPolyline
 90
        5
 70
     0
 43
0.0001332181640625
 10
3.257615539459898
 20
1.716928800170947
 10
3.257615539459898
 20
1.730250616577198
 10
3.22098054434271
 20
1.730250616577198
 10
3.22098054434271
 20
1.766885611694384
 10
3.207658727936459
 20
1.766885611694384
  0
LWPOLYLINE
  5
32D
330
18
100
AcDbEntity
  8
TEXT
100
AcDbPolyline
 90
        5
 70
     0
 43
0.0001332181640625
 10
3.207658727936459
 20
1.786868336303758
 10
3.220980544342708
 20
1.786868336303758
 10
3.220980544342708
 20
1.823503331420948
 10
3.257615539459898
 20
1.823503331420948
 10
3.257615539459898
 20
1.836825147827195
  0
LWPOLYLINE
  5
32E
330
18
100
AcDbEntity
  8
TEXT
100
AcDbPolyline
 90
        2
 70
     0
 43
0.0001332181640625
 10
3.161032370514583
 20
1.796859698608447
 10
3.220980544342708
 20
1.786868336303758
  0
LWPOLYLINE
  5
32F
330
18
100
AcDbEntity
  8
TEXT
100
AcDbPolyline
 90
        2
 70
     0
 43
0.0001332181640625
 10
3.134388737702085
 20
1.796859698608447
 10
3.207658727936459
 20
1.786868336303758
  0
LWPOLYLINE
  5
330
330
18
100
AcDbEntity
  8
TEXT
100
AcDbPolyline
 90
        2
 70
     0
 43
0.0006660908203125
 10
3.161032370514583
 20
1.796859698608447
 10
3.134388737702085
 20
1.796859698608447
  0
LWPOLYLINE
  5
331
330
18
100
AcDbEntity
  8
TEXT
100
AcDbPolyline
 90
        2
 70
     0
 43
0.0001332181640625
 10
3.161032370514583
 20
1.670302442749072
 10
3.22098054434271
 20
1.730250616577198
  0
LWPOLYLINE
  5
332
330
18
100
AcDbEntity
  8
TEXT
100
AcDbPolyline
 90
        2
 70
     0
 43
0.0006660908203125
 10
3.161032370514583
 20
1.756894249389699
 10
3.134388737702085
 20
1.756894249389699
  0
LWPOLYLINE
  5
333
330
18
100
AcDbEntity
  8
TEXT
100
AcDbPolyline
 90
        2
 70
     0
 43
0.0001332181640625
 10
3.207658727936459
 20
1.766885611694384
 10
3.134388737702085
 20
1.756894249389699
  0
LWPOLYLINE
  5
334
330
18
100
AcDbEntity
  8
TEXT
100
AcDbPolyline
 90
        2
 70
     0
 43
0.0001332181640625
 10
3.161032370514583
 20
1.756894249389699
 10
3.22098054434271
 20
1.766885611694384
  0
LWPOLYLINE
  5
335
330
18
100
AcDbEntity
  8
TEXT
100
AcDbPolyline
 90
        5
 70
     0
 43
0.0001332181640625
 10
3.27759826406927
 20
1.836825147827195
 10
3.27759826406927
 20
1.823503331420948
 10
3.31423325918646
 20
1.823503331420948
 10
3.31423325918646
 20
1.786868336303758
 10
3.327555075592709
 20
1.786868336303758
  0
LWPOLYLINE
  5
336
330
18
100
AcDbEntity
  8
TEXT
100
AcDbPolyline
 90
        2
 70
     0
 43
0.0001332181640625
 10
3.374181433014584
 20
1.796859698608447
 10
3.31423325918646
 20
1.786868336303758
  0
LWPOLYLINE
  5
337
330
18
100
AcDbEntity
  8
TEXT
100
AcDbPolyline
 90
        2
 70
     0
 43
0.0006660908203125
 10
3.247624177155207
 20
1.670302442749072
 10
3.247624177155207
 20
1.643658809936571
  0
LWPOLYLINE
  5
338
330
18
100
AcDbEntity
  8
TEXT
100
AcDbPolyline
 90
        2
 70
     0
 43
0.0001332181640625
 10
3.247624177155207
 20
1.670302442749072
 10
3.257615539459898
 20
1.730250616577198
  0
LWPOLYLINE
  5
339
330
18
100
AcDbEntity
  8
TEXT
100
AcDbPolyline
 90
        2
 70
     0
 43
0.0001332181640625
 10
3.247624177155207
 20
1.643658809936571
 10
3.257615539459898
 20
1.716928800170947
  0
LWPOLYLINE
  5
33A
330
18
100
AcDbEntity
  8
TEXT
100
AcDbPolyline
 90
        2
 70
     0
 43
0.0001332181640625
 10
3.287589626373959
 20
1.670302442749072
 10
3.27759826406927
 20
1.730250616577198
  0
LWPOLYLINE
  5
33B
330
18
100
AcDbEntity
  8
TEXT
100
AcDbPolyline
 90
        2
 70
     0
 43
0.0001332181640625
 10
3.27759826406927
 20
1.716928800170947
 10
3.287589626373959
 20
1.643658809936571
  0
LWPOLYLINE
  5
33C
330
18
100
AcDbEntity
  8
TEXT
100
AcDbPolyline
 90
        2
 70
     0
 43
0.0006660908203125
 10
3.287589626373959
 20
1.670302442749072
 10
3.287589626373959
 20
1.643658809936571
  0
LWPOLYLINE
  5
33D
330
18
100
AcDbEntity
  8
TEXT
100
AcDbPolyline
 90
        2
 70
     0
 43
0.0001332181640625
 10
3.374181433014584
 20
1.670302442749072
 10
3.31423325918646
 20
1.730250616577198
  0
LWPOLYLINE
  5
33E
330
18
100
AcDbEntity
  8
TEXT
100
AcDbPolyline
 90
        3
 70
     0
 43
0.0006660908203125
 10
3.287589626373959
 20
1.670302442749072
 10
3.374181433014584
 20
1.670302442749072
 10
3.374181433014584
 20
1.756894249389699
  0
LWPOLYLINE
  5
33F
330
18
100
AcDbEntity
  8
TEXT
100
AcDbPolyline
 90
        2
 70
     0
 43
0.0001332181640625
 10
3.374181433014584
 20
1.756894249389699
 10
3.31423325918646
 20
1.766885611694384
  0
LWPOLYLINE
  5
340
330
18
100
AcDbEntity
  8
TEXT
100
AcDbPolyline
 90
        5
 70
     0
 43
0.0001332181640625
 10
3.327555075592709
 20
1.766885611694384
 10
3.31423325918646
 20
1.766885611694384
 10
3.31423325918646
 20
1.730250616577198
 10
3.27759826406927
 20
1.730250616577198
 10
3.27759826406927
 20
1.716928800170947
  0
ARC
  5
341
330
18
100
AcDbEntity
  8
TEXT
100
AcDbCircle
 10
3.670939202675111
 20
1.827916082599493
 30
0.0
 40
0.017902360805315
100
AcDbArc
 50
90.0
 51
270.0
  0
LINE
  5
342
330
18
100
AcDbEntity
  8
TEXT
100
AcDbLine
 10
3.583614413114357
 20
1.711979111406499
 30
0.0
 11
3.583614413114359
 21
1.64362210507306
 31
0.0
  0
TEXT
  5
343
330
18
100
AcDbEntity
  8
TEXT
100
AcDbText
 10
5.290342429769394
 20
1.643249486752264
 30
0.0
 40
0.0522247191011236
  1
Phone  1-800-328-2495
 41
1.272321428571429
 72
     5
 11
6.619275014039057
 21
1.643249486752264
 31
0.0
100
AcDbText
  0
TEXT
  5
344
330
18
100
AcDbEntity
  8
TEXT
100
AcDbText
 10
5.290342429769394
 20
1.736507913718556
 30
0.0
 40
0.0522247191011236
  1
Minneapolis, MN 55432-0008
 41
1.11444212721585
 72
     5
 11
6.619275014039057
 21
1.736507913718556
 31
0.0
100
AcDbText
  0
LINE
  5
345
330
18
100
AcDbEntity
  8
TEXT
100
AcDbLine
 10
4.844770770471136
 20
1.845818443404805
 30
0.0
 11
4.921418751763692
 21
1.845818443404805
 31
0.0
  0
LINE
  5
346
330
18
100
AcDbEntity
  8
TEXT
100
AcDbLine
 10
4.286727612840461
 20
1.845818443404805
 30
0.0
 11
4.336562892663611
 21
1.845818443404805
 31
0.0
  0
ARC
  5
347
330
18
100
AcDbEntity
  8
TEXT
100
AcDbCircle
 10
3.988261720570058
 20
1.683169827346755
 30
0.0
 40
0.0392772371940762
100
AcDbArc
 50
270.1604552698595
 51
330.0831797321295
  0
ARC
  5
348
330
18
100
AcDbEntity
  8
TEXT
100
AcDbCircle
 10
3.897960874677833
 20
1.703414496411109
 30
0.0
 40
0.0601160179737537
100
AcDbArc
 50
180.0000000000003
 51
264.0521544866073
  0
LINE
  5
349
330
18
100
AcDbEntity
  8
TEXT
100
AcDbLine
 10
3.83784485670408
 20
1.845818443404805
 30
0.0
 11
3.83784485670408
 21
1.703414496411109
 31
0.0
  0
ARC
  5
34A
330
18
100
AcDbEntity
  8
TEXT
100
AcDbCircle
 10
3.741479712825691
 20
1.728949665287533
 30
0.0
 40
0.0169705538810321
100
AcDbArc
 50
270.0
 51
90.0
  0
ARC
  5
34B
330
18
100
AcDbEntity
  8
TEXT
100
AcDbCircle
 10
3.736539338919412
 20
1.726817913433617
 30
0.0
 40
0.0831958083605586
100
AcDbArc
 50
270.0
 51
90.0
  0
LWPOLYLINE
  5
34C
330
18
100
AcDbEntity
  8
TEXT
100
AcDbPolyline
 90
        6
 70
     1
 43
0.0
 10
3.934255267759336
 20
1.845818443404805
 10
3.903938673539128
 20
1.845818443404805
 10
3.903938673539128
 20
1.722707445349911
 42
0.407328721240804
 10
3.915482324700604
 20
1.710888530673525
 10
3.976104023745335
 20
1.710888530673525
 10
3.993569364152653
 20
1.743700759717004
  0
LINE
  5
34D
330
18
100
AcDbEntity
  8
TEXT
100
AcDbLine
 10
3.891731464184186
 20
1.64362210507306
 30
0.0
 11
3.98837171525918
 21
1.643892744171342
 31
0.0
  0
LWPOLYLINE
  5
34E
330
18
100
AcDbEntity
  8
TEXT
100
AcDbPolyline
 90
        2
 70
     0
 43
0.0
 10
4.119604986575716
 20
1.695173447287988
 42
0.3318488747599744
 10
4.188724279141029
 20
1.64362210507306
 42
-6.868794160588311
  0
LINE
  5
34F
330
18
100
AcDbEntity
  8
TEXT
100
AcDbLine
 10
4.119604986575716
 20
1.827930822113341
 30
0.0
 11
4.119604986575716
 21
1.695173447287984
 31
0.0
  0
LINE
  5
350
330
18
100
AcDbEntity
  8
TEXT
100
AcDbLine
 10
4.022305280482271
 20
1.663580611178073
 30
0.0
 11
4.119604986575716
 21
1.827930822113341
 31
0.0
  0
ARC
  5
351
330
18
100
AcDbEntity
  8
TEXT
100
AcDbCircle
 10
4.202902922897891
 20
1.724612737572588
 30
0.0
 40
0.0153818062434269
100
AcDbArc
 50
174.7883570302258
 51
270.0
  0
LINE
  5
352
330
18
100
AcDbEntity
  8
TEXT
100
AcDbLine
 10
4.219896559782494
 20
1.709230931329162
 30
0.0
 11
4.202902922897891
 21
1.709230931329162
 31
0.0
  0
LINE
  5
353
330
18
100
AcDbEntity
  8
TEXT
100
AcDbLine
 10
4.188724279141027
 20
1.64362210507306
 30
0.0
 11
4.286727612840461
 21
1.64362210507306
 31
0.0
  0
LINE
  5
354
330
18
100
AcDbEntity
  8
TEXT
100
AcDbLine
 10
4.286727612840461
 20
1.64362210507306
 30
0.0
 11
4.286727612840461
 21
1.845818443404805
 31
0.0
  0
LINE
  5
355
330
18
100
AcDbEntity
  8
TEXT
100
AcDbLine
 10
4.649579166828583
 20
1.845818443404805
 30
0.0
 11
4.542372893441292
 21
1.845818443404805
 31
0.0
  0
LINE
  5
356
330
18
100
AcDbEntity
  8
TEXT
100
AcDbLine
 10
4.60309225234932
 20
1.808543469942673
 30
0.0
 11
4.685380242132705
 21
1.808543469942673
 31
0.0
  0
LWPOLYLINE
  5
357
330
18
100
AcDbEntity
  8
TEXT
100
AcDbPolyline
 90
        4
 70
     1
 43
0.0
 10
4.698311283415604
 20
1.746586083057085
 10
4.609650964755745
 20
1.746586083057085
 42
0.9999999999999998
 10
4.609650964755745
 20
1.704187542553224
 10
4.698311283415604
 20
1.704187542553224
 42
1.0
  0
LWPOLYLINE
  5
358
330
18
100
AcDbEntity
  8
TEXT
100
AcDbPolyline
 90
        2
 70
     0
 43
0.0
 10
4.58441633085412
 20
1.64362210507306
 10
4.718433748485496
 20
1.64362210507306
 42
0.9999999999999998
  0
LINE
  5
359
330
18
100
AcDbEntity
  8
TEXT
100
AcDbLine
 10
4.411174728611563
 20
1.845818443404805
 30
0.0
 11
4.465308325532514
 21
1.845818443404805
 31
0.0
  0
LINE
  5
35A
330
18
100
AcDbEntity
  8
TEXT
100
AcDbLine
 10
4.344116681829724
 20
1.64362210507306
 30
0.0
 11
4.411174728611563
 21
1.64362210507306
 31
0.0
  0
LINE
  5
35B
330
18
100
AcDbEntity
  8
TEXT
100
AcDbLine
 10
4.411174728611563
 20
1.64362210507306
 30
0.0
 11
4.411174728611563
 21
1.845818443404805
 31
0.0
  0
LINE
  5
35C
330
18
100
AcDbEntity
  8
TEXT
100
AcDbLine
 10
4.344116681829724
 20
1.838264654238695
 30
0.0
 11
4.344116681829724
 21
1.64362210507306
 31
0.0
  0
LWPOLYLINE
  5
35D
330
18
100
AcDbEntity
  8
TEXT
100
AcDbPolyline
 90
        2
 70
     0
 43
0.0
 10
4.336562892663609
 20
1.845818443404805
 42
-0.4142135623731017
 10
4.344116681829722
 20
1.838264654238695
 42
-0.9999999999999998
  0
LINE
  5
35E
330
18
100
AcDbEntity
  8
TEXT
100
AcDbLine
 10
4.542372893441292
 20
1.845818443404805
 30
0.0
 11
4.542372893441292
 21
1.770766037330599
 31
0.0
  0
ARC
  5
35F
330
18
100
AcDbEntity
  8
TEXT
100
AcDbCircle
 10
4.60309225234932
 20
1.740857888798554
 30
0.0
 40
0.0676855811441166
100
AcDbArc
 50
90.0
 51
153.7768192527749
  0
LWPOLYLINE
  5
360
330
18
100
AcDbEntity
  8
TEXT
100
AcDbPolyline
 90
        2
 70
     0
 43
0.0
 10
4.541340397986484
 20
1.687113050023498
 42
0.2901071551932823
 10
4.58441633085412
 20
1.64362210507306
 42
5.328517124445801
  0
LWPOLYLINE
  5
361
330
18
100
AcDbEntity
  8
TEXT
100
AcDbPolyline
 90
        2
 70
     0
 43
0.0
 10
4.465308325532513
 20
1.845818443404805
 42
-0.4142135623731017
 10
4.472862114698626
 20
1.838264654238695
 42
-0.9999999999999998
  0
LWPOLYLINE
  5
362
330
18
100
AcDbEntity
  8
TEXT
100
AcDbPolyline
 90
        4
 70
     0
 43
0.0
 10
4.472862114698626
 20
1.838264654238695
 10
4.472862114698626
 20
1.64362210507306
 10
4.541340397986484
 20
1.64362210507306
 10
4.541340397986484
 20
1.687113050023498
 42
-1.714843617202739
  0
LWPOLYLINE
  5
363
330
18
100
AcDbEntity
  8
TEXT
100
AcDbPolyline
 90
        2
 70
     0
 43
0.0
 10
4.761509681353141
 20
1.687113050023498
 42
-0.2901071551932486
 10
4.718433748485496
 20
1.64362210507306
 42
-5.328517124445184
  0
LWPOLYLINE
  5
364
330
18
100
AcDbEntity
  8
TEXT
100
AcDbPolyline
 90
        2
 70
     0
 43
0.0
 10
4.761509681353141
 20
1.64362210507306
 10
4.819864895188475
 20
1.64362210507306
  0
LWPOLYLINE
  5
365
330
18
100
AcDbEntity
  8
TEXT
100
AcDbPolyline
 90
        2
 70
     0
 43
0.0
 10
4.761509681353141
 20
1.687113050023498
 10
4.761509681353141
 20
1.64362210507306
  0
LINE
  5
366
330
18
100
AcDbEntity
  8
TEXT
100
AcDbLine
 10
4.685380242132705
 20
1.808543469942673
 30
0.0
 11
4.675115481719139
 21
1.829794009515367
 31
0.0
  0
LINE
  5
367
330
18
100
AcDbEntity
  8
TEXT
100
AcDbLine
 10
4.819864895188477
 20
1.64362210507306
 30
0.0
 11
4.819864895188469
 21
1.820912610504528
 31
0.0
  0
LINE
  5
368
330
18
100
AcDbEntity
  8
TEXT
100
AcDbLine
 10
5.13827884166999
 20
1.64362210507306
 30
0.0
 11
5.042786618306379
 21
1.800201895120597
 31
0.0
  0
LINE
  5
369
330
18
100
AcDbEntity
  8
TEXT
100
AcDbLine
 10
5.061700469293782
 20
1.64362210507306
 30
0.0
 11
5.13827884166999
 21
1.64362210507306
 31
0.0
  0
LINE
  5
36A
330
18
100
AcDbEntity
  8
TEXT
100
AcDbLine
 10
4.921418751763699
 20
1.64362210507306
 30
0.0
 11
4.985796936082319
 21
1.64362210507306
 31
0.0
  0
LINE
  5
36B
330
18
100
AcDbEntity
  8
TEXT
100
AcDbLine
 10
4.921418751763692
 20
1.845818443404805
 30
0.0
 11
4.921418751763699
 21
1.64362210507306
 31
0.0
  0
LINE
  5
36C
330
18
100
AcDbEntity
  8
TEXT
100
AcDbLine
 10
4.985796936082319
 20
1.77520167354924
 30
0.0
 11
5.061700469293782
 21
1.64362210507306
 31
0.0
  0
LINE
  5
36D
330
18
100
AcDbEntity
  8
TEXT
100
AcDbLine
 10
4.985796936082319
 20
1.64362210507306
 30
0.0
 11
4.985796936082319
 21
1.77520167354924
 31
0.0
  0
LINE
  5
36E
330
18
100
AcDbEntity
  8
TEXT
100
AcDbLine
 10
3.841433625459373
 20
1.910095138061571
 30
0.0
 11
3.665701872560862
 21
1.910095138061571
 31
0.0
  0
LWPOLYLINE
  5
36F
330
18
100
AcDbEntity
  8
TEXT
100
AcDbPolyline
 90
        2
 70
     0
 43
0.0006660908203125
 10
3.247624177155207
 20
1.883451505249073
 10
3.247624177155207
 20
1.910095138061574
  0
LWPOLYLINE
  5
370
330
18
100
AcDbEntity
  8
TEXT
100
AcDbPolyline
 90
        2
 70
     0
 43
0.0006660908203125
 10
3.287589626373959
 20
1.883451505249073
 10
3.287589626373959
 20
1.910095138061574
  0
TEXT
  5
371
330
18
100
AcDbEntity
  8
TEXT
100
AcDbText
 10
5.290342429769394
 20
1.92302476765114
 30
0.0
 40
0.0522247191011236
  1
Stylmark  Incorporated
 41
1.221428571428571
 72
     5
 11
6.619275014039057
 21
1.92302476765114
 31
0.0
100
AcDbText
  0
LINE
  5
372
330
18
100
AcDbEntity
  8
TEXT
100
AcDbLine
 10
4.916938864437192
 20
1.910095138061571
 30
0.0
 11
4.849439146787677
 21
1.910095138061571
 31
0.0
  0
TEXT
  5
373
330
18
100
AcDbEntity
  8
TEXT
100
AcDbText
 10
4.12108489056669
 20
2.090172129424639
 30
0.0
 40
0.125
  1
PART #110405
  7
ITALICC
 72
     1
 11
4.877037271519071
 21
2.090172129424639
 31
0.0
100
AcDbText
  0
LINE
  5
374
330
18
100
AcDbEntity
  8
TEXT
100
AcDbLine
 10
4.35391461571363
 20
1.910095138061571
 30
0.0
 11
4.219896559782494
 21
1.910095138061571
 31
0.0
  0
LINE
  5
375
330
18
100
AcDbEntity
  8
TEXT
100
AcDbLine
 10
3.90147623030338
 20
1.944483055655709
 30
0.0
 11
3.841433625459373
 21
1.944483055655709
 31
0.0
  0
LINE
  5
376
330
18
100
AcDbEntity
  8
TEXT
100
AcDbLine
 10
3.841433625459373
 20
1.944483055655709
 30
0.0
 11
3.841433625459373
 21
1.910095138061571
 31
0.0
  0
LINE
  5
377
330
18
100
AcDbEntity
  8
TEXT
100
AcDbLine
 10
3.973275196447289
 20
1.910095138061571
 30
0.0
 11
3.90147623030338
 21
1.910095138061571
 31
0.0
  0
LINE
  5
378
330
18
100
AcDbEntity
  8
TEXT
100
AcDbLine
 10
3.90147623030338
 20
1.910095138061571
 30
0.0
 11
3.90147623030338
 21
1.944483055655709
 31
0.0
  0
LINE
  5
379
330
18
100
AcDbEntity
  8
TEXT
100
AcDbLine
 10
4.187584705644834
 20
1.978106615800381
 30
0.0
 11
4.120775993078467
 21
1.978106615800381
 31
0.0
  0
LINE
  5
37A
330
18
100
AcDbEntity
  8
TEXT
100
AcDbLine
 10
4.120775993078467
 20
1.910095138061571
 30
0.0
 11
4.090654080285091
 21
1.910095138061571
 31
0.0
  0
LINE
  5
37B
330
18
100
AcDbEntity
  8
TEXT
100
AcDbLine
 10
4.120775993078467
 20
1.978106615800381
 30
0.0
 11
4.120775993078467
 21
1.910095138061571
 31
0.0
  0
LINE
  5
37C
330
18
100
AcDbEntity
  8
TEXT
100
AcDbLine
 10
4.67861006517306
 20
1.910095138061571
 30
0.0
 11
4.543778155956001
 21
1.910095138061571
 31
0.0
  0
LWPOLYLINE
  5
37D
330
18
100
AcDbEntity
  8
TEXT
100
AcDbPolyline
 90
        3
 70
     0
 43
0.0
 10
4.507996465242836
 20
1.910095138061574
 10
4.389696306426792
 20
1.910095138061574
 10
4.389696306426792
 20
1.882927641300678
 42
-1.960274751411753
  0
LWPOLYLINE
  5
37E
330
18
100
AcDbEntity
  8
TEXT
100
AcDbPolyline
 90
        2
 70
     0
 43
0.0
 10
4.35391461571363
 20
1.910095138061574
 42
-0.3328679258950098
 10
4.389696306426792
 20
1.882927641300678
 42
6.772930709997214
  0
LINE
  5
37F
330
18
100
AcDbEntity
  8
TEXT
100
AcDbLine
 10
4.543778155956001
 20
1.910095138061571
 30
0.0
 11
4.543778155956001
 21
1.881772592291927
 31
0.0
  0
LWPOLYLINE
  5
380
330
18
100
AcDbEntity
  8
TEXT
100
AcDbPolyline
 90
        2
 70
     0
 43
0.0
 10
4.507996465242836
 20
1.910095138061574
 42
-0.3277054968067132
 10
4.543778155956001
 20
1.88177259229193
 42
6.667889725900311
  0
LINE
  5
381
330
18
100
AcDbEntity
  8
TEXT
100
AcDbLine
 10
4.821466910347602
 20
1.910095138061571
 30
0.0
 11
4.757570004048101
 21
1.910095138061571
 31
0.0
  0
ARC
  5
382
330
18
100
AcDbEntity
  8
TEXT
100
AcDbCircle
 10
4.676583125395993
 20
1.868511570940668
 30
0.0
 40
0.0416329381542859
100
AcDbArc
 50
26.56974201007528
 51
87.20939649401342
  0
LINE
  5
383
330
18
100
AcDbEntity
  8
TEXT
100
AcDbLine
 10
4.821466910347602
 20
1.882547488200696
 30
0.0
 11
4.821466910347602
 21
1.910095138061571
 31
0.0
  0
ARC
  5
384
330
18
100
AcDbEntity
  8
TEXT
100
AcDbCircle
 10
4.852659727410712
 20
1.878849410779306
 30
0.0
 40
0.0314112657011332
100
AcDbArc
 50
95.88484768694724
 51
173.2388340632136
  0
LINE
  5
385
330
18
100
AcDbEntity
  8
TEXT
100
AcDbLine
 10
5.107343734272085
 20
1.910095138061571
 30
0.0
 11
5.032351901542458
 21
1.910095138061571
 31
0.0
  0
LINE
  5
386
330
18
100
AcDbEntity
  8
TEXT
100
AcDbLine
 10
4.916938864437199
 20
1.975559343829171
 30
0.0
 11
4.916938864437192
 21
1.910095138061571
 31
0.0
  0
LINE
  5
387
330
18
100
AcDbEntity
  8
TEXT
100
AcDbLine
 10
4.985253742986472
 20
1.975559343829171
 30
0.0
 11
4.916938864437199
 21
1.975559343829171
 31
0.0
  0
ENDSEC
  0
SECTION
  2
OBJECTS
  0
DICTIONARY
  5
C
330
0
100
AcDbDictionary
  3
ACAD_GROUP
350
D
  3
ACAD_LAYOUT
350
38C
  3
ACAD_MLINESTYLE
350
E
  3
ACAD_PLOTSETTINGS
350
38D
  3
ACAD_PLOTSTYLENAME
350
38A
  3
ACDBHEADERROUNDTRIPXREC
350
398
  3
ACDBVARIABLEDICTIONARY
350
395
  0
DICTIONARY
  5
3BA
330
18
100
AcDbDictionary
280
     1
  3
ACAD_LAYOUTSELFREF
360
3BB
  0
DICTIONARY
  5
3B8
330
15
100
AcDbDictionary
280
     1
  3
ACAD_LAYOUTSELFREF
360
3B9
  0
DICTIONARY
  5
D
102
{ACAD_REACTORS
330
C
102
}
330
C
100
AcDbDictionary
  0
DICTIONARY
  5
38C
102
{ACAD_REACTORS
330
C
102
}
330
C
100
AcDbDictionary
  0
DICTIONARY
  5
E
102
{ACAD_REACTORS
330
C
102
}
330
C
100
AcDbDictionary
  3
STANDARD
350
1B
  0
DICTIONARY
  5
38D
102
{ACAD_REACTORS
330
C
102
}
330
C
100
AcDbDictionary
  0
ACDBDICTIONARYWDFLT
  5
38A
102
{ACAD_REACTORS
330
C
102
}
330
C
100
AcDbDictionary
281
     1
  3
Normal
350
38B
100
AcDbDictionaryWithDefault
340
38B
  0
DICTIONARY
  5
398
102
{ACAD_REACTORS
330
C
102
}
330
C
100
AcDbDictionary
  3
CEPSNTYPE
350
3A2
  3
FINGERPRINTGUID
350
3A3
  3
HYPERLINKBASE
350
39B
  3
INSUNITS
350
3A1
  3
LAYOUTDICT
350
39D
  3
LWETCUNION
350
3A0
  3
PLOTSETDICT
350
39E
  3
PLOTSTYLNAMDICT
350
39F
  3
PSVPSCALE
350
3A5
  3
PUCSBASE
350
3A8
  3
PUCSORGBACK
350
3AE
  3
PUCSORGBOTTOM
350
3AA
  3
PUCSORGFRONT
350
3AD
  3
PUCSORGLEFT
350
3AB
  3
PUCSORGRIGHT
350
3AC
  3
PUCSORGTOP
350
3A9
  3
PUCSORTHOREF
350
3A6
  3
PUCSORTHOVIEW
350
3A7
  3
STYLESHEET
350
39C
  3
TSTACKALIGN
350
399
  3
TSTACKSIZE
350
39A
  3
UCSBASE
350
3B1
  3
UCSORGBACK
350
3B7
  3
UCSORGBOTTOM
350
3B3
  3
UCSORGFRONT
350
3B6
  3
UCSORGLEFT
350
3B4
  3
UCSORGRIGHT
350
3B5
  3
UCSORGTOP
350
3B2
  3
UCSORTHOREF
350
3AF
  3
UCSORTHOVIEW
350
3B0
  3
VERSIONGUID
350
3A4
  0
DICTIONARY
  5
395
102
{ACAD_REACTORS
330
C
102
}
330
C
100
AcDbDictionary
  3
DIMASSOC
350
396
  0
XRECORD
  5
3BB
102
{ACAD_REACTORS
330
3BA
102
}
330
3BA
100
AcDbXrecord
340
18
  0
XRECORD
  5
3B9
102
{ACAD_REACTORS
330
3B8
102
}
330
3B8
100
AcDbXrecord
340
15
  0
MLINESTYLE
  5
1B
102
{ACAD_REACTORS
330
E
102
}
330
E
100
AcDbMlineStyle
  2
STANDARD
 70
     0
  3

 62
     0
 51
90.0
 52
90.0
 71
     2
 49
0.5
 62
   256
  6
BYLAYER
 49
-0.5
 62
   256
  6
BYLAYER
  0
ACDBPLACEHOLDER
  5
38B
102
{ACAD_REACTORS
330
38A
102
}
330
38A
100
AcDbPlaceHolder
280
     0
  0
XRECORD
  5
3A2
102
{ACAD_REACTORS
330
398
102
}
330
398
100
AcDbXrecord
 90
        0
  0
XRECORD
  5
3A3
102
{ACAD_REACTORS
330
398
102
}
330
398
100
AcDbXrecord
  1
{07C205A0-8DB7-11D6-88E6-0090279574E7}
  0
XRECORD
  5
39B
102
{ACAD_REACTORS
330
398
102
}
330
398
100
AcDbXrecord
  1

  0
XRECORD
  5
3A1
102
{ACAD_REACTORS
330
398
102
}
330
398
100
AcDbXrecord
 90
        0
  0
XRECORD
  5
39D
102
{ACAD_REACTORS
330
398
102
}
330
398
100
AcDbXrecord
340
38C
  0
XRECORD
  5
3A0
102
{ACAD_REACTORS
330
398
102
}
330
398
100
AcDbXrecord
 90
    14877
  0
XRECORD
  5
39E
102
{ACAD_REACTORS
330
398
102
}
330
398
100
AcDbXrecord
340
38D
  0
XRECORD
  5
39F
102
{ACAD_REACTORS
330
398
102
}
330
398
100
AcDbXrecord
340
38A
  0
XRECORD
  5
3A5
102
{ACAD_REACTORS
330
398
102
}
330
398
100
AcDbXrecord
 40
0.0
  0
XRECORD
  5
3A8
102
{ACAD_REACTORS
330
398
102
}
330
398
100
AcDbXrecord
340
0
  0
XRECORD
  5
3AE
102
{ACAD_REACTORS
330
398
102
}
330
398
100
AcDbXrecord
 10
0.0
 20
0.0
 30
0.0
  0
XRECORD
  5
3AA
102
{ACAD_REACTORS
330
398
102
}
330
398
100
AcDbXrecord
 10
0.0
 20
0.0
 30
0.0
  0
XRECORD
  5
3AD
102
{ACAD_REACTORS
330
398
102
}
330
398
100
AcDbXrecord
 10
0.0
 20
0.0
 30
0.0
  0
XRECORD
  5
3AB
102
{ACAD_REACTORS
330
398
102
}
330
398
100
AcDbXrecord
 10
0.0
 20
0.0
 30
0.0
  0
XRECORD
  5
3AC
102
{ACAD_REACTORS
330
398
102
}
330
398
100
AcDbXrecord
 10
0.0
 20
0.0
 30
0.0
  0
XRECORD
  5
3A9
102
{ACAD_REACTORS
330
398
102
}
330
398
100
AcDbXrecord
 10
0.0
 20
0.0
 30
0.0
  0
XRECORD
  5
3A6
102
{ACAD_REACTORS
330
398
102
}
330
398
100
AcDbXrecord
340
0
  0
XRECORD
  5
3A7
102
{ACAD_REACTORS
330
398
102
}
330
398
100
AcDbXrecord
 70
     0
  0
XRECORD
  5
39C
102
{ACAD_REACTORS
330
398
102
}
330
398
100
AcDbXrecord
  1

  0
XRECORD
  5
399
102
{ACAD_REACTORS
330
398
102
}
330
398
100
AcDbXrecord
 90
        1
  0
XRECORD
  5
39A
102
{ACAD_REACTORS
330
398
102
}
330
398
100
AcDbXrecord
 90
       70
  0
XRECORD
  5
3B1
102
{ACAD_REACTORS
330
398
102
}
330
398
100
AcDbXrecord
340
0
  0
XRECORD
  5
3B7
102
{ACAD_REACTORS
330
398
102
}
330
398
100
AcDbXrecord
 10
0.0
 20
0.0
 30
0.0
  0
XRECORD
  5
3B3
102
{ACAD_REACTORS
330
398
102
}
330
398
100
AcDbXrecord
 10
0.0
 20
0.0
 30
0.0
  0
XRECORD
  5
3B6
102
{ACAD_REACTORS
330
398
102
}
330
398
100
AcDbXrecord
 10
0.0
 20
0.0
 30
0.0
  0
XRECORD
  5
3B4
102
{ACAD_REACTORS
330
398
102
}
330
398
100
AcDbXrecord
 10
0.0
 20
0.0
 30
0.0
  0
XRECORD
  5
3B5
102
{ACAD_REACTORS
330
398
102
}
330
398
100
AcDbXrecord
 10
0.0
 20
0.0
 30
0.0
  0
XRECORD
  5
3B2
102
{ACAD_REACTORS
330
398
102
}
330
398
100
AcDbXrecord
 10
0.0
 20
0.0
 30
0.0
  0
XRECORD
  5
3AF
102
{ACAD_REACTORS
330
398
102
}
330
398
100
AcDbXrecord
340
0
  0
XRECORD
  5
3B0
102
{ACAD_REACTORS
330
398
102
}
330
398
100
AcDbXrecord
 70
     0
  0
XRECORD
  5
3A4
102
{ACAD_REACTORS
330
398
102
}
330
398
100
AcDbXrecord
  1
{07C205A2-8DB7-11D6-88E6-0090279574E7}
  0
DICTIONARYVAR
  5
396
102
{ACAD_REACTORS
330
395
102
}
330
395
100
DictionaryVariables
280
     0
  1
1
  0
ENDSEC
  0
EOF
