  0
SECTION
  2
HEADER
  9
$ACADVER
  1
AC1014
  9
$ACADMAINTVER
 70
     9
  9
$DWGCODEPAGE
  3
ANSI_1252
  9
$INSBASE
 10
5.589301240340957
 20
5.601327134011444
 30
0.0
  9
$EXTMIN
 10
3.954827764333253
 20
4.257671170301676
 30
0.0
  9
$EXTMAX
 10
7.440047086080388
 20
6.130826307322019
 30
0.0
  9
$LIMMIN
 10
0.0
 20
0.0
  9
$LIMMAX
 10
18.0
 20
12.0
  9
$ORTHOMODE
 70
     1
  9
$REGENMODE
 70
     1
  9
$FILLMODE
 70
     1
  9
$QTEXTMODE
 70
     0
  9
$MIRRTEXT
 70
     0
  9
$DRAGMODE
 70
     2
  9
$LTSCALE
 40
1.0
  9
$OSMODE
 70
    39
  9
$ATTMODE
 70
     1
  9
$TEXTSIZE
 40
0.125
  9
$TRACEWID
 40
0.05
  9
$TEXTSTYLE
  7
ROMANS
  9
$CLAYER
  8
0
  9
$CELTYPE
  6
BYLAYER
  9
$CECOLOR
 62
   256
  9
$CELTSCALE
 40
1.0
  9
$DELOBJ
 70
     1
  9
$DISPSILH
 70
     1
  9
$DIMSCALE
 40
1.0
  9
$DIMASZ
 40
0.125
  9
$DIMEXO
 40
0.125
  9
$DIMDLI
 40
0.375
  9
$DIMRND
 40
0.0
  9
$DIMDLE
 40
0.0
  9
$DIMEXE
 40
0.125
  9
$DIMTP
 40
0.0
  9
$DIMTM
 40
0.0
  9
$DIMTXT
 40
0.125
  9
$DIMCEN
 40
-0.125
  9
$DIMTSZ
 40
0.0
  9
$DIMTOL
 70
     0
  9
$DIMLIM
 70
     0
  9
$DIMTIH
 70
     1
  9
$DIMTOH
 70
     1
  9
$DIMSE1
 70
     0
  9
$DIMSE2
 70
     0
  9
$DIMTAD
 70
     0
  9
$DIMZIN
 70
     4
  9
$DIMBLK
  1

  9
$DIMASO
 70
     1
  9
$DIMSHO
 70
     1
  9
$DIMPOST
  1

  9
$DIMAPOST
  1

  9
$DIMALT
 70
     0
  9
$DIMALTD
 70
     2
  9
$DIMALTF
 40
25.4
  9
$DIMLFAC
 40
1.0
  9
$DIMTOFL
 70
     0
  9
$DIMTVP
 40
0.0
  9
$DIMTIX
 70
     1
  9
$DIMSOXD
 70
     0
  9
$DIMSAH
 70
     0
  9
$DIMBLK1
  1

  9
$DIMBLK2
  1

  9
$DIMSTYLE
  2
STANDARD
  9
$DIMCLRD
 70
     0
  9
$DIMCLRE
 70
     0
  9
$DIMCLRT
 70
     0
  9
$DIMTFAC
 40
1.0
  9
$DIMGAP
 40
0.09
  9
$DIMJUST
 70
     0
  9
$DIMSD1
 70
     0
  9
$DIMSD2
 70
     0
  9
$DIMTOLJ
 70
     1
  9
$DIMTZIN
 70
     4
  9
$DIMALTZ
 70
     0
  9
$DIMALTTZ
 70
     0
  9
$DIMFIT
 70
     3
  9
$DIMUPT
 70
     0
  9
$DIMUNIT
 70
     2
  9
$DIMDEC
 70
     3
  9
$DIMTDEC
 70
     3
  9
$DIMALTU
 70
     2
  9
$DIMALTTD
 70
     2
  9
$DIMTXSTY
  7
ROMANS
  9
$DIMAUNIT
 70
     0
  9
$LUNITS
 70
     2
  9
$LUPREC
 70
     3
  9
$SKETCHINC
 40
0.1
  9
$FILLETRAD
 40
0.03125
  9
$AUNITS
 70
     0
  9
$AUPREC
 70
     0
  9
$MENU
  1
ACAD
  9
$ELEVATION
 40
0.0
  9
$PELEVATION
 40
0.0
  9
$THICKNESS
 40
0.0
  9
$LIMCHECK
 70
     0
  9
$BLIPMODE
 70
     0
  9
$CHAMFERA
 40
0.0
  9
$CHAMFERB
 40
0.0
  9
$CHAMFERC
 40
0.0
  9
$CHAMFERD
 40
0.0
  9
$SKPOLY
 70
     0
  9
$TDCREATE
 40
2448994.639033912
  9
$TDUPDATE
 40
2452458.310478599
  9
$TDINDWG
 40
0.0005999537
  9
$TDUSRTIMER
 40
0.0005999537
  9
$USRTIMER
 70
     1
  9
$ANGBASE
 50
0.0
  9
$ANGDIR
 70
     0
  9
$PDMODE
 70
     0
  9
$PDSIZE
 40
0.0
  9
$PLINEWID
 40
0.0
  9
$COORDS
 70
     2
  9
$SPLFRAME
 70
     0
  9
$SPLINETYPE
 70
     6
  9
$SPLINESEGS
 70
     8
  9
$ATTDIA
 70
     0
  9
$ATTREQ
 70
     1
  9
$HANDLING
 70
 22529
  9
$HANDSEED
  5
7DE1B343D9DF9D7
  9
$SURFTAB1
 70
     6
  9
$SURFTAB2
 70
     6
  9
$SURFTYPE
 70
     6
  9
$SURFU
 70
     6
  9
$SURFV
 70
     6
  9
$UCSNAME
  2

  9
$UCSORG
 10
0.0
 20
0.0
 30
0.0
  9
$UCSXDIR
 10
1.0
 20
0.0
 30
0.0
  9
$UCSYDIR
 10
0.0
 20
1.0
 30
0.0
  9
$PUCSNAME
  2

  9
$PUCSORG
 10
0.0
 20
0.0
 30
0.0
  9
$PUCSXDIR
 10
1.0
 20
0.0
 30
0.0
  9
$PUCSYDIR
 10
0.0
 20
1.0
 30
0.0
  9
$USERI1
 70
     0
  9
$USERI2
 70
     0
  9
$USERI3
 70
     0
  9
$USERI4
 70
     0
  9
$USERI5
 70
     0
  9
$USERR1
 40
0.0
  9
$USERR2
 40
0.0
  9
$USERR3
 40
0.0
  9
$USERR4
 40
0.0
  9
$USERR5
 40
0.0
  9
$WORLDVIEW
 70
     1
  9
$SHADEDGE
 70
     3
  9
$SHADEDIF
 70
    70
  9
$TILEMODE
 70
     1
  9
$MAXACTVP
 70
    16
  9
$PINSBASE
 10
0.0
 20
0.0
 30
0.0
  9
$PLIMCHECK
 70
     0
  9
$PEXTMIN
 10
1.000000000000000E+20
 20
1.000000000000000E+20
 30
1.000000000000000E+20
  9
$PEXTMAX
 10
-1.000000000000000E+20
 20
-1.000000000000000E+20
 30
-1.000000000000000E+20
  9
$PLIMMIN
 10
0.0
 20
0.0
  9
$PLIMMAX
 10
12.0
 20
9.0
  9
$UNITMODE
 70
     0
  9
$VISRETAIN
 70
     0
  9
$PLINEGEN
 70
     1
  9
$PSLTSCALE
 70
     0
  9
$TREEDEPTH
 70
  3020
  9
$PICKSTYLE
 70
     1
  9
$CMLSTYLE
  2
STANDARD
  9
$CMLJUST
 70
     0
  9
$CMLSCALE
 40
1.0
  9
$PROXYGRAPHICS
 70
     1
  9
$MEASUREMENT
 70
     0
  0
ENDSEC
  0
SECTION
  2
CLASSES
  0
CLASS
  1
LWPOLYLINE
  2
AcDbPolyline
  3
AutoCAD 2000
 90
        0
280
     0
281
     1
  0
CLASS
  1
ACDBDICTIONARYWDFLT
  2
AcDbDictionaryWithDefault
  3
AutoCAD 2000
 90
        0
280
     0
281
     0
  0
CLASS
  1
ACDBPLACEHOLDER
  2
AcDbPlaceHolder
  3
AutoCAD 2000
 90
        0
280
     0
281
     0
  0
CLASS
  1
LAYOUT
  2
AcDbLayout
  3
AutoCAD 2000
 90
        0
280
     0
281
     0
  0
CLASS
  1
DICTIONARYVAR
  2
AcDbDictionaryVar
  3
AutoCAD 2000
 90
        0
280
     0
281
     0
  0
CLASS
  1
LONG_TRANSACTION
  2
AcDbLongTransaction
  3
AutoCAD 2000
 90
        0
280
     0
281
     0
  0
CLASS
  1
LWPOLYLINE
  2
AcDbPolyline
  3
AutoCAD 2000
 90
        0
280
     0
281
     1
  0
CLASS
  1
HATCH
  2
AcDbHatch
  3
AutoCAD 2000
 90
        0
280
     0
281
     1
  0
CLASS
  1
XRECORD
  2
AcDbXrecord
  3
AutoCAD 2000
 90
        0
280
     0
281
     0
  0
ENDSEC
  0
SECTION
  2
TABLES
  0
TABLE
  2
VPORT
  5
7DE1B343D9DF97E
330
0
100
AcDbSymbolTable
 70
     2
  0
VPORT
  5
7DE1B343D9DF9B2
330
7DE1B343D9DF97E
100
AcDbSymbolTableRecord
100
AcDbViewportTableRecord
  2
*ACTIVE
 70
     0
 10
0.0
 20
0.0
 11
1.0
 21
1.0
 12
8.674258080033684
 22
5.193878200829352
 13
0.0
 23
0.0
 14
0.015625
 24
0.015625
 15
0.0
 25
0.0
 16
0.0
 26
0.0
 36
1.0
 17
0.0
 27
0.0
 37
0.0
 40
2.282647215150728
 41
4.320930232558139
 42
50.0
 43
0.0
 44
0.0
 50
0.0
 51
0.0
 71
     0
 72
  2000
 73
     1
 74
     0
 75
     0
 76
     0
 77
     0
 78
     0
  0
ENDTAB
  0
TABLE
  2
LTYPE
  5
7DE1B343D9DF97B
330
0
100
AcDbSymbolTable
 70
     1
  0
LTYPE
  5
7DE1B343D9DF988
330
7DE1B343D9DF97B
100
AcDbSymbolTableRecord
100
AcDbLinetypeTableRecord
  2
BYBLOCK
 70
     0
  3

 72
    65
 73
     0
 40
0.0
  0
LTYPE
  5
7DE1B343D9DF989
330
7DE1B343D9DF97B
100
AcDbSymbolTableRecord
100
AcDbLinetypeTableRecord
  2
BYLAYER
 70
     0
  3

 72
    65
 73
     0
 40
0.0
  0
LTYPE
  5
7DE1B343D9DF98A
330
7DE1B343D9DF97B
100
AcDbSymbolTableRecord
100
AcDbLinetypeTableRecord
  2
CONTINUOUS
 70
     0
  3
Solid line
 72
    65
 73
     0
 40
0.0
  0
ENDTAB
  0
TABLE
  2
LAYER
  5
7DE1B343D9DF978
330
0
100
AcDbSymbolTable
 70
     2
  0
LAYER
  5
7DE1B343D9DF985
330
7DE1B343D9DF978
100
AcDbSymbolTableRecord
100
AcDbLayerTableRecord
  2
0
 70
     0
 62
     7
  6
CONTINUOUS
  0
LAYER
  5
7DE1B343D9DF995
330
7DE1B343D9DF978
100
AcDbSymbolTableRecord
100
AcDbLayerTableRecord
  2
TEXT
 70
     0
 62
     3
  6
CONTINUOUS
  0
ENDTAB
  0
TABLE
  2
STYLE
  5
7DE1B343D9DF979
330
0
100
AcDbSymbolTable
 70
     3
  0
STYLE
  5
7DE1B343D9DF986
330
7DE1B343D9DF979
100
AcDbSymbolTableRecord
100
AcDbTextStyleTableRecord
  2
STANDARD
 70
     0
 40
0.0
 41
1.0
 50
0.0
 71
     0
 42
0.3125
  3
txt
  4

  0
STYLE
  5
7DE1B343D9DF992
330
7DE1B343D9DF979
100
AcDbSymbolTableRecord
100
AcDbTextStyleTableRecord
  2
ITALICC
 70
     0
 40
0.0
 41
1.0
 50
0.0
 71
     0
 42
0.125
  3
italicc
  4

  0
STYLE
  5
7DE1B343D9DF9A2
330
7DE1B343D9DF979
100
AcDbSymbolTableRecord
100
AcDbTextStyleTableRecord
  2
ROMANS
 70
     0
 40
0.0
 41
1.0
 50
0.0
 71
     0
 42
0.125
  3
romans.shx
  4

  0
ENDTAB
  0
TABLE
  2
VIEW
  5
7DE1B343D9DF97C
330
0
100
AcDbSymbolTable
 70
     0
  0
ENDTAB
  0
TABLE
  2
UCS
  5
7DE1B343D9DF97D
330
0
100
AcDbSymbolTable
 70
     0
  0
ENDTAB
  0
TABLE
  2
APPID
  5
7DE1B343D9DF97F
330
0
100
AcDbSymbolTable
 70
     1
  0
APPID
  5
7DE1B343D9DF987
330
7DE1B343D9DF97F
100
AcDbSymbolTableRecord
100
AcDbRegAppTableRecord
  2
ACAD
 70
     0
  0
ENDTAB
  0
TABLE
  2
DIMSTYLE
  5
7DE1B343D9DF980
330
0
100
AcDbSymbolTable
 70
     1
  0
DIMSTYLE
105
7DE1B343D9DF99A
330
7DE1B343D9DF980
100
AcDbSymbolTableRecord
100
AcDbDimStyleTableRecord
  2
STANDARD
 70
     0
  3

  4

  5

  6

  7

 40
1.0
 41
0.125
 42
0.125
 43
0.375
 44
0.125
 45
0.0
 46
0.0
 47
0.0
 48
0.0
140
0.125
141
-0.125
142
0.0
143
25.4
144
1.0
145
0.0
146
1.0
147
0.09
 71
     0
 72
     0
 73
     1
 74
     1
 75
     0
 76
     0
 77
     0
 78
     4
170
     0
171
     2
172
     0
173
     0
174
     1
175
     0
176
     0
177
     0
178
     0
270
     2
271
     3
272
     3
273
     2
274
     2
340
7DE1B343D9DF9A2
275
     0
280
     0
281
     0
282
     0
283
     1
284
     4
285
     0
286
     0
287
     3
288
     0
  0
ENDTAB
  0
TABLE
  2
BLOCK_RECORD
  5
7DE1B343D9DF977
330
0
100
AcDbSymbolTable
 70
     0
  0
BLOCK_RECORD
  5
7DE1B343D9DF98E
102
{ACAD_XDICTIONARY
360
7DE1B343D9DF9D5
102
}
330
7DE1B343D9DF977
100
AcDbSymbolTableRecord
100
AcDbBlockTableRecord
  2
*MODEL_SPACE
  0
BLOCK_RECORD
  5
7DE1B343D9DF98B
102
{ACAD_XDICTIONARY
360
7DE1B343D9DF9D3
102
}
330
7DE1B343D9DF977
100
AcDbSymbolTableRecord
100
AcDbBlockTableRecord
  2
*PAPER_SPACE
  0
ENDTAB
  0
ENDSEC
  0
SECTION
  2
BLOCKS
  0
BLOCK
  5
7DE1B343D9DF998
330
7DE1B343D9DF98E
100
AcDbEntity
  8
0
100
AcDbBlockBegin
  2
*MODEL_SPACE
 70
     0
 10
0.0
 20
0.0
 30
0.0
  3
*MODEL_SPACE
  1

  0
ENDBLK
  5
7DE1B343D9DF999
330
7DE1B343D9DF98E
100
AcDbEntity
  8
0
100
AcDbBlockEnd
  0
BLOCK
  5
7DE1B343D9DF996
330
7DE1B343D9DF98B
100
AcDbEntity
 67
     1
  8
0
100
AcDbBlockBegin
  2
*PAPER_SPACE
 70
     0
 10
0.0
 20
0.0
 30
0.0
  3
*PAPER_SPACE
  1

  0
ENDBLK
  5
7DE1B343D9DF997
330
7DE1B343D9DF98B
100
AcDbEntity
 67
     1
  8
0
100
AcDbBlockEnd
  0
ENDSEC
  0
SECTION
  2
ENTITIES
  0
LWPOLYLINE
  5
7DE1B343D9DE55E
330
7DE1B343D9DF98E
100
AcDbEntity
  8
0
100
AcDbPolyline
 90
       24
 70
     1
 43
0.0
 10
5.230309343560397
 20
6.068326307322019
 10
5.323434343560398
 20
6.068326307322019
 10
5.323434343560398
 20
6.130826307322018
 10
5.167809343560397
 20
6.130826307322019
 10
5.167809343560397
 20
5.818326307322019
 10
5.697809343560399
 20
5.818326307322019
 10
5.697809343560397
 20
5.005826307322019
 10
6.039315694506507
 20
5.005826307322019
 10
6.072809343560397
 20
5.130826307322019
 10
6.008104582284767
 20
5.130826307322019
 10
5.991357757757823
 20
5.068326307322019
 10
5.760309343560397
 20
5.068326307322019
 10
5.760309343560397
 20
5.163326307322019
 10
5.822809343560397
 20
5.163326307322019
 10
5.822809343560397
 20
5.225826307322019
 10
5.760309343560397
 20
5.225826307322019
 10
5.760309343560399
 20
5.818326307322019
 10
5.822809343560399
 20
5.818326307322019
 10
5.822809343560399
 20
6.130826307322017
 10
5.667184343560398
 20
6.130826307322017
 10
5.667184343560398
 20
6.068326307322017
 10
5.760309343560399
 20
6.068326307322017
 10
5.760309343560399
 20
5.880826307322019
 10
5.230309343560397
 20
5.880826307322019
  0
TEXT
  5
7DE1B343D9DF839
330
7DE1B343D9DF98E
100
AcDbEntity
  8
TEXT
100
AcDbText
 10
4.944833153084206
 20
4.715689774384257
 30
0.0
 40
0.125
  1
PART #110403
  7
ITALICC
 72
     1
 11
5.697809343560397
 21
4.715689774384257
 31
0.0
100
AcDbText
  0
TEXT
  5
7DE1B343D9DF83A
330
7DE1B343D9DF98E
100
AcDbEntity
  8
TEXT
100
AcDbText
 10
6.111114501810718
 20
4.268767131711882
 30
0.0
 40
0.0522247191011236
  1
Phone  1-800-328-2495
 41
1.272321428571429
 72
     5
 11
7.440047086080381
 21
4.268767131711882
 31
0.0
100
AcDbText
  0
TEXT
  5
7DE1B343D9DF83B
330
7DE1B343D9DF98E
100
AcDbEntity
  8
TEXT
100
AcDbText
 10
6.111114501810718
 20
4.548542412610759
 30
0.0
 40
0.0522247191011236
  1
Stylmark  Incorporated
 41
1.221428571428573
 72
     5
 11
7.440047086080381
 21
4.548542412610759
 31
0.0
100
AcDbText
  0
TEXT
  5
7DE1B343D9DF83C
330
7DE1B343D9DF98E
100
AcDbEntity
  8
TEXT
100
AcDbText
 10
6.111114501810718
 20
4.455283985644467
 30
0.0
 40
0.0522247191011236
  1
6536 Main St. N.E. * P.O. Box 32008
 41
0.8388932496075366
 72
     5
 11
7.440047086080381
 21
4.455283985644467
 31
0.0
100
AcDbText
  0
TEXT
  5
7DE1B343D9DF83D
330
7DE1B343D9DF98E
100
AcDbEntity
  8
TEXT
100
AcDbText
 10
6.111114501810718
 20
4.362025558678174
 30
0.0
 40
0.0522247191011236
  1
Minneapolis, MN 55432-0008
 41
1.11444212721585
 72
     5
 11
7.440047086080381
 21
4.362025558678174
 31
0.0
100
AcDbText
  0
LWPOLYLINE
  5
7DE1B343D9DF83E
330
7DE1B343D9DF98E
100
AcDbEntity
  8
TEXT
100
AcDbPolyline
 90
        3
 70
     0
 43
0.0006660908203125
 10
3.95516080974341
 20
4.382411894349317
 10
3.95516080974341
 20
4.269176454896189
 10
4.068396249196532
 20
4.269176454896189
  0
LWPOLYLINE
  5
7DE1B343D9DF843
330
7DE1B343D9DF98E
100
AcDbEntity
  8
TEXT
100
AcDbPolyline
 90
        3
 70
     0
 43
0.0006660908203125
 10
3.981804442555907
 20
4.382411894349317
 10
3.981804442555907
 20
4.29582008770869
 10
4.068396249196532
 20
4.29582008770869
  0
LWPOLYLINE
  5
7DE1B343D9DF848
330
7DE1B343D9DF98E
100
AcDbEntity
  8
TEXT
100
AcDbPolyline
 90
        2
 70
     0
 43
0.0001332181640625
 10
4.028430799977784
 20
4.392403256654002
 10
3.95516080974341
 20
4.382411894349317
  0
LWPOLYLINE
  5
7DE1B343D9DF84C
330
7DE1B343D9DF98E
100
AcDbEntity
  8
TEXT
100
AcDbPolyline
 90
        2
 70
     0
 43
0.0001332181640625
 10
3.981804442555907
 20
4.382411894349317
 10
4.041752616384035
 20
4.392403256654002
  0
LWPOLYLINE
  5
7DE1B343D9DF850
330
7DE1B343D9DF98E
100
AcDbEntity
  8
TEXT
100
AcDbPolyline
 90
        2
 70
     0
 43
0.0001332181640625
 10
3.981804442555907
 20
4.29582008770869
 10
4.041752616384035
 20
4.355768261536816
  0
LWPOLYLINE
  5
7DE1B343D9DF854
330
7DE1B343D9DF98E
100
AcDbEntity
  8
TEXT
100
AcDbPolyline
 90
        3
 70
     0
 43
0.0006660908203125
 10
4.068396249196532
 20
4.535612783021193
 10
3.95516080974341
 20
4.535612783021193
 10
3.95516080974341
 20
4.422377343568065
  0
LWPOLYLINE
  5
7DE1B343D9DF859
330
7DE1B343D9DF98E
100
AcDbEntity
  8
TEXT
100
AcDbPolyline
 90
        3
 70
     0
 43
0.0006660908203125
 10
4.068396249196532
 20
4.508969150208692
 10
3.981804442555907
 20
4.508969150208692
 10
3.981804442555907
 20
4.422377343568065
  0
LWPOLYLINE
  5
7DE1B343D9DF85E
330
7DE1B343D9DF98E
100
AcDbEntity
  8
TEXT
100
AcDbPolyline
 90
        2
 70
     0
 43
0.0001332181640625
 10
3.981804442555907
 20
4.508969150208692
 10
4.041752616384033
 20
4.449020976380566
  0
LWPOLYLINE
  5
7DE1B343D9DF862
330
7DE1B343D9DF98E
100
AcDbEntity
  8
TEXT
100
AcDbPolyline
 90
        2
 70
     0
 43
0.0001332181640625
 10
3.981804442555907
 20
4.422377343568065
 10
4.041752616384033
 20
4.412385981263376
  0
LWPOLYLINE
  5
7DE1B343D9DF866
330
7DE1B343D9DF98E
100
AcDbEntity
  8
TEXT
100
AcDbPolyline
 90
        2
 70
     0
 43
0.0001332181640625
 10
3.95516080974341
 20
4.422377343568065
 10
4.028430799977784
 20
4.412385981263376
  0
LWPOLYLINE
  5
7DE1B343D9DF86A
330
7DE1B343D9DF98E
100
AcDbEntity
  8
TEXT
100
AcDbPolyline
 90
        2
 70
     0
 43
0.0006660908203125
 10
3.981804442555907
 20
4.382411894349317
 10
3.95516080974341
 20
4.382411894349317
  0
LWPOLYLINE
  5
7DE1B343D9DF86E
330
7DE1B343D9DF98E
100
AcDbEntity
  8
TEXT
100
AcDbPolyline
 90
        2
 70
     0
 43
0.0006660908203125
 10
3.981804442555907
 20
4.422377343568065
 10
3.95516080974341
 20
4.422377343568065
  0
LINE
  5
7DE1B343D9DF872
330
7DE1B343D9DF98E
100
AcDbEntity
  8
TEXT
100
AcDbLine
 10
5.470351238869907
 20
4.471336088364424
 30
0.0
 11
5.363144965482618
 21
4.471336088364424
 31
0.0
  0
LINE
  5
7DE1B343D9DF873
330
7DE1B343D9DF98E
100
AcDbEntity
  8
TEXT
100
AcDbLine
 10
5.499382137214386
 20
4.535612783021189
 30
0.0
 11
5.364550227997327
 21
4.535612783021189
 31
0.0
  0
ARC
  5
7DE1B343D9DF874
330
7DE1B343D9DF98E
100
AcDbEntity
  8
TEXT
100
AcDbCircle
 10
5.423864324390644
 20
4.366375533758173
 30
0.0
 40
0.0676855811441166
100
AcDbArc
 50
90.0
 51
153.7768192527749
  0
LWPOLYLINE
  5
7DE1B343D9DF875
330
7DE1B343D9DF98E
100
AcDbEntity
  8
TEXT
100
AcDbPolyline
 90
        2
 70
     0
 43
0.0
 10
5.362112470027808
 20
4.312630694983116
 42
0.2901071551932823
 10
5.405188402895443
 20
4.269139750032678
 42
5.328517124445801
  0
ARC
  5
7DE1B343D9DF879
330
7DE1B343D9DF98E
100
AcDbEntity
  8
TEXT
100
AcDbCircle
 10
4.718732946719158
 20
4.328932141370728
 30
0.0
 40
0.0601160179737537
100
AcDbArc
 50
180.0000000000003
 51
264.0521544866073
  0
LINE
  5
7DE1B343D9DF87A
330
7DE1B343D9DF98E
100
AcDbEntity
  8
TEXT
100
AcDbLine
 10
4.722248302344706
 20
4.570000700615327
 30
0.0
 11
4.662205697500699
 21
4.570000700615327
 31
0.0
  0
ARC
  5
7DE1B343D9DF87B
330
7DE1B343D9DF98E
100
AcDbEntity
  8
TEXT
100
AcDbCircle
 10
4.486473944602187
 20
4.453525323574687
 30
0.0
 40
0.0820874594465043
100
AcDbArc
 50
90.0
 51
270.0
  0
LWPOLYLINE
  5
7DE1B343D9DF87C
330
7DE1B343D9DF98E
100
AcDbEntity
  8
TEXT
100
AcDbPolyline
 90
        2
 70
     0
 43
0.0001332181640625
 10
4.078387611501223
 20
4.462342792786813
 10
4.068396249196532
 20
4.535612783021193
  0
LWPOLYLINE
  5
7DE1B343D9DF880
330
7DE1B343D9DF98E
100
AcDbEntity
  8
TEXT
100
AcDbPolyline
 90
        2
 70
     0
 43
0.0001332181640625
 10
4.068396249196532
 20
4.508969150208692
 10
4.078387611501223
 20
4.449020976380566
  0
LWPOLYLINE
  5
7DE1B343D9DF884
330
7DE1B343D9DF98E
100
AcDbEntity
  8
TEXT
100
AcDbPolyline
 90
        3
 70
     0
 43
0.0006660908203125
 10
4.22159713786841
 20
4.422377343568065
 10
4.22159713786841
 20
4.535612783021193
 10
4.108361698415284
 20
4.535612783021193
  0
LWPOLYLINE
  5
7DE1B343D9DF889
330
7DE1B343D9DF98E
100
AcDbEntity
  8
TEXT
100
AcDbPolyline
 90
        3
 70
     0
 43
0.0006660908203125
 10
4.194953505055909
 20
4.422377343568065
 10
4.194953505055909
 20
4.508969150208692
 10
4.108361698415284
 20
4.508969150208692
  0
LWPOLYLINE
  5
7DE1B343D9DF88E
330
7DE1B343D9DF98E
100
AcDbEntity
  8
TEXT
100
AcDbPolyline
 90
        2
 70
     0
 43
0.0001332181640625
 10
4.194953505055909
 20
4.508969150208692
 10
4.135005331227785
 20
4.449020976380566
  0
LWPOLYLINE
  5
7DE1B343D9DF892
330
7DE1B343D9DF98E
100
AcDbEntity
  8
TEXT
100
AcDbPolyline
 90
        2
 70
     0
 43
0.0001332181640625
 10
4.108361698415284
 20
4.508969150208692
 10
4.098370336110595
 20
4.449020976380566
  0
LWPOLYLINE
  5
7DE1B343D9DF896
330
7DE1B343D9DF98E
100
AcDbEntity
  8
TEXT
100
AcDbPolyline
 90
        2
 70
     0
 43
0.0001332181640625
 10
4.108361698415284
 20
4.535612783021193
 10
4.098370336110595
 20
4.462342792786813
  0
LWPOLYLINE
  5
7DE1B343D9DF89A
330
7DE1B343D9DF98E
100
AcDbEntity
  8
TEXT
100
AcDbPolyline
 90
        2
 70
     0
 43
0.0001332181640625
 10
4.148327147634033
 20
4.412385981263376
 10
4.22159713786841
 20
4.422377343568065
  0
LWPOLYLINE
  5
7DE1B343D9DF89E
330
7DE1B343D9DF98E
100
AcDbEntity
  8
TEXT
100
AcDbPolyline
 90
        2
 70
     0
 43
0.0001332181640625
 10
4.194953505055909
 20
4.422377343568065
 10
4.135005331227785
 20
4.412385981263376
  0
LWPOLYLINE
  5
7DE1B343D9DF8A2
330
7DE1B343D9DF98E
100
AcDbEntity
  8
TEXT
100
AcDbPolyline
 90
        2
 70
     0
 43
0.0001332181640625
 10
4.22159713786841
 20
4.382411894349317
 10
4.148327147634033
 20
4.392403256654002
  0
LWPOLYLINE
  5
7DE1B343D9DF8A6
330
7DE1B343D9DF98E
100
AcDbEntity
  8
TEXT
100
AcDbPolyline
 90
        2
 70
     0
 43
0.0001332181640625
 10
4.194953505055909
 20
4.382411894349317
 10
4.135005331227785
 20
4.392403256654002
  0
LWPOLYLINE
  5
7DE1B343D9DF8AA
330
7DE1B343D9DF98E
100
AcDbEntity
  8
TEXT
100
AcDbPolyline
 90
        2
 70
     0
 43
0.0001332181640625
 10
4.194953505055909
 20
4.29582008770869
 10
4.135005331227785
 20
4.355768261536816
  0
LWPOLYLINE
  5
7DE1B343D9DF8AE
330
7DE1B343D9DF98E
100
AcDbEntity
  8
TEXT
100
AcDbPolyline
 90
        3
 70
     0
 43
0.0006660908203125
 10
4.108361698415284
 20
4.29582008770869
 10
4.194953505055909
 20
4.29582008770869
 10
4.194953505055909
 20
4.382411894349317
  0
LWPOLYLINE
  5
7DE1B343D9DF8B3
330
7DE1B343D9DF98E
100
AcDbEntity
  8
TEXT
100
AcDbPolyline
 90
        3
 70
     0
 43
0.0006660908203125
 10
4.108361698415284
 20
4.269176454896189
 10
4.22159713786841
 20
4.269176454896189
 10
4.22159713786841
 20
4.382411894349317
  0
LWPOLYLINE
  5
7DE1B343D9DF8B8
330
7DE1B343D9DF98E
100
AcDbEntity
  8
TEXT
100
AcDbPolyline
 90
        5
 70
     0
 43
0.0001332181640625
 10
4.078387611501223
 20
4.342446445130565
 10
4.078387611501223
 20
4.355768261536816
 10
4.041752616384035
 20
4.355768261536816
 10
4.041752616384035
 20
4.392403256654002
 10
4.028430799977784
 20
4.392403256654002
  0
LWPOLYLINE
  5
7DE1B343D9DF8BF
330
7DE1B343D9DF98E
100
AcDbEntity
  8
TEXT
100
AcDbPolyline
 90
        2
 70
     0
 43
0.0006660908203125
 10
4.068396249196532
 20
4.29582008770869
 10
4.068396249196532
 20
4.269176454896189
  0
LWPOLYLINE
  5
7DE1B343D9DF8C3
330
7DE1B343D9DF98E
100
AcDbEntity
  8
TEXT
100
AcDbPolyline
 90
        2
 70
     0
 43
0.0001332181640625
 10
4.068396249196532
 20
4.29582008770869
 10
4.078387611501223
 20
4.355768261536816
  0
LWPOLYLINE
  5
7DE1B343D9DF8C7
330
7DE1B343D9DF98E
100
AcDbEntity
  8
TEXT
100
AcDbPolyline
 90
        2
 70
     0
 43
0.0001332181640625
 10
4.068396249196532
 20
4.269176454896189
 10
4.078387611501223
 20
4.342446445130565
  0
LWPOLYLINE
  5
7DE1B343D9DF8CB
330
7DE1B343D9DF98E
100
AcDbEntity
  8
TEXT
100
AcDbPolyline
 90
        5
 70
     0
 43
0.0001332181640625
 10
4.028430799977784
 20
4.412385981263376
 10
4.041752616384033
 20
4.412385981263376
 10
4.041752616384033
 20
4.449020976380566
 10
4.078387611501223
 20
4.449020976380566
 10
4.078387611501223
 20
4.462342792786813
  0
LWPOLYLINE
  5
7DE1B343D9DF8D2
330
7DE1B343D9DF98E
100
AcDbEntity
  8
TEXT
100
AcDbPolyline
 90
        5
 70
     0
 43
0.0001332181640625
 10
4.098370336110595
 20
4.462342792786813
 10
4.098370336110595
 20
4.449020976380566
 10
4.135005331227785
 20
4.449020976380566
 10
4.135005331227785
 20
4.412385981263376
 10
4.148327147634033
 20
4.412385981263376
  0
LWPOLYLINE
  5
7DE1B343D9DF8D9
330
7DE1B343D9DF98E
100
AcDbEntity
  8
TEXT
100
AcDbPolyline
 90
        2
 70
     0
 43
0.0001332181640625
 10
4.108361698415284
 20
4.29582008770869
 10
4.098370336110595
 20
4.355768261536816
  0
LWPOLYLINE
  5
7DE1B343D9DF8DD
330
7DE1B343D9DF98E
100
AcDbEntity
  8
TEXT
100
AcDbPolyline
 90
        2
 70
     0
 43
0.0001332181640625
 10
4.098370336110595
 20
4.342446445130565
 10
4.108361698415284
 20
4.269176454896189
  0
LWPOLYLINE
  5
7DE1B343D9DF8E1
330
7DE1B343D9DF98E
100
AcDbEntity
  8
TEXT
100
AcDbPolyline
 90
        2
 70
     0
 43
0.0006660908203125
 10
4.108361698415284
 20
4.29582008770869
 10
4.108361698415284
 20
4.269176454896189
  0
LWPOLYLINE
  5
7DE1B343D9DF8E5
330
7DE1B343D9DF98E
100
AcDbEntity
  8
TEXT
100
AcDbPolyline
 90
        5
 70
     0
 43
0.0001332181640625
 10
4.148327147634033
 20
4.392403256654002
 10
4.135005331227785
 20
4.392403256654002
 10
4.135005331227785
 20
4.355768261536816
 10
4.098370336110595
 20
4.355768261536816
 10
4.098370336110595
 20
4.342446445130565
  0
LWPOLYLINE
  5
7DE1B343D9DF8EC
330
7DE1B343D9DF98E
100
AcDbEntity
  8
TEXT
100
AcDbPolyline
 90
        2
 70
     0
 43
0.0006660908203125
 10
4.194953505055909
 20
4.422377343568065
 10
4.22159713786841
 20
4.422377343568065
  0
LWPOLYLINE
  5
7DE1B343D9DF8F0
330
7DE1B343D9DF98E
100
AcDbEntity
  8
TEXT
100
AcDbPolyline
 90
        2
 70
     0
 43
0.0006660908203125
 10
4.194953505055909
 20
4.382411894349317
 10
4.22159713786841
 20
4.382411894349317
  0
LINE
  5
7DE1B343D9DF8F4
330
7DE1B343D9DF98E
100
AcDbEntity
  8
TEXT
100
AcDbLine
 10
4.491711274716434
 20
4.471336088364424
 30
0.0
 11
4.658616928745406
 21
4.471336088364424
 31
0.0
  0
LINE
  5
7DE1B343D9DF8F5
330
7DE1B343D9DF98E
100
AcDbEntity
  8
TEXT
100
AcDbLine
 10
4.557311410960735
 20
4.435531366753796
 30
0.0
 11
4.491711274716434
 21
4.435531366753796
 31
0.0
  0
LINE
  5
7DE1B343D9DF8F6
330
7DE1B343D9DF98E
100
AcDbEntity
  8
TEXT
100
AcDbLine
 10
4.404386485155683
 20
4.269139750032678
 30
0.0
 11
4.557311410960735
 21
4.269139750032678
 31
0.0
  0
LINE
  5
7DE1B343D9DF8F7
330
7DE1B343D9DF98E
100
AcDbEntity
  8
TEXT
100
AcDbLine
 10
4.562251784867015
 20
4.337496756366117
 30
0.0
 11
4.404386485155681
 21
4.337496756366117
 31
0.0
  0
LINE
  5
7DE1B343D9DF8F8
330
7DE1B343D9DF98E
100
AcDbEntity
  8
TEXT
100
AcDbLine
 10
4.486473944602186
 20
4.371437864128182
 30
0.0
 11
4.562251784867015
 21
4.371437864128182
 31
0.0
  0
ARC
  5
7DE1B343D9DF8F9
330
7DE1B343D9DF98E
100
AcDbEntity
  8
TEXT
100
AcDbCircle
 10
4.491711274716435
 20
4.453433727559112
 30
0.0
 40
0.017902360805315
100
AcDbArc
 50
90.0
 51
270.0
  0
LINE
  5
7DE1B343D9DF8FA
330
7DE1B343D9DF98E
100
AcDbEntity
  8
TEXT
100
AcDbLine
 10
4.404386485155681
 20
4.337496756366117
 30
0.0
 11
4.404386485155683
 21
4.269139750032678
 31
0.0
  0
LINE
  5
7DE1B343D9DF8FB
330
7DE1B343D9DF98E
100
AcDbEntity
  8
TEXT
100
AcDbLine
 10
4.658616928745406
 20
4.471336088364424
 30
0.0
 11
4.658616928745406
 21
4.328932141370728
 31
0.0
  0
ARC
  5
7DE1B343D9DF8FC
330
7DE1B343D9DF98E
100
AcDbEntity
  8
TEXT
100
AcDbCircle
 10
4.557311410960736
 20
4.352335558393235
 30
0.0
 40
0.0831958083605586
100
AcDbArc
 50
270.0
 51
90.0
  0
ARC
  5
7DE1B343D9DF8FD
330
7DE1B343D9DF98E
100
AcDbEntity
  8
TEXT
100
AcDbCircle
 10
4.562251784867016
 20
4.354467310247152
 30
0.0
 40
0.0169705538810321
100
AcDbArc
 50
270.0
 51
90.0
  0
LWPOLYLINE
  5
7DE1B343D9DF8FE
330
7DE1B343D9DF98E
100
AcDbEntity
  8
TEXT
100
AcDbPolyline
 90
        2
 70
     0
 43
0.0006660908203125
 10
4.068396249196532
 20
4.508969150208692
 10
4.068396249196532
 20
4.535612783021193
  0
LWPOLYLINE
  5
7DE1B343D9DF902
330
7DE1B343D9DF98E
100
AcDbEntity
  8
TEXT
100
AcDbPolyline
 90
        2
 70
     0
 43
0.0006660908203125
 10
4.108361698415284
 20
4.508969150208692
 10
4.108361698415284
 20
4.535612783021193
  0
LINE
  5
7DE1B343D9DF906
330
7DE1B343D9DF98E
100
AcDbEntity
  8
TEXT
100
AcDbLine
 10
4.662205697500699
 20
4.535612783021189
 30
0.0
 11
4.486473944602186
 21
4.535612783021189
 31
0.0
  0
LINE
  5
7DE1B343D9DF907
330
7DE1B343D9DF98E
100
AcDbEntity
  8
TEXT
100
AcDbLine
 10
4.662205697500699
 20
4.570000700615327
 30
0.0
 11
4.662205697500699
 21
4.535612783021189
 31
0.0
  0
LINE
  5
7DE1B343D9DF908
330
7DE1B343D9DF98E
100
AcDbEntity
  8
TEXT
100
AcDbLine
 10
4.852677589520551
 20
4.434740786908069
 30
0.0
 11
4.794047268488613
 21
4.535612783021189
 31
0.0
  0
LINE
  5
7DE1B343D9DF909
330
7DE1B343D9DF98E
100
AcDbEntity
  8
TEXT
100
AcDbLine
 10
4.911426152326416
 20
4.535612783021189
 30
0.0
 11
4.852677589520551
 21
4.434740786908069
 31
0.0
  0
LINE
  5
7DE1B343D9DF90A
330
7DE1B343D9DF98E
100
AcDbEntity
  8
TEXT
100
AcDbLine
 10
5.008356777686158
 20
4.351527588135677
 30
0.0
 11
5.008356777686158
 21
4.60362426076
 31
0.0
  0
LINE
  5
7DE1B343D9DF90B
330
7DE1B343D9DF98E
100
AcDbEntity
  8
TEXT
100
AcDbLine
 10
5.040668631823818
 20
4.535612783021189
 30
0.0
 11
5.040668631823818
 21
4.334748576288781
 31
0.0
  0
LINE
  5
7DE1B343D9DF90C
330
7DE1B343D9DF98E
100
AcDbEntity
  8
TEXT
100
AcDbLine
 10
5.040668631823818
 20
4.334748576288781
 30
0.0
 11
5.023674994939216
 21
4.334748576288781
 31
0.0
  0
LINE
  5
7DE1B343D9DF90D
330
7DE1B343D9DF98E
100
AcDbEntity
  8
TEXT
100
AcDbLine
 10
5.009496351182352
 20
4.269139750032678
 30
0.0
 11
5.107499684881787
 21
4.269139750032678
 31
0.0
  0
LINE
  5
7DE1B343D9DF90E
330
7DE1B343D9DF98E
100
AcDbEntity
  8
TEXT
100
AcDbLine
 10
4.843077352523597
 20
4.289098256137691
 30
0.0
 11
4.940377058617041
 21
4.453448467072959
 31
0.0
  0
ARC
  5
7DE1B343D9DF90F
330
7DE1B343D9DF98E
100
AcDbEntity
  8
TEXT
100
AcDbCircle
 10
4.809033792611383
 20
4.308687472306374
 30
0.0
 40
0.0392772371940762
100
AcDbArc
 50
270.1604552698595
 51
330.0831797321295
  0
LINE
  5
7DE1B343D9DF910
330
7DE1B343D9DF98E
100
AcDbEntity
  8
TEXT
100
AcDbLine
 10
4.712503536225511
 20
4.269139750032678
 30
0.0
 11
4.809143787300506
 21
4.26941038913096
 31
0.0
  0
LWPOLYLINE
  5
7DE1B343D9DF911
330
7DE1B343D9DF98E
100
AcDbEntity
  8
TEXT
100
AcDbPolyline
 90
        6
 70
     1
 43
0.0
 10
4.755027339800661
 20
4.471336088364424
 10
4.724710745580453
 20
4.471336088364424
 10
4.724710745580453
 20
4.348225090309529
 42
0.407328721240804
 10
4.736254396741929
 20
4.336406175633143
 10
4.79687609578666
 20
4.336406175633143
 10
4.814341436193978
 20
4.369218404676622
  0
LINE
  5
7DE1B343D9DF919
330
7DE1B343D9DF98E
100
AcDbEntity
  8
TEXT
100
AcDbLine
 10
4.940377058617041
 20
4.453448467072959
 30
0.0
 11
4.940377058617041
 21
4.320691092247603
 31
0.0
  0
ARC
  5
7DE1B343D9DF91A
330
7DE1B343D9DF98E
100
AcDbEntity
  8
TEXT
100
AcDbCircle
 10
5.023674994939215
 20
4.350130382532206
 30
0.0
 40
0.0153818062434269
100
AcDbArc
 50
174.7883570302258
 51
270.0
  0
LWPOLYLINE
  5
7DE1B343D9DF91B
330
7DE1B343D9DF98E
100
AcDbEntity
  8
TEXT
100
AcDbPolyline
 90
        2
 70
     0
 43
0.0
 10
4.940377058617039
 20
4.320691092247606
 42
0.3318488747599744
 10
5.009496351182352
 20
4.269139750032678
 42
-6.868794160588311
  0
LINE
  5
7DE1B343D9DF91F
330
7DE1B343D9DF98E
100
AcDbEntity
  8
TEXT
100
AcDbLine
 10
5.164888753871048
 20
4.269139750032678
 30
0.0
 11
5.231946800652888
 21
4.269139750032678
 31
0.0
  0
LINE
  5
7DE1B343D9DF920
330
7DE1B343D9DF98E
100
AcDbEntity
  8
TEXT
100
AcDbLine
 10
5.164888753871048
 20
4.463782299198314
 30
0.0
 11
5.164888753871048
 21
4.269139750032678
 31
0.0
  0
LINE
  5
7DE1B343D9DF921
330
7DE1B343D9DF98E
100
AcDbEntity
  8
TEXT
100
AcDbLine
 10
5.107499684881787
 20
4.471336088364424
 30
0.0
 11
5.157334964704935
 21
4.471336088364424
 31
0.0
  0
LINE
  5
7DE1B343D9DF922
330
7DE1B343D9DF98E
100
AcDbEntity
  8
TEXT
100
AcDbLine
 10
5.107499684881787
 20
4.269139750032678
 30
0.0
 11
5.107499684881787
 21
4.471336088364424
 31
0.0
  0
LWPOLYLINE
  5
7DE1B343D9DF923
330
7DE1B343D9DF98E
100
AcDbEntity
  8
TEXT
100
AcDbPolyline
 90
        2
 70
     0
 43
0.0
 10
5.157334964704933
 20
4.471336088364424
 42
-0.4142135623731017
 10
5.164888753871046
 20
4.463782299198314
 42
-0.9999999999999998
  0
LINE
  5
7DE1B343D9DF927
330
7DE1B343D9DF98E
100
AcDbEntity
  8
TEXT
100
AcDbLine
 10
5.363144965482618
 20
4.471336088364424
 30
0.0
 11
5.363144965482618
 21
4.396283682290217
 31
0.0
  0
LINE
  5
7DE1B343D9DF928
330
7DE1B343D9DF98E
100
AcDbEntity
  8
TEXT
100
AcDbLine
 10
5.231946800652888
 20
4.471336088364424
 30
0.0
 11
5.286080397573838
 21
4.471336088364424
 31
0.0
  0
LINE
  5
7DE1B343D9DF929
330
7DE1B343D9DF98E
100
AcDbEntity
  8
TEXT
100
AcDbLine
 10
5.231946800652888
 20
4.269139750032678
 30
0.0
 11
5.231946800652888
 21
4.471336088364424
 31
0.0
  0
LWPOLYLINE
  5
7DE1B343D9DF92A
330
7DE1B343D9DF98E
100
AcDbEntity
  8
TEXT
100
AcDbPolyline
 90
        2
 70
     0
 43
0.0
 10
5.286080397573837
 20
4.471336088364424
 42
-0.4142135623731017
 10
5.29363418673995
 20
4.463782299198314
 42
-0.9999999999999998
  0
LWPOLYLINE
  5
7DE1B343D9DF92E
330
7DE1B343D9DF98E
100
AcDbEntity
  8
TEXT
100
AcDbPolyline
 90
        4
 70
     0
 43
0.0
 10
5.29363418673995
 20
4.463782299198314
 10
5.29363418673995
 20
4.269139750032678
 10
5.362112470027808
 20
4.269139750032678
 10
5.362112470027808
 20
4.312630694983116
 42
-1.714843617202739
  0
LINE
  5
7DE1B343D9DF934
330
7DE1B343D9DF98E
100
AcDbEntity
  8
TEXT
100
AcDbLine
 10
4.722248302344706
 20
4.535612783021189
 30
0.0
 11
4.722248302344706
 21
4.570000700615327
 31
0.0
  0
LINE
  5
7DE1B343D9DF935
330
7DE1B343D9DF98E
100
AcDbEntity
  8
TEXT
100
AcDbLine
 10
4.794047268488613
 20
4.535612783021189
 30
0.0
 11
4.722248302344706
 21
4.535612783021189
 31
0.0
  0
LINE
  5
7DE1B343D9DF936
330
7DE1B343D9DF98E
100
AcDbEntity
  8
TEXT
100
AcDbLine
 10
4.941548065119793
 20
4.535612783021189
 30
0.0
 11
4.911426152326416
 21
4.535612783021189
 31
0.0
  0
LINE
  5
7DE1B343D9DF937
330
7DE1B343D9DF98E
100
AcDbEntity
  8
TEXT
100
AcDbLine
 10
4.941548065119793
 20
4.60362426076
 30
0.0
 11
4.941548065119793
 21
4.535612783021189
 31
0.0
  0
LINE
  5
7DE1B343D9DF938
330
7DE1B343D9DF98E
100
AcDbEntity
  8
TEXT
100
AcDbLine
 10
5.008356777686158
 20
4.60362426076
 30
0.0
 11
4.941548065119793
 21
4.60362426076
 31
0.0
  0
LWPOLYLINE
  5
7DE1B343D9DF939
330
7DE1B343D9DF98E
100
AcDbEntity
  8
TEXT
100
AcDbPolyline
 90
        3
 70
     0
 43
0.0
 10
5.32876853728416
 20
4.535612783021193
 10
5.210468378468116
 20
4.535612783021193
 10
5.210468378468116
 20
4.508445286260297
 42
-1.960274751411753
  0
LINE
  5
7DE1B343D9DF93E
330
7DE1B343D9DF98E
100
AcDbEntity
  8
TEXT
100
AcDbLine
 10
5.174686687754954
 20
4.535612783021189
 30
0.0
 11
5.040668631823818
 21
4.535612783021189
 31
0.0
  0
LWPOLYLINE
  5
7DE1B343D9DF93F
330
7DE1B343D9DF98E
100
AcDbEntity
  8
TEXT
100
AcDbPolyline
 90
        2
 70
     0
 43
0.0
 10
5.174686687754954
 20
4.535612783021193
 42
-0.3328679258950098
 10
5.210468378468116
 20
4.508445286260297
 42
6.772930709997214
  0
LINE
  5
7DE1B343D9DF943
330
7DE1B343D9DF98E
100
AcDbEntity
  8
TEXT
100
AcDbLine
 10
5.364550227997327
 20
4.535612783021189
 30
0.0
 11
5.364550227997327
 21
4.507290237251545
 31
0.0
  0
LWPOLYLINE
  5
7DE1B343D9DF944
330
7DE1B343D9DF98E
100
AcDbEntity
  8
TEXT
100
AcDbPolyline
 90
        2
 70
     0
 43
0.0
 10
5.32876853728416
 20
4.535612783021193
 42
-0.3277054968067132
 10
5.364550227997325
 20
4.507290237251549
 42
6.667889725900311
  0
LINE
  5
7DE1B343D9DF948
330
7DE1B343D9DF98E
100
AcDbEntity
  8
TEXT
100
AcDbLine
 10
5.578342076089427
 20
4.430400804467762
 30
0.0
 11
5.534591304907525
 21
4.512651080463907
 31
0.0
  0
LINE
  5
7DE1B343D9DF949
330
7DE1B343D9DF98E
100
AcDbEntity
  8
TEXT
100
AcDbLine
 10
5.578342076089427
 20
4.535612783021189
 30
0.0
 11
5.578342076089427
 21
4.430400804467762
 31
0.0
  0
LINE
  5
7DE1B343D9DF94A
330
7DE1B343D9DF98E
100
AcDbEntity
  8
TEXT
100
AcDbLine
 10
5.806025815027796
 20
4.459747456609651
 30
0.0
 11
5.806025815027796
 21
4.60107698878879
 31
0.0
  0
LINE
  5
7DE1B343D9DF94B
330
7DE1B343D9DF98E
100
AcDbEntity
  8
TEXT
100
AcDbLine
 10
5.85312397358378
 20
4.535612783021189
 30
0.0
 11
5.806025815027796
 21
4.459747456609651
 31
0.0
  0
LINE
  5
7DE1B343D9DF94C
330
7DE1B343D9DF98E
100
AcDbEntity
  8
TEXT
100
AcDbLine
 10
5.863558690347703
 20
4.425719540080216
 30
0.0
 11
5.928115806313408
 21
4.535612783021189
 31
0.0
  0
LINE
  5
7DE1B343D9DF94D
330
7DE1B343D9DF98E
100
AcDbEntity
  8
TEXT
100
AcDbLine
 10
5.742190823805023
 20
4.269139750032678
 30
0.0
 11
5.806569008123643
 21
4.269139750032678
 31
0.0
  0
LWPOLYLINE
  5
7DE1B343D9DF94E
330
7DE1B343D9DF98E
100
AcDbEntity
  8
TEXT
100
AcDbPolyline
 90
        2
 70
     0
 43
0.0
 10
5.582281753394465
 20
4.312630694983116
 42
-0.2901071551932486
 10
5.53920582052682
 20
4.269139750032678
 42
-5.328517124445184
  0
ARC
  5
7DE1B343D9DF952
330
7DE1B343D9DF98E
100
AcDbEntity
  8
TEXT
100
AcDbCircle
 10
5.470351238869906
 20
4.442976713364426
 30
0.0
 40
0.028359375
100
AcDbArc
 50
25.78218179591245
 51
90.0
  0
LINE
  5
7DE1B343D9DF953
330
7DE1B343D9DF98E
100
AcDbEntity
  8
TEXT
100
AcDbLine
 10
5.506152314174029
 20
4.434061114902291
 30
0.0
 11
5.495887553760464
 21
4.455311654474986
 31
0.0
  0
LINE
  5
7DE1B343D9DF954
330
7DE1B343D9DF98E
100
AcDbEntity
  8
TEXT
100
AcDbLine
 10
5.423864324390645
 20
4.434061114902291
 30
0.0
 11
5.506152314174029
 21
4.434061114902291
 31
0.0
  0
LWPOLYLINE
  5
7DE1B343D9DF955
330
7DE1B343D9DF98E
100
AcDbEntity
  8
TEXT
100
AcDbPolyline
 90
        4
 70
     1
 43
0.0
 10
5.519083355456928
 20
4.372103728016703
 10
5.430423036797069
 20
4.372103728016703
 42
0.9999999999999998
 10
5.430423036797069
 20
4.329705187512843
 10
5.519083355456928
 20
4.329705187512843
 42
1.0
  0
LWPOLYLINE
  5
7DE1B343D9DF95B
330
7DE1B343D9DF98E
100
AcDbEntity
  8
TEXT
100
AcDbPolyline
 90
        2
 70
     0
 43
0.0
 10
5.405188402895443
 20
4.269139750032678
 10
5.53920582052682
 20
4.269139750032678
 42
0.9999999999999998
  0
LINE
  5
7DE1B343D9DF95F
330
7DE1B343D9DF98E
100
AcDbEntity
  8
TEXT
100
AcDbLine
 10
5.66554284251246
 20
4.471336088364424
 30
0.0
 11
5.742190823805017
 21
4.471336088364424
 31
0.0
  0
LINE
  5
7DE1B343D9DF960
330
7DE1B343D9DF98E
100
AcDbEntity
  8
TEXT
100
AcDbLine
 10
5.742190823805017
 20
4.471336088364424
 30
0.0
 11
5.742190823805023
 21
4.269139750032678
 31
0.0
  0
ARC
  5
7DE1B343D9DF961
330
7DE1B343D9DF98E
100
AcDbEntity
  8
TEXT
100
AcDbCircle
 10
5.665542842512458
 20
4.446430213081761
 30
0.0
 40
0.0249058752826653
100
AcDbArc
 50
89.99971217465335
 51
179.9999999999985
  0
LINE
  5
7DE1B343D9DF962
330
7DE1B343D9DF98E
100
AcDbEntity
  8
TEXT
100
AcDbLine
 10
5.6406369672298
 20
4.269139750032678
 30
0.0
 11
5.640636967229795
 21
4.446430255464147
 31
0.0
  0
LWPOLYLINE
  5
7DE1B343D9DF963
330
7DE1B343D9DF98E
100
AcDbEntity
  8
TEXT
100
AcDbPolyline
 90
        2
 70
     0
 43
0.0
 10
5.582281753394465
 20
4.269139750032678
 10
5.640636967229799
 20
4.269139750032678
  0
LWPOLYLINE
  5
7DE1B343D9DF967
330
7DE1B343D9DF98E
100
AcDbEntity
  8
TEXT
100
AcDbPolyline
 90
        2
 70
     0
 43
0.0
 10
5.582281753394465
 20
4.312630694983116
 10
5.582281753394465
 20
4.269139750032678
  0
LINE
  5
7DE1B343D9DF96B
330
7DE1B343D9DF98E
100
AcDbEntity
  8
TEXT
100
AcDbLine
 10
5.959050913711314
 20
4.269139750032678
 30
0.0
 11
5.863558690347703
 21
4.425719540080216
 31
0.0
  0
LINE
  5
7DE1B343D9DF96C
330
7DE1B343D9DF98E
100
AcDbEntity
  8
TEXT
100
AcDbLine
 10
5.882472541335108
 20
4.269139750032678
 30
0.0
 11
5.959050913711314
 21
4.269139750032678
 31
0.0
  0
LINE
  5
7DE1B343D9DF96D
330
7DE1B343D9DF98E
100
AcDbEntity
  8
TEXT
100
AcDbLine
 10
5.806569008123643
 20
4.400719318508858
 30
0.0
 11
5.882472541335108
 21
4.269139750032678
 31
0.0
  0
LINE
  5
7DE1B343D9DF96E
330
7DE1B343D9DF98E
100
AcDbEntity
  8
TEXT
100
AcDbLine
 10
5.806569008123643
 20
4.269139750032678
 30
0.0
 11
5.806569008123643
 21
4.400719318508858
 31
0.0
  0
LINE
  5
7DE1B343D9DF96F
330
7DE1B343D9DF98E
100
AcDbEntity
  8
TEXT
100
AcDbLine
 10
5.806025815027796
 20
4.60107698878879
 30
0.0
 11
5.737710936478523
 21
4.60107698878879
 31
0.0
  0
ARC
  5
7DE1B343D9DF970
330
7DE1B343D9DF98E
100
AcDbEntity
  8
TEXT
100
AcDbCircle
 10
5.497355197437316
 20
4.494029215900287
 30
0.0
 40
0.0416329381542859
100
AcDbArc
 50
26.56974201007528
 51
87.20939649401342
  0
LINE
  5
7DE1B343D9DF971
330
7DE1B343D9DF98E
100
AcDbEntity
  8
TEXT
100
AcDbLine
 10
5.642238982388928
 20
4.535612783021189
 30
0.0
 11
5.578342076089427
 21
4.535612783021189
 31
0.0
  0
LINE
  5
7DE1B343D9DF972
330
7DE1B343D9DF98E
100
AcDbEntity
  8
TEXT
100
AcDbLine
 10
5.642238982388928
 20
4.508065133160314
 30
0.0
 11
5.642238982388928
 21
4.535612783021189
 31
0.0
  0
ARC
  5
7DE1B343D9DF973
330
7DE1B343D9DF98E
100
AcDbEntity
  8
TEXT
100
AcDbCircle
 10
5.673431799452036
 20
4.504367055738924
 30
0.0
 40
0.0314112657011332
100
AcDbArc
 50
95.88484768694724
 51
173.2388340632136
  0
LINE
  5
7DE1B343D9DF974
330
7DE1B343D9DF98E
100
AcDbEntity
  8
TEXT
100
AcDbLine
 10
5.737710936478517
 20
4.535612783021189
 30
0.0
 11
5.670211218829001
 21
4.535612783021189
 31
0.0
  0
LINE
  5
7DE1B343D9DF975
330
7DE1B343D9DF98E
100
AcDbEntity
  8
TEXT
100
AcDbLine
 10
5.737710936478523
 20
4.60107698878879
 30
0.0
 11
5.737710936478517
 21
4.535612783021189
 31
0.0
  0
LINE
  5
7DE1B343D9DF976
330
7DE1B343D9DF98E
100
AcDbEntity
  8
TEXT
100
AcDbLine
 10
5.928115806313408
 20
4.535612783021189
 30
0.0
 11
5.853123973583782
 21
4.535612783021189
 31
0.0
  0
ENDSEC
  0
SECTION
  2
OBJECTS
  0
DICTIONARY
  5
7DE1B343D9DF982
330
0
100
AcDbDictionary
  3
ACAD_GROUP
350
7DE1B343D9DF983
  3
ACAD_LAYOUT
350
7DE1B343D9DF9A8
  3
ACAD_MLINESTYLE
350
7DE1B343D9DF984
  3
ACAD_PLOTSETTINGS
350
7DE1B343D9DF9A9
  3
ACAD_PLOTSTYLENAME
350
7DE1B343D9DF9A6
  3
ACDBHEADERROUNDTRIPXREC
350
7DE1B343D9DF9B3
  3
ACDBVARIABLEDICTIONARY
350
7DE1B343D9DF9B0
  0
DICTIONARY
  5
7DE1B343D9DF9D5
330
7DE1B343D9DF98E
100
AcDbDictionary
280
     1
  3
ACAD_LAYOUTSELFREF
360
7DE1B343D9DF9D6
  0
DICTIONARY
  5
7DE1B343D9DF9D3
330
7DE1B343D9DF98B
100
AcDbDictionary
280
     1
  3
ACAD_LAYOUTSELFREF
360
7DE1B343D9DF9D4
  0
DICTIONARY
  5
7DE1B343D9DF983
102
{ACAD_REACTORS
330
7DE1B343D9DF982
102
}
330
7DE1B343D9DF982
100
AcDbDictionary
  0
DICTIONARY
  5
7DE1B343D9DF9A8
102
{ACAD_REACTORS
330
7DE1B343D9DF982
102
}
330
7DE1B343D9DF982
100
AcDbDictionary
  0
DICTIONARY
  5
7DE1B343D9DF984
102
{ACAD_REACTORS
330
7DE1B343D9DF982
102
}
330
7DE1B343D9DF982
100
AcDbDictionary
  3
STANDARD
350
7DE1B343D9DF991
  0
DICTIONARY
  5
7DE1B343D9DF9A9
102
{ACAD_REACTORS
330
7DE1B343D9DF982
102
}
330
7DE1B343D9DF982
100
AcDbDictionary
  0
ACDBDICTIONARYWDFLT
  5
7DE1B343D9DF9A6
102
{ACAD_REACTORS
330
7DE1B343D9DF982
102
}
330
7DE1B343D9DF982
100
AcDbDictionary
281
     1
  3
Normal
350
7DE1B343D9DF9A7
100
AcDbDictionaryWithDefault
340
7DE1B343D9DF9A7
  0
DICTIONARY
  5
7DE1B343D9DF9B3
102
{ACAD_REACTORS
330
7DE1B343D9DF982
102
}
330
7DE1B343D9DF982
100
AcDbDictionary
  3
CEPSNTYPE
350
7DE1B343D9DF9BD
  3
FINGERPRINTGUID
350
7DE1B343D9DF9BE
  3
HYPERLINKBASE
350
7DE1B343D9DF9B6
  3
INSUNITS
350
7DE1B343D9DF9BC
  3
LAYOUTDICT
350
7DE1B343D9DF9B8
  3
LWETCUNION
350
7DE1B343D9DF9BB
  3
PLOTSETDICT
350
7DE1B343D9DF9B9
  3
PLOTSTYLNAMDICT
350
7DE1B343D9DF9BA
  3
PSVPSCALE
350
7DE1B343D9DF9C0
  3
PUCSBASE
350
7DE1B343D9DF9C3
  3
PUCSORGBACK
350
7DE1B343D9DF9C9
  3
PUCSORGBOTTOM
350
7DE1B343D9DF9C5
  3
PUCSORGFRONT
350
7DE1B343D9DF9C8
  3
PUCSORGLEFT
350
7DE1B343D9DF9C6
  3
PUCSORGRIGHT
350
7DE1B343D9DF9C7
  3
PUCSORGTOP
350
7DE1B343D9DF9C4
  3
PUCSORTHOREF
350
7DE1B343D9DF9C1
  3
PUCSORTHOVIEW
350
7DE1B343D9DF9C2
  3
STYLESHEET
350
7DE1B343D9DF9B7
  3
TSTACKALIGN
350
7DE1B343D9DF9B4
  3
TSTACKSIZE
350
7DE1B343D9DF9B5
  3
UCSBASE
350
7DE1B343D9DF9CC
  3
UCSORGBACK
350
7DE1B343D9DF9D2
  3
UCSORGBOTTOM
350
7DE1B343D9DF9CE
  3
UCSORGFRONT
350
7DE1B343D9DF9D1
  3
UCSORGLEFT
350
7DE1B343D9DF9CF
  3
UCSORGRIGHT
350
7DE1B343D9DF9D0
  3
UCSORGTOP
350
7DE1B343D9DF9CD
  3
UCSORTHOREF
350
7DE1B343D9DF9CA
  3
UCSORTHOVIEW
350
7DE1B343D9DF9CB
  3
VERSIONGUID
350
7DE1B343D9DF9BF
  0
DICTIONARY
  5
7DE1B343D9DF9B0
102
{ACAD_REACTORS
330
7DE1B343D9DF982
102
}
330
7DE1B343D9DF982
100
AcDbDictionary
  3
DIMASSOC
350
7DE1B343D9DF9B1
  0
XRECORD
  5
7DE1B343D9DF9D6
102
{ACAD_REACTORS
330
7DE1B343D9DF9D5
102
}
330
7DE1B343D9DF9D5
100
AcDbXrecord
340
7DE1B343D9DF98E
  0
XRECORD
  5
7DE1B343D9DF9D4
102
{ACAD_REACTORS
330
7DE1B343D9DF9D3
102
}
330
7DE1B343D9DF9D3
100
AcDbXrecord
340
7DE1B343D9DF98B
  0
MLINESTYLE
  5
7DE1B343D9DF991
102
{ACAD_REACTORS
330
7DE1B343D9DF984
102
}
330
7DE1B343D9DF984
100
AcDbMlineStyle
  2
STANDARD
 70
     0
  3

 62
     0
 51
90.0
 52
90.0
 71
     2
 49
0.5
 62
   256
  6
BYLAYER
 49
-0.5
 62
   256
  6
BYLAYER
  0
ACDBPLACEHOLDER
  5
7DE1B343D9DF9A7
102
{ACAD_REACTORS
330
7DE1B343D9DF9A6
102
}
330
7DE1B343D9DF9A6
100
AcDbPlaceHolder
280
     0
  0
XRECORD
  5
7DE1B343D9DF9BD
102
{ACAD_REACTORS
330
7DE1B343D9DF9B3
102
}
330
7DE1B343D9DF9B3
100
AcDbXrecord
 90
        0
  0
XRECORD
  5
7DE1B343D9DF9BE
102
{ACAD_REACTORS
330
7DE1B343D9DF9B3
102
}
330
7DE1B343D9DF9B3
100
AcDbXrecord
  1
{0335A0C0-8DB7-11D6-88E6-0090279574E7}
  0
XRECORD
  5
7DE1B343D9DF9B6
102
{ACAD_REACTORS
330
7DE1B343D9DF9B3
102
}
330
7DE1B343D9DF9B3
100
AcDbXrecord
  1

  0
XRECORD
  5
7DE1B343D9DF9BC
102
{ACAD_REACTORS
330
7DE1B343D9DF9B3
102
}
330
7DE1B343D9DF9B3
100
AcDbXrecord
 90
        0
  0
XRECORD
  5
7DE1B343D9DF9B8
102
{ACAD_REACTORS
330
7DE1B343D9DF9B3
102
}
330
7DE1B343D9DF9B3
100
AcDbXrecord
340
7DE1B343D9DF9A8
  0
XRECORD
  5
7DE1B343D9DF9BB
102
{ACAD_REACTORS
330
7DE1B343D9DF9B3
102
}
330
7DE1B343D9DF9B3
100
AcDbXrecord
 90
    14877
  0
XRECORD
  5
7DE1B343D9DF9B9
102
{ACAD_REACTORS
330
7DE1B343D9DF9B3
102
}
330
7DE1B343D9DF9B3
100
AcDbXrecord
340
7DE1B343D9DF9A9
  0
XRECORD
  5
7DE1B343D9DF9BA
102
{ACAD_REACTORS
330
7DE1B343D9DF9B3
102
}
330
7DE1B343D9DF9B3
100
AcDbXrecord
340
7DE1B343D9DF9A6
  0
XRECORD
  5
7DE1B343D9DF9C0
102
{ACAD_REACTORS
330
7DE1B343D9DF9B3
102
}
330
7DE1B343D9DF9B3
100
AcDbXrecord
 40
0.0
  0
XRECORD
  5
7DE1B343D9DF9C3
102
{ACAD_REACTORS
330
7DE1B343D9DF9B3
102
}
330
7DE1B343D9DF9B3
100
AcDbXrecord
340
0
  0
XRECORD
  5
7DE1B343D9DF9C9
102
{ACAD_REACTORS
330
7DE1B343D9DF9B3
102
}
330
7DE1B343D9DF9B3
100
AcDbXrecord
 10
0.0
 20
0.0
 30
0.0
  0
XRECORD
  5
7DE1B343D9DF9C5
102
{ACAD_REACTORS
330
7DE1B343D9DF9B3
102
}
330
7DE1B343D9DF9B3
100
AcDbXrecord
 10
0.0
 20
0.0
 30
0.0
  0
XRECORD
  5
7DE1B343D9DF9C8
102
{ACAD_REACTORS
330
7DE1B343D9DF9B3
102
}
330
7DE1B343D9DF9B3
100
AcDbXrecord
 10
0.0
 20
0.0
 30
0.0
  0
XRECORD
  5
7DE1B343D9DF9C6
102
{ACAD_REACTORS
330
7DE1B343D9DF9B3
102
}
330
7DE1B343D9DF9B3
100
AcDbXrecord
 10
0.0
 20
0.0
 30
0.0
  0
XRECORD
  5
7DE1B343D9DF9C7
102
{ACAD_REACTORS
330
7DE1B343D9DF9B3
102
}
330
7DE1B343D9DF9B3
100
AcDbXrecord
 10
0.0
 20
0.0
 30
0.0
  0
XRECORD
  5
7DE1B343D9DF9C4
102
{ACAD_REACTORS
330
7DE1B343D9DF9B3
102
}
330
7DE1B343D9DF9B3
100
AcDbXrecord
 10
0.0
 20
0.0
 30
0.0
  0
XRECORD
  5
7DE1B343D9DF9C1
102
{ACAD_REACTORS
330
7DE1B343D9DF9B3
102
}
330
7DE1B343D9DF9B3
100
AcDbXrecord
340
0
  0
XRECORD
  5
7DE1B343D9DF9C2
102
{ACAD_REACTORS
330
7DE1B343D9DF9B3
102
}
330
7DE1B343D9DF9B3
100
AcDbXrecord
 70
     0
  0
XRECORD
  5
7DE1B343D9DF9B7
102
{ACAD_REACTORS
330
7DE1B343D9DF9B3
102
}
330
7DE1B343D9DF9B3
100
AcDbXrecord
  1

  0
XRECORD
  5
7DE1B343D9DF9B4
102
{ACAD_REACTORS
330
7DE1B343D9DF9B3
102
}
330
7DE1B343D9DF9B3
100
AcDbXrecord
 90
        1
  0
XRECORD
  5
7DE1B343D9DF9B5
102
{ACAD_REACTORS
330
7DE1B343D9DF9B3
102
}
330
7DE1B343D9DF9B3
100
AcDbXrecord
 90
       70
  0
XRECORD
  5
7DE1B343D9DF9CC
102
{ACAD_REACTORS
330
7DE1B343D9DF9B3
102
}
330
7DE1B343D9DF9B3
100
AcDbXrecord
340
0
  0
XRECORD
  5
7DE1B343D9DF9D2
102
{ACAD_REACTORS
330
7DE1B343D9DF9B3
102
}
330
7DE1B343D9DF9B3
100
AcDbXrecord
 10
0.0
 20
0.0
 30
0.0
  0
XRECORD
  5
7DE1B343D9DF9CE
102
{ACAD_REACTORS
330
7DE1B343D9DF9B3
102
}
330
7DE1B343D9DF9B3
100
AcDbXrecord
 10
0.0
 20
0.0
 30
0.0
  0
XRECORD
  5
7DE1B343D9DF9D1
102
{ACAD_REACTORS
330
7DE1B343D9DF9B3
102
}
330
7DE1B343D9DF9B3
100
AcDbXrecord
 10
0.0
 20
0.0
 30
0.0
  0
XRECORD
  5
7DE1B343D9DF9CF
102
{ACAD_REACTORS
330
7DE1B343D9DF9B3
102
}
330
7DE1B343D9DF9B3
100
AcDbXrecord
 10
0.0
 20
0.0
 30
0.0
  0
XRECORD
  5
7DE1B343D9DF9D0
102
{ACAD_REACTORS
330
7DE1B343D9DF9B3
102
}
330
7DE1B343D9DF9B3
100
AcDbXrecord
 10
0.0
 20
0.0
 30
0.0
  0
XRECORD
  5
7DE1B343D9DF9CD
102
{ACAD_REACTORS
330
7DE1B343D9DF9B3
102
}
330
7DE1B343D9DF9B3
100
AcDbXrecord
 10
0.0
 20
0.0
 30
0.0
  0
XRECORD
  5
7DE1B343D9DF9CA
102
{ACAD_REACTORS
330
7DE1B343D9DF9B3
102
}
330
7DE1B343D9DF9B3
100
AcDbXrecord
340
0
  0
XRECORD
  5
7DE1B343D9DF9CB
102
{ACAD_REACTORS
330
7DE1B343D9DF9B3
102
}
330
7DE1B343D9DF9B3
100
AcDbXrecord
 70
     0
  0
XRECORD
  5
7DE1B343D9DF9BF
102
{ACAD_REACTORS
330
7DE1B343D9DF9B3
102
}
330
7DE1B343D9DF9B3
100
AcDbXrecord
  1
{0335A0C2-8DB7-11D6-88E6-0090279574E7}
  0
DICTIONARYVAR
  5
7DE1B343D9DF9B1
102
{ACAD_REACTORS
330
7DE1B343D9DF9B0
102
}
330
7DE1B343D9DF9B0
100
DictionaryVariables
280
     0
  1
1
  0
ENDSEC
  0
EOF
