  0
SECTION
  2
HEADER
  9
$ACADVER
  1
AC1014
  9
$ACADMAINTVER
 70
     9
  9
$DWGCODEPAGE
  3
ANSI_1252
  9
$INSBASE
 10
4.66170107677445
 20
5.246479546248838
 30
0.0
  9
$EXTMIN
 10
2.995220249829393
 20
3.252371552110882
 30
0.0
  9
$EXTMAX
 10
6.480439571576528
 20
6.001299962887984
 30
0.0
  9
$LIMMIN
 10
0.0
 20
0.0
  9
$LIMMAX
 10
18.0
 20
12.0
  9
$ORTHOMODE
 70
     1
  9
$REGENMODE
 70
     1
  9
$FILLMODE
 70
     1
  9
$QTEXTMODE
 70
     0
  9
$MIRRTEXT
 70
     0
  9
$DRAGMODE
 70
     2
  9
$LTSCALE
 40
1.0
  9
$OSMODE
 70
    39
  9
$ATTMODE
 70
     1
  9
$TEXTSIZE
 40
0.125
  9
$TRACEWID
 40
0.05
  9
$TEXTSTYLE
  7
ROMANS
  9
$CLAYER
  8
0
  9
$CELTYPE
  6
BYLAYER
  9
$CECOLOR
 62
   256
  9
$CELTSCALE
 40
1.0
  9
$DELOBJ
 70
     1
  9
$DISPSILH
 70
     1
  9
$DIMSCALE
 40
1.0
  9
$DIMASZ
 40
0.125
  9
$DIMEXO
 40
0.125
  9
$DIMDLI
 40
0.375
  9
$DIMRND
 40
0.0
  9
$DIMDLE
 40
0.0
  9
$DIMEXE
 40
0.125
  9
$DIMTP
 40
0.0
  9
$DIMTM
 40
0.0
  9
$DIMTXT
 40
0.125
  9
$DIMCEN
 40
-0.125
  9
$DIMTSZ
 40
0.0
  9
$DIMTOL
 70
     0
  9
$DIMLIM
 70
     0
  9
$DIMTIH
 70
     1
  9
$DIMTOH
 70
     1
  9
$DIMSE1
 70
     0
  9
$DIMSE2
 70
     0
  9
$DIMTAD
 70
     0
  9
$DIMZIN
 70
     4
  9
$DIMBLK
  1

  9
$DIMASO
 70
     1
  9
$DIMSHO
 70
     1
  9
$DIMPOST
  1

  9
$DIMAPOST
  1

  9
$DIMALT
 70
     0
  9
$DIMALTD
 70
     2
  9
$DIMALTF
 40
25.4
  9
$DIMLFAC
 40
1.0
  9
$DIMTOFL
 70
     0
  9
$DIMTVP
 40
0.0
  9
$DIMTIX
 70
     1
  9
$DIMSOXD
 70
     0
  9
$DIMSAH
 70
     0
  9
$DIMBLK1
  1

  9
$DIMBLK2
  1

  9
$DIMSTYLE
  2
STANDARD
  9
$DIMCLRD
 70
     0
  9
$DIMCLRE
 70
     0
  9
$DIMCLRT
 70
     0
  9
$DIMTFAC
 40
1.0
  9
$DIMGAP
 40
0.09
  9
$DIMJUST
 70
     0
  9
$DIMSD1
 70
     0
  9
$DIMSD2
 70
     0
  9
$DIMTOLJ
 70
     1
  9
$DIMTZIN
 70
     4
  9
$DIMALTZ
 70
     0
  9
$DIMALTTZ
 70
     0
  9
$DIMFIT
 70
     3
  9
$DIMUPT
 70
     0
  9
$DIMUNIT
 70
     2
  9
$DIMDEC
 70
     3
  9
$DIMTDEC
 70
     3
  9
$DIMALTU
 70
     2
  9
$DIMALTTD
 70
     2
  9
$DIMTXSTY
  7
ROMANS
  9
$DIMAUNIT
 70
     0
  9
$LUNITS
 70
     2
  9
$LUPREC
 70
     3
  9
$SKETCHINC
 40
0.1
  9
$FILLETRAD
 40
0.03125
  9
$AUNITS
 70
     0
  9
$AUPREC
 70
     0
  9
$MENU
  1
ACAD
  9
$ELEVATION
 40
0.0
  9
$PELEVATION
 40
0.0
  9
$THICKNESS
 40
0.0
  9
$LIMCHECK
 70
     0
  9
$BLIPMODE
 70
     0
  9
$CHAMFERA
 40
0.0
  9
$CHAMFERB
 40
0.0
  9
$CHAMFERC
 40
0.0
  9
$CHAMFERD
 40
0.0
  9
$SKPOLY
 70
     0
  9
$TDCREATE
 40
2448994.622467245
  9
$TDUPDATE
 40
2452458.310390509
  9
$TDINDWG
 40
0.0104992824
  9
$TDUSRTIMER
 40
0.0104992824
  9
$USRTIMER
 70
     1
  9
$ANGBASE
 50
0.0
  9
$ANGDIR
 70
     0
  9
$PDMODE
 70
     0
  9
$PDSIZE
 40
0.0
  9
$PLINEWID
 40
0.0
  9
$COORDS
 70
     2
  9
$SPLFRAME
 70
     0
  9
$SPLINETYPE
 70
     6
  9
$SPLINESEGS
 70
     8
  9
$ATTDIA
 70
     0
  9
$ATTREQ
 70
     1
  9
$HANDLING
 70
 22529
  9
$HANDSEED
  5
7DE1B343D9E1D01
  9
$SURFTAB1
 70
     6
  9
$SURFTAB2
 70
     6
  9
$SURFTYPE
 70
     6
  9
$SURFU
 70
     6
  9
$SURFV
 70
     6
  9
$UCSNAME
  2

  9
$UCSORG
 10
0.0
 20
0.0
 30
0.0
  9
$UCSXDIR
 10
1.0
 20
0.0
 30
0.0
  9
$UCSYDIR
 10
0.0
 20
1.0
 30
0.0
  9
$PUCSNAME
  2

  9
$PUCSORG
 10
0.0
 20
0.0
 30
0.0
  9
$PUCSXDIR
 10
1.0
 20
0.0
 30
0.0
  9
$PUCSYDIR
 10
0.0
 20
1.0
 30
0.0
  9
$USERI1
 70
     0
  9
$USERI2
 70
     0
  9
$USERI3
 70
     0
  9
$USERI4
 70
     0
  9
$USERI5
 70
     0
  9
$USERR1
 40
0.0
  9
$USERR2
 40
0.0
  9
$USERR3
 40
0.0
  9
$USERR4
 40
0.0
  9
$USERR5
 40
0.0
  9
$WORLDVIEW
 70
     1
  9
$SHADEDGE
 70
     3
  9
$SHADEDIF
 70
    70
  9
$TILEMODE
 70
     1
  9
$MAXACTVP
 70
    16
  9
$PINSBASE
 10
0.0
 20
0.0
 30
0.0
  9
$PLIMCHECK
 70
     0
  9
$PEXTMIN
 10
1.000000000000000E+20
 20
1.000000000000000E+20
 30
1.000000000000000E+20
  9
$PEXTMAX
 10
-1.000000000000000E+20
 20
-1.000000000000000E+20
 30
-1.000000000000000E+20
  9
$PLIMMIN
 10
0.0
 20
0.0
  9
$PLIMMAX
 10
12.0
 20
9.0
  9
$UNITMODE
 70
     0
  9
$VISRETAIN
 70
     0
  9
$PLINEGEN
 70
     1
  9
$PSLTSCALE
 70
     0
  9
$TREEDEPTH
 70
  3020
  9
$PICKSTYLE
 70
     1
  9
$CMLSTYLE
  2
STANDARD
  9
$CMLJUST
 70
     0
  9
$CMLSCALE
 40
1.0
  9
$PROXYGRAPHICS
 70
     1
  9
$MEASUREMENT
 70
     0
  0
ENDSEC
  0
SECTION
  2
CLASSES
  0
CLASS
  1
LWPOLYLINE
  2
AcDbPolyline
  3
AutoCAD 2000
 90
        0
280
     0
281
     1
  0
CLASS
  1
ACDBDICTIONARYWDFLT
  2
AcDbDictionaryWithDefault
  3
AutoCAD 2000
 90
        0
280
     0
281
     0
  0
CLASS
  1
ACDBPLACEHOLDER
  2
AcDbPlaceHolder
  3
AutoCAD 2000
 90
        0
280
     0
281
     0
  0
CLASS
  1
LAYOUT
  2
AcDbLayout
  3
AutoCAD 2000
 90
        0
280
     0
281
     0
  0
CLASS
  1
DICTIONARYVAR
  2
AcDbDictionaryVar
  3
AutoCAD 2000
 90
        0
280
     0
281
     0
  0
CLASS
  1
LONG_TRANSACTION
  2
AcDbLongTransaction
  3
AutoCAD 2000
 90
        0
280
     0
281
     0
  0
CLASS
  1
LWPOLYLINE
  2
AcDbPolyline
  3
AutoCAD 2000
 90
        0
280
     0
281
     1
  0
CLASS
  1
HATCH
  2
AcDbHatch
  3
AutoCAD 2000
 90
        0
280
     0
281
     1
  0
CLASS
  1
XRECORD
  2
AcDbXrecord
  3
AutoCAD 2000
 90
        0
280
     0
281
     0
  0
ENDSEC
  0
SECTION
  2
TABLES
  0
TABLE
  2
VPORT
  5
7DE1B343D9E1C8C
330
0
100
AcDbSymbolTable
 70
     2
  0
VPORT
  5
7DE1B343D9E1CDC
330
7DE1B343D9E1C8C
100
AcDbSymbolTableRecord
100
AcDbViewportTableRecord
  2
*ACTIVE
 70
     0
 10
0.0
 20
0.0
 11
1.0
 21
1.0
 12
8.786396204005772
 22
4.626709010715956
 13
0.0
 23
0.0
 14
0.015625
 24
0.015625
 15
0.0
 25
0.0
 16
0.0
 26
0.0
 36
1.0
 17
0.0
 27
0.0
 37
0.0
 40
3.104850770486064
 41
4.320930232558139
 42
50.0
 43
0.0
 44
0.0
 50
0.0
 51
0.0
 71
     0
 72
  2000
 73
     1
 74
     0
 75
     0
 76
     0
 77
     0
 78
     0
  0
ENDTAB
  0
TABLE
  2
LTYPE
  5
7DE1B343D9E1C89
330
0
100
AcDbSymbolTable
 70
     1
  0
LTYPE
  5
7DE1B343D9E1C96
330
7DE1B343D9E1C89
100
AcDbSymbolTableRecord
100
AcDbLinetypeTableRecord
  2
BYBLOCK
 70
     0
  3

 72
    65
 73
     0
 40
0.0
  0
LTYPE
  5
7DE1B343D9E1C97
330
7DE1B343D9E1C89
100
AcDbSymbolTableRecord
100
AcDbLinetypeTableRecord
  2
BYLAYER
 70
     0
  3

 72
    65
 73
     0
 40
0.0
  0
LTYPE
  5
7DE1B343D9E1C98
330
7DE1B343D9E1C89
100
AcDbSymbolTableRecord
100
AcDbLinetypeTableRecord
  2
CONTINUOUS
 70
     0
  3
Solid line
 72
    65
 73
     0
 40
0.0
  0
ENDTAB
  0
TABLE
  2
LAYER
  5
7DE1B343D9E1C86
330
0
100
AcDbSymbolTable
 70
     3
  0
LAYER
  5
7DE1B343D9E1C93
330
7DE1B343D9E1C86
100
AcDbSymbolTableRecord
100
AcDbLayerTableRecord
  2
0
 70
     0
 62
     7
  6
CONTINUOUS
  0
LAYER
  5
7DE1B343D9E1CA3
330
7DE1B343D9E1C86
100
AcDbSymbolTableRecord
100
AcDbLayerTableRecord
  2
TEXT
 70
     0
 62
     3
  6
CONTINUOUS
  0
LAYER
  5
7DE1B343D9E1CB4
330
7DE1B343D9E1C86
100
AcDbSymbolTableRecord
100
AcDbLayerTableRecord
  2
ASHADE
 70
     4
 62
     7
  6
CONTINUOUS
  0
ENDTAB
  0
TABLE
  2
STYLE
  5
7DE1B343D9E1C87
330
0
100
AcDbSymbolTable
 70
     4
  0
STYLE
  5
7DE1B343D9E1C94
330
7DE1B343D9E1C87
100
AcDbSymbolTableRecord
100
AcDbTextStyleTableRecord
  2
STANDARD
 70
     0
 40
0.0
 41
1.0
 50
0.0
 71
     0
 42
0.3125
  3
txt
  4

  0
STYLE
  5
7DE1B343D9E1CA0
330
7DE1B343D9E1C87
100
AcDbSymbolTableRecord
100
AcDbTextStyleTableRecord
  2
ITALICC
 70
     0
 40
0.0
 41
1.0
 50
0.0
 71
     0
 42
0.125
  3
italicc
  4

  0
STYLE
  5
7DE1B343D9E1CB1
330
7DE1B343D9E1C87
100
AcDbSymbolTableRecord
100
AcDbTextStyleTableRecord
  2
ASHADE
 70
     0
 40
0.2
 41
1.0
 50
0.0
 71
     0
 42
0.3125
  3
simplex
  4

  0
STYLE
  5
7DE1B343D9E1CCC
330
7DE1B343D9E1C87
100
AcDbSymbolTableRecord
100
AcDbTextStyleTableRecord
  2
ROMANS
 70
     0
 40
0.0
 41
1.0
 50
0.0
 71
     0
 42
0.125
  3
romans.shx
  4

  0
ENDTAB
  0
TABLE
  2
VIEW
  5
7DE1B343D9E1C8A
330
0
100
AcDbSymbolTable
 70
     0
  0
ENDTAB
  0
TABLE
  2
UCS
  5
7DE1B343D9E1C8B
330
0
100
AcDbSymbolTable
 70
     0
  0
ENDTAB
  0
TABLE
  2
APPID
  5
7DE1B343D9E1C8D
330
0
100
AcDbSymbolTable
 70
     6
  0
APPID
  5
7DE1B343D9E1C95
330
7DE1B343D9E1C8D
100
AcDbSymbolTableRecord
100
AcDbRegAppTableRecord
  2
ACAD
 70
     0
  0
APPID
  5
7DE1B343D9E1CB2
330
7DE1B343D9E1C8D
100
AcDbSymbolTableRecord
100
AcDbRegAppTableRecord
  2
AVE_RENDER
 70
     0
  0
APPID
  5
7DE1B343D9E1CB3
330
7DE1B343D9E1C8D
100
AcDbSymbolTableRecord
100
AcDbRegAppTableRecord
  2
AVE_ENTITY_MATERIAL
 70
     0
  0
APPID
  5
7DE1B343D9E1CC0
330
7DE1B343D9E1C8D
100
AcDbSymbolTableRecord
100
AcDbRegAppTableRecord
  2
AVE_FINISH
 70
     0
  0
APPID
  5
7DE1B343D9E1CC1
330
7DE1B343D9E1C8D
100
AcDbSymbolTableRecord
100
AcDbRegAppTableRecord
  2
AVE_MATERIAL
 70
     0
  0
APPID
  5
7DE1B343D9E1CC2
330
7DE1B343D9E1C8D
100
AcDbSymbolTableRecord
100
AcDbRegAppTableRecord
  2
AVE_GLOBAL
 70
     0
  0
ENDTAB
  0
TABLE
  2
DIMSTYLE
  5
7DE1B343D9E1C8E
330
0
100
AcDbSymbolTable
 70
     1
  0
DIMSTYLE
105
7DE1B343D9E1CA8
330
7DE1B343D9E1C8E
100
AcDbSymbolTableRecord
100
AcDbDimStyleTableRecord
  2
STANDARD
 70
     0
  3

  4

  5

  6

  7

 40
1.0
 41
0.125
 42
0.125
 43
0.375
 44
0.125
 45
0.0
 46
0.0
 47
0.0
 48
0.0
140
0.125
141
-0.125
142
0.0
143
25.4
144
1.0
145
0.0
146
1.0
147
0.09
 71
     0
 72
     0
 73
     1
 74
     1
 75
     0
 76
     0
 77
     0
 78
     4
170
     0
171
     2
172
     0
173
     0
174
     1
175
     0
176
     0
177
     0
178
     0
270
     2
271
     3
272
     3
273
     2
274
     2
340
7DE1B343D9E1CCC
275
     0
280
     0
281
     0
282
     0
283
     1
284
     4
285
     0
286
     0
287
     3
288
     0
  0
ENDTAB
  0
TABLE
  2
BLOCK_RECORD
  5
7DE1B343D9E1C85
330
0
100
AcDbSymbolTable
 70
     2
  0
BLOCK_RECORD
  5
7DE1B343D9E1C9C
102
{ACAD_XDICTIONARY
360
7DE1B343D9E1CFF
102
}
330
7DE1B343D9E1C85
100
AcDbSymbolTableRecord
100
AcDbBlockTableRecord
  2
*MODEL_SPACE
  0
BLOCK_RECORD
  5
7DE1B343D9E1C99
102
{ACAD_XDICTIONARY
360
7DE1B343D9E1CFD
102
}
330
7DE1B343D9E1C85
100
AcDbSymbolTableRecord
100
AcDbBlockTableRecord
  2
*PAPER_SPACE
  0
BLOCK_RECORD
  5
7DE1B343D9E1CB5
330
7DE1B343D9E1C85
100
AcDbSymbolTableRecord
100
AcDbBlockTableRecord
  2
AVE_RENDER
  0
BLOCK_RECORD
  5
7DE1B343D9E1CC3
330
7DE1B343D9E1C85
100
AcDbSymbolTableRecord
100
AcDbBlockTableRecord
  2
AVE_GLOBAL
  0
ENDTAB
  0
ENDSEC
  0
SECTION
  2
BLOCKS
  0
BLOCK
  5
7DE1B343D9E1CA6
330
7DE1B343D9E1C9C
100
AcDbEntity
  8
0
100
AcDbBlockBegin
  2
*MODEL_SPACE
 70
     0
 10
0.0
 20
0.0
 30
0.0
  3
*MODEL_SPACE
  1

  0
ENDBLK
  5
7DE1B343D9E1CA7
330
7DE1B343D9E1C9C
100
AcDbEntity
  8
0
100
AcDbBlockEnd
  0
BLOCK
  5
7DE1B343D9E1CA4
330
7DE1B343D9E1C99
100
AcDbEntity
 67
     1
  8
0
100
AcDbBlockBegin
  2
*PAPER_SPACE
 70
     0
 10
0.0
 20
0.0
 30
0.0
  3
*PAPER_SPACE
  1

  0
ENDBLK
  5
7DE1B343D9E1CA5
330
7DE1B343D9E1C99
100
AcDbEntity
 67
     1
  8
0
100
AcDbBlockEnd
  0
BLOCK
  5
7DE1B343D9E1CB6
330
7DE1B343D9E1CB5
100
AcDbEntity
  8
0
100
AcDbBlockBegin
  2
AVE_RENDER
 70
     0
 10
0.0
 20
0.0
 30
0.0
  3
AVE_RENDER
  1
AVE_RENDER
  0
ENDBLK
  5
7DE1B343D9E1CB7
330
7DE1B343D9E1CB5
100
AcDbEntity
  8
0
100
AcDbBlockEnd
  0
BLOCK
  5
7DE1B343D9E1CC4
330
7DE1B343D9E1CC3
100
AcDbEntity
  8
0
100
AcDbBlockBegin
  2
AVE_GLOBAL
 70
     0
 10
0.0
 20
0.0
 30
0.0
  3
AVE_GLOBAL
  1
AVE_GLOBAL
  0
ENDBLK
  5
7DE1B343D9E1CC5
330
7DE1B343D9E1CC3
100
AcDbEntity
  8
0
100
AcDbBlockEnd
  0
ENDSEC
  0
SECTION
  2
ENTITIES
  0
LWPOLYLINE
  5
7DE1B343D9E08C0
330
7DE1B343D9E1C9C
100
AcDbEntity
  8
0
100
AcDbPolyline
 90
       33
 70
     1
 43
0.0
 10
4.127471123260393
 20
4.069299962887984
 42
0.4142135623730951
 10
4.184471123260387
 20
4.126299962887984
 42
-0.323600589578431
 10
4.359858025249605
 20
4.36891517578098
 42
0.8520185014307418
 10
4.35432501339327
 20
4.403317507574297
 10
4.064971123260395
 20
4.403317507574296
 10
4.064971123260396
 20
4.648182147494615
 42
-0.267949192431124
 10
4.080596123260396
 20
4.675245441362879
 10
4.127471123260395
 20
4.702308735231142
 10
4.127471123260395
 20
4.471317507574297
 10
4.396981045571899
 20
4.471317507574297
 42
-0.050322678077887
 10
4.419348637591447
 20
4.50296128953349
 42
-0.1661476462979557
 10
5.086749844054278
 20
4.890100662414941
 42
0.703831280165558
 10
5.206571285782071
 20
5.694545446982839
 42
0.0890898866623594
 10
4.851179304548941
 20
5.810099177667721
 42
-0.2751662545927367
 10
4.696847204578487
 20
5.933299962887985
 10
4.127471123260395
 20
5.933299962887985
 10
4.127471123260395
 20
5.702308735231141
 10
4.080596123260395
 20
5.729372029099405
 42
-0.267949192431124
 10
4.064971123260395
 20
5.756435322967669
 10
4.064971123260395
 20
5.933299962887985
 10
4.036471123260394
 20
5.933299962887983
 42
-1.0
 10
4.036471123260394
 20
6.001299962887984
 10
4.752471123260373
 20
6.001299962887984
 42
0.3747324619579366
 10
4.860442743265925
 20
5.877465257434446
 42
-0.0890898866623594
 10
5.238698163216039
 20
5.754477606516289
 42
-0.703831280165558
 10
5.100015938994055
 20
4.823407254007146
 42
0.1661476462979557
 10
4.470656041868587
 20
4.458334500870824
 42
0.1809037942051168
 10
4.439971123260388
 20
4.376299962887984
 10
4.439971123260388
 20
4.313799962887984
 42
0.4142135623730951
 10
4.252471123260388
 20
4.126299962887984
 42
-0.4142135623730951
 10
4.127471123260395
 20
4.001299962887984
 10
4.036471123260395
 20
4.001299962887984
 42
-1.0
 10
4.036471123260395
 20
4.069299962887985
  0
TEXT
  5
7DE1B343D9E1B47
330
7DE1B343D9E1C9C
100
AcDbEntity
  8
TEXT
100
AcDbText
 10
3.985225638580347
 20
3.710390156193463
 30
0.0
 40
0.125
  1
PART #110400
  7
ITALICC
 72
     1
 11
4.738201829056537
 21
3.710390156193463
 31
0.0
100
AcDbText
  0
TEXT
  5
7DE1B343D9E1B48
330
7DE1B343D9E1C9C
100
AcDbEntity
  8
TEXT
100
AcDbText
 10
5.151506987306857
 20
3.263467513521088
 30
0.0
 40
0.0522247191011236
  1
Phone  1-800-328-2495
 41
1.272321428571429
 72
     5
 11
6.480439571576521
 21
3.263467513521088
 31
0.0
100
AcDbText
  0
TEXT
  5
7DE1B343D9E1B49
330
7DE1B343D9E1C9C
100
AcDbEntity
  8
TEXT
100
AcDbText
 10
5.151506987306857
 20
3.543242794419964
 30
0.0
 40
0.0522247191011236
  1
Stylmark  Incorporated
 41
1.221428571428573
 72
     5
 11
6.480439571576521
 21
3.543242794419964
 31
0.0
100
AcDbText
  0
TEXT
  5
7DE1B343D9E1B4A
330
7DE1B343D9E1C9C
100
AcDbEntity
  8
TEXT
100
AcDbText
 10
5.151506987306857
 20
3.449984367453672
 30
0.0
 40
0.0522247191011236
  1
6536 Main St. N.E. * P.O. Box 32008
 41
0.8388932496075366
 72
     5
 11
6.480439571576521
 21
3.449984367453672
 31
0.0
100
AcDbText
  0
TEXT
  5
7DE1B343D9E1B4B
330
7DE1B343D9E1C9C
100
AcDbEntity
  8
TEXT
100
AcDbText
 10
5.151506987306857
 20
3.35672594048738
 30
0.0
 40
0.0522247191011236
  1
Minneapolis, MN 55432-0008
 41
1.11444212721585
 72
     5
 11
6.480439571576521
 21
3.35672594048738
 31
0.0
100
AcDbText
  0
LWPOLYLINE
  5
7DE1B343D9E1B4C
330
7DE1B343D9E1C9C
100
AcDbEntity
  8
TEXT
100
AcDbPolyline
 90
        3
 70
     0
 43
0.0006660908203125
 10
2.99555329523955
 20
3.377112276158523
 10
2.99555329523955
 20
3.263876836705395
 10
3.108788734692672
 20
3.263876836705395
  0
LWPOLYLINE
  5
7DE1B343D9E1B51
330
7DE1B343D9E1C9C
100
AcDbEntity
  8
TEXT
100
AcDbPolyline
 90
        3
 70
     0
 43
0.0006660908203125
 10
3.022196928052047
 20
3.377112276158523
 10
3.022196928052047
 20
3.290520469517896
 10
3.108788734692672
 20
3.290520469517896
  0
LWPOLYLINE
  5
7DE1B343D9E1B56
330
7DE1B343D9E1C9C
100
AcDbEntity
  8
TEXT
100
AcDbPolyline
 90
        2
 70
     0
 43
0.0001332181640625
 10
3.068823285473924
 20
3.387103638463208
 10
2.99555329523955
 20
3.377112276158523
  0
LWPOLYLINE
  5
7DE1B343D9E1B5A
330
7DE1B343D9E1C9C
100
AcDbEntity
  8
TEXT
100
AcDbPolyline
 90
        2
 70
     0
 43
0.0001332181640625
 10
3.022196928052047
 20
3.377112276158523
 10
3.082145101880175
 20
3.387103638463208
  0
LWPOLYLINE
  5
7DE1B343D9E1B5E
330
7DE1B343D9E1C9C
100
AcDbEntity
  8
TEXT
100
AcDbPolyline
 90
        2
 70
     0
 43
0.0001332181640625
 10
3.022196928052047
 20
3.290520469517896
 10
3.082145101880175
 20
3.350468643346022
  0
LWPOLYLINE
  5
7DE1B343D9E1B62
330
7DE1B343D9E1C9C
100
AcDbEntity
  8
TEXT
100
AcDbPolyline
 90
        3
 70
     0
 43
0.0006660908203125
 10
3.108788734692672
 20
3.530313164830398
 10
2.99555329523955
 20
3.530313164830398
 10
2.99555329523955
 20
3.417077725377271
  0
LWPOLYLINE
  5
7DE1B343D9E1B67
330
7DE1B343D9E1C9C
100
AcDbEntity
  8
TEXT
100
AcDbPolyline
 90
        3
 70
     0
 43
0.0006660908203125
 10
3.108788734692672
 20
3.503669532017897
 10
3.022196928052047
 20
3.503669532017897
 10
3.022196928052047
 20
3.417077725377271
  0
LWPOLYLINE
  5
7DE1B343D9E1B6C
330
7DE1B343D9E1C9C
100
AcDbEntity
  8
TEXT
100
AcDbPolyline
 90
        2
 70
     0
 43
0.0001332181640625
 10
3.022196928052047
 20
3.503669532017897
 10
3.082145101880173
 20
3.443721358189772
  0
LWPOLYLINE
  5
7DE1B343D9E1B70
330
7DE1B343D9E1C9C
100
AcDbEntity
  8
TEXT
100
AcDbPolyline
 90
        2
 70
     0
 43
0.0001332181640625
 10
3.022196928052047
 20
3.417077725377271
 10
3.082145101880173
 20
3.407086363072582
  0
LWPOLYLINE
  5
7DE1B343D9E1B74
330
7DE1B343D9E1C9C
100
AcDbEntity
  8
TEXT
100
AcDbPolyline
 90
        2
 70
     0
 43
0.0001332181640625
 10
2.99555329523955
 20
3.417077725377271
 10
3.068823285473924
 20
3.407086363072582
  0
LWPOLYLINE
  5
7DE1B343D9E1B78
330
7DE1B343D9E1C9C
100
AcDbEntity
  8
TEXT
100
AcDbPolyline
 90
        2
 70
     0
 43
0.0006660908203125
 10
3.022196928052047
 20
3.377112276158523
 10
2.99555329523955
 20
3.377112276158523
  0
LWPOLYLINE
  5
7DE1B343D9E1B7C
330
7DE1B343D9E1C9C
100
AcDbEntity
  8
TEXT
100
AcDbPolyline
 90
        2
 70
     0
 43
0.0006660908203125
 10
3.022196928052047
 20
3.417077725377271
 10
2.99555329523955
 20
3.417077725377271
  0
LINE
  5
7DE1B343D9E1B80
330
7DE1B343D9E1C9C
100
AcDbEntity
  8
TEXT
100
AcDbLine
 10
4.510743724366047
 20
3.466036470173629
 30
0.0
 11
4.403537450978758
 21
3.466036470173629
 31
0.0
  0
LINE
  5
7DE1B343D9E1B81
330
7DE1B343D9E1C9C
100
AcDbEntity
  8
TEXT
100
AcDbLine
 10
4.539774622710526
 20
3.530313164830395
 30
0.0
 11
4.404942713493467
 21
3.530313164830395
 31
0.0
  0
ARC
  5
7DE1B343D9E1B82
330
7DE1B343D9E1C9C
100
AcDbEntity
  8
TEXT
100
AcDbCircle
 10
4.464256809886784
 20
3.361075915567378
 30
0.0
 40
0.0676855811441166
100
AcDbArc
 50
90.0
 51
153.7768192527749
  0
LWPOLYLINE
  5
7DE1B343D9E1B83
330
7DE1B343D9E1C9C
100
AcDbEntity
  8
TEXT
100
AcDbPolyline
 90
        2
 70
     0
 43
0.0
 10
4.402504955523948
 20
3.307331076792322
 42
0.2901071551932823
 10
4.445580888391583
 20
3.263840131841884
 42
5.328517124445801
  0
ARC
  5
7DE1B343D9E1B87
330
7DE1B343D9E1C9C
100
AcDbEntity
  8
TEXT
100
AcDbCircle
 10
3.759125432215298
 20
3.323632523179933
 30
0.0
 40
0.0601160179737537
100
AcDbArc
 50
180.0000000000003
 51
264.0521544866073
  0
LINE
  5
7DE1B343D9E1B88
330
7DE1B343D9E1C9C
100
AcDbEntity
  8
TEXT
100
AcDbLine
 10
3.762640787840846
 20
3.564701082424533
 30
0.0
 11
3.702598182996839
 21
3.564701082424533
 31
0.0
  0
ARC
  5
7DE1B343D9E1B89
330
7DE1B343D9E1C9C
100
AcDbEntity
  8
TEXT
100
AcDbCircle
 10
3.526866430098327
 20
3.448225705383893
 30
0.0
 40
0.0820874594465043
100
AcDbArc
 50
90.0
 51
270.0
  0
LWPOLYLINE
  5
7DE1B343D9E1B8A
330
7DE1B343D9E1C9C
100
AcDbEntity
  8
TEXT
100
AcDbPolyline
 90
        2
 70
     0
 43
0.0001332181640625
 10
3.118780096997363
 20
3.457043174596019
 10
3.108788734692672
 20
3.530313164830398
  0
LWPOLYLINE
  5
7DE1B343D9E1B8E
330
7DE1B343D9E1C9C
100
AcDbEntity
  8
TEXT
100
AcDbPolyline
 90
        2
 70
     0
 43
0.0001332181640625
 10
3.108788734692672
 20
3.503669532017897
 10
3.118780096997363
 20
3.443721358189772
  0
LWPOLYLINE
  5
7DE1B343D9E1B92
330
7DE1B343D9E1C9C
100
AcDbEntity
  8
TEXT
100
AcDbPolyline
 90
        3
 70
     0
 43
0.0006660908203125
 10
3.26198962336455
 20
3.417077725377271
 10
3.26198962336455
 20
3.530313164830398
 10
3.148754183911424
 20
3.530313164830398
  0
LWPOLYLINE
  5
7DE1B343D9E1B97
330
7DE1B343D9E1C9C
100
AcDbEntity
  8
TEXT
100
AcDbPolyline
 90
        3
 70
     0
 43
0.0006660908203125
 10
3.235345990552048
 20
3.417077725377271
 10
3.235345990552048
 20
3.503669532017897
 10
3.148754183911424
 20
3.503669532017897
  0
LWPOLYLINE
  5
7DE1B343D9E1B9C
330
7DE1B343D9E1C9C
100
AcDbEntity
  8
TEXT
100
AcDbPolyline
 90
        2
 70
     0
 43
0.0001332181640625
 10
3.235345990552048
 20
3.503669532017897
 10
3.175397816723925
 20
3.443721358189772
  0
LWPOLYLINE
  5
7DE1B343D9E1BA0
330
7DE1B343D9E1C9C
100
AcDbEntity
  8
TEXT
100
AcDbPolyline
 90
        2
 70
     0
 43
0.0001332181640625
 10
3.148754183911424
 20
3.503669532017897
 10
3.138762821606735
 20
3.443721358189772
  0
LWPOLYLINE
  5
7DE1B343D9E1BA4
330
7DE1B343D9E1C9C
100
AcDbEntity
  8
TEXT
100
AcDbPolyline
 90
        2
 70
     0
 43
0.0001332181640625
 10
3.148754183911424
 20
3.530313164830398
 10
3.138762821606735
 20
3.457043174596019
  0
LWPOLYLINE
  5
7DE1B343D9E1BA8
330
7DE1B343D9E1C9C
100
AcDbEntity
  8
TEXT
100
AcDbPolyline
 90
        2
 70
     0
 43
0.0001332181640625
 10
3.188719633130173
 20
3.407086363072582
 10
3.26198962336455
 20
3.417077725377271
  0
LWPOLYLINE
  5
7DE1B343D9E1BAC
330
7DE1B343D9E1C9C
100
AcDbEntity
  8
TEXT
100
AcDbPolyline
 90
        2
 70
     0
 43
0.0001332181640625
 10
3.235345990552048
 20
3.417077725377271
 10
3.175397816723925
 20
3.407086363072582
  0
LWPOLYLINE
  5
7DE1B343D9E1BB0
330
7DE1B343D9E1C9C
100
AcDbEntity
  8
TEXT
100
AcDbPolyline
 90
        2
 70
     0
 43
0.0001332181640625
 10
3.26198962336455
 20
3.377112276158523
 10
3.188719633130173
 20
3.387103638463208
  0
LWPOLYLINE
  5
7DE1B343D9E1BB4
330
7DE1B343D9E1C9C
100
AcDbEntity
  8
TEXT
100
AcDbPolyline
 90
        2
 70
     0
 43
0.0001332181640625
 10
3.235345990552048
 20
3.377112276158523
 10
3.175397816723925
 20
3.387103638463208
  0
LWPOLYLINE
  5
7DE1B343D9E1BB8
330
7DE1B343D9E1C9C
100
AcDbEntity
  8
TEXT
100
AcDbPolyline
 90
        2
 70
     0
 43
0.0001332181640625
 10
3.235345990552048
 20
3.290520469517896
 10
3.175397816723925
 20
3.350468643346022
  0
LWPOLYLINE
  5
7DE1B343D9E1BBC
330
7DE1B343D9E1C9C
100
AcDbEntity
  8
TEXT
100
AcDbPolyline
 90
        3
 70
     0
 43
0.0006660908203125
 10
3.148754183911424
 20
3.290520469517896
 10
3.235345990552048
 20
3.290520469517896
 10
3.235345990552048
 20
3.377112276158523
  0
LWPOLYLINE
  5
7DE1B343D9E1BC1
330
7DE1B343D9E1C9C
100
AcDbEntity
  8
TEXT
100
AcDbPolyline
 90
        3
 70
     0
 43
0.0006660908203125
 10
3.148754183911424
 20
3.263876836705395
 10
3.26198962336455
 20
3.263876836705395
 10
3.26198962336455
 20
3.377112276158523
  0
LWPOLYLINE
  5
7DE1B343D9E1BC6
330
7DE1B343D9E1C9C
100
AcDbEntity
  8
TEXT
100
AcDbPolyline
 90
        5
 70
     0
 43
0.0001332181640625
 10
3.118780096997363
 20
3.337146826939771
 10
3.118780096997363
 20
3.350468643346022
 10
3.082145101880175
 20
3.350468643346022
 10
3.082145101880175
 20
3.387103638463208
 10
3.068823285473924
 20
3.387103638463208
  0
LWPOLYLINE
  5
7DE1B343D9E1BCD
330
7DE1B343D9E1C9C
100
AcDbEntity
  8
TEXT
100
AcDbPolyline
 90
        2
 70
     0
 43
0.0006660908203125
 10
3.108788734692672
 20
3.290520469517896
 10
3.108788734692672
 20
3.263876836705395
  0
LWPOLYLINE
  5
7DE1B343D9E1BD1
330
7DE1B343D9E1C9C
100
AcDbEntity
  8
TEXT
100
AcDbPolyline
 90
        2
 70
     0
 43
0.0001332181640625
 10
3.108788734692672
 20
3.290520469517896
 10
3.118780096997363
 20
3.350468643346022
  0
LWPOLYLINE
  5
7DE1B343D9E1BD5
330
7DE1B343D9E1C9C
100
AcDbEntity
  8
TEXT
100
AcDbPolyline
 90
        2
 70
     0
 43
0.0001332181640625
 10
3.108788734692672
 20
3.263876836705395
 10
3.118780096997363
 20
3.337146826939771
  0
LWPOLYLINE
  5
7DE1B343D9E1BD9
330
7DE1B343D9E1C9C
100
AcDbEntity
  8
TEXT
100
AcDbPolyline
 90
        5
 70
     0
 43
0.0001332181640625
 10
3.068823285473924
 20
3.407086363072582
 10
3.082145101880173
 20
3.407086363072582
 10
3.082145101880173
 20
3.443721358189772
 10
3.118780096997363
 20
3.443721358189772
 10
3.118780096997363
 20
3.457043174596019
  0
LWPOLYLINE
  5
7DE1B343D9E1BE0
330
7DE1B343D9E1C9C
100
AcDbEntity
  8
TEXT
100
AcDbPolyline
 90
        5
 70
     0
 43
0.0001332181640625
 10
3.138762821606735
 20
3.457043174596019
 10
3.138762821606735
 20
3.443721358189772
 10
3.175397816723925
 20
3.443721358189772
 10
3.175397816723925
 20
3.407086363072582
 10
3.188719633130173
 20
3.407086363072582
  0
LWPOLYLINE
  5
7DE1B343D9E1BE7
330
7DE1B343D9E1C9C
100
AcDbEntity
  8
TEXT
100
AcDbPolyline
 90
        2
 70
     0
 43
0.0001332181640625
 10
3.148754183911424
 20
3.290520469517896
 10
3.138762821606735
 20
3.350468643346022
  0
LWPOLYLINE
  5
7DE1B343D9E1BEB
330
7DE1B343D9E1C9C
100
AcDbEntity
  8
TEXT
100
AcDbPolyline
 90
        2
 70
     0
 43
0.0001332181640625
 10
3.138762821606735
 20
3.337146826939771
 10
3.148754183911424
 20
3.263876836705395
  0
LWPOLYLINE
  5
7DE1B343D9E1BEF
330
7DE1B343D9E1C9C
100
AcDbEntity
  8
TEXT
100
AcDbPolyline
 90
        2
 70
     0
 43
0.0006660908203125
 10
3.148754183911424
 20
3.290520469517896
 10
3.148754183911424
 20
3.263876836705395
  0
LWPOLYLINE
  5
7DE1B343D9E1BF3
330
7DE1B343D9E1C9C
100
AcDbEntity
  8
TEXT
100
AcDbPolyline
 90
        5
 70
     0
 43
0.0001332181640625
 10
3.188719633130173
 20
3.387103638463208
 10
3.175397816723925
 20
3.387103638463208
 10
3.175397816723925
 20
3.350468643346022
 10
3.138762821606735
 20
3.350468643346022
 10
3.138762821606735
 20
3.337146826939771
  0
LWPOLYLINE
  5
7DE1B343D9E1BFA
330
7DE1B343D9E1C9C
100
AcDbEntity
  8
TEXT
100
AcDbPolyline
 90
        2
 70
     0
 43
0.0006660908203125
 10
3.235345990552048
 20
3.417077725377271
 10
3.26198962336455
 20
3.417077725377271
  0
LWPOLYLINE
  5
7DE1B343D9E1BFE
330
7DE1B343D9E1C9C
100
AcDbEntity
  8
TEXT
100
AcDbPolyline
 90
        2
 70
     0
 43
0.0006660908203125
 10
3.235345990552048
 20
3.377112276158523
 10
3.26198962336455
 20
3.377112276158523
  0
LINE
  5
7DE1B343D9E1C02
330
7DE1B343D9E1C9C
100
AcDbEntity
  8
TEXT
100
AcDbLine
 10
3.532103760212574
 20
3.466036470173629
 30
0.0
 11
3.699009414241546
 21
3.466036470173629
 31
0.0
  0
LINE
  5
7DE1B343D9E1C03
330
7DE1B343D9E1C9C
100
AcDbEntity
  8
TEXT
100
AcDbLine
 10
3.597703896456875
 20
3.430231748563001
 30
0.0
 11
3.532103760212574
 21
3.430231748563001
 31
0.0
  0
LINE
  5
7DE1B343D9E1C04
330
7DE1B343D9E1C9C
100
AcDbEntity
  8
TEXT
100
AcDbLine
 10
3.444778970651823
 20
3.263840131841884
 30
0.0
 11
3.597703896456875
 21
3.263840131841884
 31
0.0
  0
LINE
  5
7DE1B343D9E1C05
330
7DE1B343D9E1C9C
100
AcDbEntity
  8
TEXT
100
AcDbLine
 10
3.602644270363155
 20
3.332197138175323
 30
0.0
 11
3.444778970651821
 21
3.332197138175323
 31
0.0
  0
LINE
  5
7DE1B343D9E1C06
330
7DE1B343D9E1C9C
100
AcDbEntity
  8
TEXT
100
AcDbLine
 10
3.526866430098326
 20
3.366138245937388
 30
0.0
 11
3.602644270363155
 21
3.366138245937388
 31
0.0
  0
ARC
  5
7DE1B343D9E1C07
330
7DE1B343D9E1C9C
100
AcDbEntity
  8
TEXT
100
AcDbCircle
 10
3.532103760212575
 20
3.448134109368317
 30
0.0
 40
0.017902360805315
100
AcDbArc
 50
90.0
 51
270.0
  0
LINE
  5
7DE1B343D9E1C08
330
7DE1B343D9E1C9C
100
AcDbEntity
  8
TEXT
100
AcDbLine
 10
3.444778970651821
 20
3.332197138175323
 30
0.0
 11
3.444778970651823
 21
3.263840131841884
 31
0.0
  0
LINE
  5
7DE1B343D9E1C09
330
7DE1B343D9E1C9C
100
AcDbEntity
  8
TEXT
100
AcDbLine
 10
3.699009414241546
 20
3.466036470173629
 30
0.0
 11
3.699009414241546
 21
3.323632523179933
 31
0.0
  0
ARC
  5
7DE1B343D9E1C0A
330
7DE1B343D9E1C9C
100
AcDbEntity
  8
TEXT
100
AcDbCircle
 10
3.597703896456876
 20
3.347035940202441
 30
0.0
 40
0.0831958083605586
100
AcDbArc
 50
270.0
 51
90.0
  0
ARC
  5
7DE1B343D9E1C0B
330
7DE1B343D9E1C9C
100
AcDbEntity
  8
TEXT
100
AcDbCircle
 10
3.602644270363156
 20
3.349167692056357
 30
0.0
 40
0.0169705538810321
100
AcDbArc
 50
270.0
 51
90.0
  0
LWPOLYLINE
  5
7DE1B343D9E1C0C
330
7DE1B343D9E1C9C
100
AcDbEntity
  8
TEXT
100
AcDbPolyline
 90
        2
 70
     0
 43
0.0006660908203125
 10
3.108788734692672
 20
3.503669532017897
 10
3.108788734692672
 20
3.530313164830398
  0
LWPOLYLINE
  5
7DE1B343D9E1C10
330
7DE1B343D9E1C9C
100
AcDbEntity
  8
TEXT
100
AcDbPolyline
 90
        2
 70
     0
 43
0.0006660908203125
 10
3.148754183911424
 20
3.503669532017897
 10
3.148754183911424
 20
3.530313164830398
  0
LINE
  5
7DE1B343D9E1C14
330
7DE1B343D9E1C9C
100
AcDbEntity
  8
TEXT
100
AcDbLine
 10
3.702598182996839
 20
3.530313164830395
 30
0.0
 11
3.526866430098326
 21
3.530313164830395
 31
0.0
  0
LINE
  5
7DE1B343D9E1C15
330
7DE1B343D9E1C9C
100
AcDbEntity
  8
TEXT
100
AcDbLine
 10
3.702598182996839
 20
3.564701082424533
 30
0.0
 11
3.702598182996839
 21
3.530313164830395
 31
0.0
  0
LINE
  5
7DE1B343D9E1C16
330
7DE1B343D9E1C9C
100
AcDbEntity
  8
TEXT
100
AcDbLine
 10
3.893070075016691
 20
3.429441168717274
 30
0.0
 11
3.834439753984753
 21
3.530313164830395
 31
0.0
  0
LINE
  5
7DE1B343D9E1C17
330
7DE1B343D9E1C9C
100
AcDbEntity
  8
TEXT
100
AcDbLine
 10
3.951818637822556
 20
3.530313164830395
 30
0.0
 11
3.893070075016691
 21
3.429441168717274
 31
0.0
  0
LINE
  5
7DE1B343D9E1C18
330
7DE1B343D9E1C9C
100
AcDbEntity
  8
TEXT
100
AcDbLine
 10
4.048749263182298
 20
3.346227969944883
 30
0.0
 11
4.048749263182298
 21
3.598324642569205
 31
0.0
  0
LINE
  5
7DE1B343D9E1C19
330
7DE1B343D9E1C9C
100
AcDbEntity
  8
TEXT
100
AcDbLine
 10
4.081061117319958
 20
3.530313164830395
 30
0.0
 11
4.081061117319958
 21
3.329448958097986
 31
0.0
  0
LINE
  5
7DE1B343D9E1C1A
330
7DE1B343D9E1C9C
100
AcDbEntity
  8
TEXT
100
AcDbLine
 10
4.081061117319958
 20
3.329448958097986
 30
0.0
 11
4.064067480435356
 21
3.329448958097986
 31
0.0
  0
LINE
  5
7DE1B343D9E1C1B
330
7DE1B343D9E1C9C
100
AcDbEntity
  8
TEXT
100
AcDbLine
 10
4.049888836678492
 20
3.263840131841884
 30
0.0
 11
4.147892170377927
 21
3.263840131841884
 31
0.0
  0
LINE
  5
7DE1B343D9E1C1C
330
7DE1B343D9E1C9C
100
AcDbEntity
  8
TEXT
100
AcDbLine
 10
3.883469838019736
 20
3.283798637946897
 30
0.0
 11
3.980769544113181
 21
3.448148848882165
 31
0.0
  0
ARC
  5
7DE1B343D9E1C1D
330
7DE1B343D9E1C9C
100
AcDbEntity
  8
TEXT
100
AcDbCircle
 10
3.849426278107523
 20
3.303387854115579
 30
0.0
 40
0.0392772371940762
100
AcDbArc
 50
270.1604552698595
 51
330.0831797321295
  0
LINE
  5
7DE1B343D9E1C1E
330
7DE1B343D9E1C9C
100
AcDbEntity
  8
TEXT
100
AcDbLine
 10
3.752896021721651
 20
3.263840131841884
 30
0.0
 11
3.849536272796646
 21
3.264110770940166
 31
0.0
  0
LWPOLYLINE
  5
7DE1B343D9E1C1F
330
7DE1B343D9E1C9C
100
AcDbEntity
  8
TEXT
100
AcDbPolyline
 90
        6
 70
     1
 43
0.0
 10
3.795419825296801
 20
3.466036470173629
 10
3.765103231076593
 20
3.466036470173629
 10
3.765103231076593
 20
3.342925472118735
 42
0.407328721240804
 10
3.776646882238069
 20
3.331106557442349
 10
3.8372685812828
 20
3.331106557442349
 10
3.854733921690118
 20
3.363918786485828
  0
LINE
  5
7DE1B343D9E1C27
330
7DE1B343D9E1C9C
100
AcDbEntity
  8
TEXT
100
AcDbLine
 10
3.980769544113181
 20
3.448148848882165
 30
0.0
 11
3.980769544113181
 21
3.315391474056808
 31
0.0
  0
ARC
  5
7DE1B343D9E1C28
330
7DE1B343D9E1C9C
100
AcDbEntity
  8
TEXT
100
AcDbCircle
 10
4.064067480435355
 20
3.344830764341412
 30
0.0
 40
0.0153818062434269
100
AcDbArc
 50
174.7883570302258
 51
270.0
  0
LWPOLYLINE
  5
7DE1B343D9E1C29
330
7DE1B343D9E1C9C
100
AcDbEntity
  8
TEXT
100
AcDbPolyline
 90
        2
 70
     0
 43
0.0
 10
3.980769544113179
 20
3.315391474056812
 42
0.3318488747599744
 10
4.049888836678492
 20
3.263840131841884
 42
-6.868794160588311
  0
LINE
  5
7DE1B343D9E1C2D
330
7DE1B343D9E1C9C
100
AcDbEntity
  8
TEXT
100
AcDbLine
 10
4.205281239367188
 20
3.263840131841884
 30
0.0
 11
4.272339286149028
 21
3.263840131841884
 31
0.0
  0
LINE
  5
7DE1B343D9E1C2E
330
7DE1B343D9E1C9C
100
AcDbEntity
  8
TEXT
100
AcDbLine
 10
4.205281239367188
 20
3.458482681007519
 30
0.0
 11
4.205281239367188
 21
3.263840131841884
 31
0.0
  0
LINE
  5
7DE1B343D9E1C2F
330
7DE1B343D9E1C9C
100
AcDbEntity
  8
TEXT
100
AcDbLine
 10
4.147892170377927
 20
3.466036470173629
 30
0.0
 11
4.197727450201075
 21
3.466036470173629
 31
0.0
  0
LINE
  5
7DE1B343D9E1C30
330
7DE1B343D9E1C9C
100
AcDbEntity
  8
TEXT
100
AcDbLine
 10
4.147892170377927
 20
3.263840131841884
 30
0.0
 11
4.147892170377927
 21
3.466036470173629
 31
0.0
  0
LWPOLYLINE
  5
7DE1B343D9E1C31
330
7DE1B343D9E1C9C
100
AcDbEntity
  8
TEXT
100
AcDbPolyline
 90
        2
 70
     0
 43
0.0
 10
4.197727450201073
 20
3.466036470173629
 42
-0.4142135623731017
 10
4.205281239367186
 20
3.458482681007519
 42
-0.9999999999999998
  0
LINE
  5
7DE1B343D9E1C35
330
7DE1B343D9E1C9C
100
AcDbEntity
  8
TEXT
100
AcDbLine
 10
4.403537450978758
 20
3.466036470173629
 30
0.0
 11
4.403537450978758
 21
3.390984064099423
 31
0.0
  0
LINE
  5
7DE1B343D9E1C36
330
7DE1B343D9E1C9C
100
AcDbEntity
  8
TEXT
100
AcDbLine
 10
4.272339286149028
 20
3.466036470173629
 30
0.0
 11
4.326472883069978
 21
3.466036470173629
 31
0.0
  0
LINE
  5
7DE1B343D9E1C37
330
7DE1B343D9E1C9C
100
AcDbEntity
  8
TEXT
100
AcDbLine
 10
4.272339286149028
 20
3.263840131841884
 30
0.0
 11
4.272339286149028
 21
3.466036470173629
 31
0.0
  0
LWPOLYLINE
  5
7DE1B343D9E1C38
330
7DE1B343D9E1C9C
100
AcDbEntity
  8
TEXT
100
AcDbPolyline
 90
        2
 70
     0
 43
0.0
 10
4.326472883069977
 20
3.466036470173629
 42
-0.4142135623731017
 10
4.33402667223609
 20
3.458482681007519
 42
-0.9999999999999998
  0
LWPOLYLINE
  5
7DE1B343D9E1C3C
330
7DE1B343D9E1C9C
100
AcDbEntity
  8
TEXT
100
AcDbPolyline
 90
        4
 70
     0
 43
0.0
 10
4.33402667223609
 20
3.458482681007519
 10
4.33402667223609
 20
3.263840131841884
 10
4.402504955523948
 20
3.263840131841884
 10
4.402504955523948
 20
3.307331076792322
 42
-1.714843617202739
  0
LINE
  5
7DE1B343D9E1C42
330
7DE1B343D9E1C9C
100
AcDbEntity
  8
TEXT
100
AcDbLine
 10
3.762640787840846
 20
3.530313164830395
 30
0.0
 11
3.762640787840846
 21
3.564701082424533
 31
0.0
  0
LINE
  5
7DE1B343D9E1C43
330
7DE1B343D9E1C9C
100
AcDbEntity
  8
TEXT
100
AcDbLine
 10
3.834439753984753
 20
3.530313164830395
 30
0.0
 11
3.762640787840846
 21
3.530313164830395
 31
0.0
  0
LINE
  5
7DE1B343D9E1C44
330
7DE1B343D9E1C9C
100
AcDbEntity
  8
TEXT
100
AcDbLine
 10
3.981940550615933
 20
3.530313164830395
 30
0.0
 11
3.951818637822556
 21
3.530313164830395
 31
0.0
  0
LINE
  5
7DE1B343D9E1C45
330
7DE1B343D9E1C9C
100
AcDbEntity
  8
TEXT
100
AcDbLine
 10
3.981940550615933
 20
3.598324642569205
 30
0.0
 11
3.981940550615933
 21
3.530313164830395
 31
0.0
  0
LINE
  5
7DE1B343D9E1C46
330
7DE1B343D9E1C9C
100
AcDbEntity
  8
TEXT
100
AcDbLine
 10
4.048749263182298
 20
3.598324642569205
 30
0.0
 11
3.981940550615933
 21
3.598324642569205
 31
0.0
  0
LWPOLYLINE
  5
7DE1B343D9E1C47
330
7DE1B343D9E1C9C
100
AcDbEntity
  8
TEXT
100
AcDbPolyline
 90
        3
 70
     0
 43
0.0
 10
4.3691610227803
 20
3.530313164830398
 10
4.250860863964255
 20
3.530313164830398
 10
4.250860863964255
 20
3.503145668069502
 42
-1.960274751411753
  0
LINE
  5
7DE1B343D9E1C4C
330
7DE1B343D9E1C9C
100
AcDbEntity
  8
TEXT
100
AcDbLine
 10
4.215079173251094
 20
3.530313164830395
 30
0.0
 11
4.081061117319958
 21
3.530313164830395
 31
0.0
  0
LWPOLYLINE
  5
7DE1B343D9E1C4D
330
7DE1B343D9E1C9C
100
AcDbEntity
  8
TEXT
100
AcDbPolyline
 90
        2
 70
     0
 43
0.0
 10
4.215079173251094
 20
3.530313164830398
 42
-0.3328679258950098
 10
4.250860863964255
 20
3.503145668069502
 42
6.772930709997214
  0
LINE
  5
7DE1B343D9E1C51
330
7DE1B343D9E1C9C
100
AcDbEntity
  8
TEXT
100
AcDbLine
 10
4.404942713493467
 20
3.530313164830395
 30
0.0
 11
4.404942713493467
 21
3.501990619060751
 31
0.0
  0
LWPOLYLINE
  5
7DE1B343D9E1C52
330
7DE1B343D9E1C9C
100
AcDbEntity
  8
TEXT
100
AcDbPolyline
 90
        2
 70
     0
 43
0.0
 10
4.3691610227803
 20
3.530313164830398
 42
-0.3277054968067132
 10
4.404942713493465
 20
3.501990619060754
 42
6.667889725900311
  0
LINE
  5
7DE1B343D9E1C56
330
7DE1B343D9E1C9C
100
AcDbEntity
  8
TEXT
100
AcDbLine
 10
4.618734561585567
 20
3.425101186276967
 30
0.0
 11
4.574983790403665
 21
3.507351462273113
 31
0.0
  0
LINE
  5
7DE1B343D9E1C57
330
7DE1B343D9E1C9C
100
AcDbEntity
  8
TEXT
100
AcDbLine
 10
4.618734561585567
 20
3.530313164830395
 30
0.0
 11
4.618734561585567
 21
3.425101186276967
 31
0.0
  0
LINE
  5
7DE1B343D9E1C58
330
7DE1B343D9E1C9C
100
AcDbEntity
  8
TEXT
100
AcDbLine
 10
4.846418300523936
 20
3.454447838418857
 30
0.0
 11
4.846418300523936
 21
3.595777370597995
 31
0.0
  0
LINE
  5
7DE1B343D9E1C59
330
7DE1B343D9E1C9C
100
AcDbEntity
  8
TEXT
100
AcDbLine
 10
4.89351645907992
 20
3.530313164830395
 30
0.0
 11
4.846418300523936
 21
3.454447838418857
 31
0.0
  0
LINE
  5
7DE1B343D9E1C5A
330
7DE1B343D9E1C9C
100
AcDbEntity
  8
TEXT
100
AcDbLine
 10
4.903951175843843
 20
3.420419921889421
 30
0.0
 11
4.968508291809548
 21
3.530313164830395
 31
0.0
  0
LINE
  5
7DE1B343D9E1C5B
330
7DE1B343D9E1C9C
100
AcDbEntity
  8
TEXT
100
AcDbLine
 10
4.782583309301163
 20
3.263840131841884
 30
0.0
 11
4.846961493619783
 21
3.263840131841884
 31
0.0
  0
LWPOLYLINE
  5
7DE1B343D9E1C5C
330
7DE1B343D9E1C9C
100
AcDbEntity
  8
TEXT
100
AcDbPolyline
 90
        2
 70
     0
 43
0.0
 10
4.622674238890605
 20
3.307331076792322
 42
-0.2901071551932486
 10
4.57959830602296
 20
3.263840131841884
 42
-5.328517124445184
  0
ARC
  5
7DE1B343D9E1C60
330
7DE1B343D9E1C9C
100
AcDbEntity
  8
TEXT
100
AcDbCircle
 10
4.510743724366045
 20
3.437677095173632
 30
0.0
 40
0.028359375
100
AcDbArc
 50
25.78218179591245
 51
90.0
  0
LINE
  5
7DE1B343D9E1C61
330
7DE1B343D9E1C9C
100
AcDbEntity
  8
TEXT
100
AcDbLine
 10
4.546544799670169
 20
3.428761496711497
 30
0.0
 11
4.536280039256604
 21
3.450012036284191
 31
0.0
  0
LINE
  5
7DE1B343D9E1C62
330
7DE1B343D9E1C9C
100
AcDbEntity
  8
TEXT
100
AcDbLine
 10
4.464256809886785
 20
3.428761496711497
 30
0.0
 11
4.546544799670169
 21
3.428761496711497
 31
0.0
  0
LWPOLYLINE
  5
7DE1B343D9E1C63
330
7DE1B343D9E1C9C
100
AcDbEntity
  8
TEXT
100
AcDbPolyline
 90
        4
 70
     1
 43
0.0
 10
4.559475840953068
 20
3.366804109825909
 10
4.470815522293209
 20
3.366804109825909
 42
0.9999999999999998
 10
4.470815522293209
 20
3.324405569322048
 10
4.559475840953068
 20
3.324405569322048
 42
1.0
  0
LWPOLYLINE
  5
7DE1B343D9E1C69
330
7DE1B343D9E1C9C
100
AcDbEntity
  8
TEXT
100
AcDbPolyline
 90
        2
 70
     0
 43
0.0
 10
4.445580888391583
 20
3.263840131841884
 10
4.57959830602296
 20
3.263840131841884
 42
0.9999999999999998
  0
LINE
  5
7DE1B343D9E1C6D
330
7DE1B343D9E1C9C
100
AcDbEntity
  8
TEXT
100
AcDbLine
 10
4.7059353280086
 20
3.466036470173629
 30
0.0
 11
4.782583309301157
 21
3.466036470173629
 31
0.0
  0
LINE
  5
7DE1B343D9E1C6E
330
7DE1B343D9E1C9C
100
AcDbEntity
  8
TEXT
100
AcDbLine
 10
4.782583309301157
 20
3.466036470173629
 30
0.0
 11
4.782583309301163
 21
3.263840131841884
 31
0.0
  0
ARC
  5
7DE1B343D9E1C6F
330
7DE1B343D9E1C9C
100
AcDbEntity
  8
TEXT
100
AcDbCircle
 10
4.705935328008598
 20
3.441130594890966
 30
0.0
 40
0.0249058752826653
100
AcDbArc
 50
89.99971217465335
 51
179.9999999999985
  0
LINE
  5
7DE1B343D9E1C70
330
7DE1B343D9E1C9C
100
AcDbEntity
  8
TEXT
100
AcDbLine
 10
4.68102945272594
 20
3.263840131841884
 30
0.0
 11
4.681029452725935
 21
3.441130637273352
 31
0.0
  0
LWPOLYLINE
  5
7DE1B343D9E1C71
330
7DE1B343D9E1C9C
100
AcDbEntity
  8
TEXT
100
AcDbPolyline
 90
        2
 70
     0
 43
0.0
 10
4.622674238890605
 20
3.263840131841884
 10
4.681029452725939
 20
3.263840131841884
  0
LWPOLYLINE
  5
7DE1B343D9E1C75
330
7DE1B343D9E1C9C
100
AcDbEntity
  8
TEXT
100
AcDbPolyline
 90
        2
 70
     0
 43
0.0
 10
4.622674238890605
 20
3.307331076792322
 10
4.622674238890605
 20
3.263840131841884
  0
LINE
  5
7DE1B343D9E1C79
330
7DE1B343D9E1C9C
100
AcDbEntity
  8
TEXT
100
AcDbLine
 10
4.999443399207454
 20
3.263840131841884
 30
0.0
 11
4.903951175843843
 21
3.420419921889421
 31
0.0
  0
LINE
  5
7DE1B343D9E1C7A
330
7DE1B343D9E1C9C
100
AcDbEntity
  8
TEXT
100
AcDbLine
 10
4.922865026831248
 20
3.263840131841884
 30
0.0
 11
4.999443399207454
 21
3.263840131841884
 31
0.0
  0
LINE
  5
7DE1B343D9E1C7B
330
7DE1B343D9E1C9C
100
AcDbEntity
  8
TEXT
100
AcDbLine
 10
4.846961493619783
 20
3.395419700318064
 30
0.0
 11
4.922865026831248
 21
3.263840131841884
 31
0.0
  0
LINE
  5
7DE1B343D9E1C7C
330
7DE1B343D9E1C9C
100
AcDbEntity
  8
TEXT
100
AcDbLine
 10
4.846961493619783
 20
3.263840131841884
 30
0.0
 11
4.846961493619783
 21
3.395419700318064
 31
0.0
  0
LINE
  5
7DE1B343D9E1C7D
330
7DE1B343D9E1C9C
100
AcDbEntity
  8
TEXT
100
AcDbLine
 10
4.846418300523936
 20
3.595777370597995
 30
0.0
 11
4.778103421974662
 21
3.595777370597995
 31
0.0
  0
ARC
  5
7DE1B343D9E1C7E
330
7DE1B343D9E1C9C
100
AcDbEntity
  8
TEXT
100
AcDbCircle
 10
4.537747682933456
 20
3.488729597709492
 30
0.0
 40
0.0416329381542859
100
AcDbArc
 50
26.56974201007528
 51
87.20939649401342
  0
LINE
  5
7DE1B343D9E1C7F
330
7DE1B343D9E1C9C
100
AcDbEntity
  8
TEXT
100
AcDbLine
 10
4.682631467885068
 20
3.530313164830395
 30
0.0
 11
4.618734561585567
 21
3.530313164830395
 31
0.0
  0
LINE
  5
7DE1B343D9E1C80
330
7DE1B343D9E1C9C
100
AcDbEntity
  8
TEXT
100
AcDbLine
 10
4.682631467885068
 20
3.50276551496952
 30
0.0
 11
4.682631467885068
 21
3.530313164830395
 31
0.0
  0
ARC
  5
7DE1B343D9E1C81
330
7DE1B343D9E1C9C
100
AcDbEntity
  8
TEXT
100
AcDbCircle
 10
4.713824284948175
 20
3.49906743754813
 30
0.0
 40
0.0314112657011332
100
AcDbArc
 50
95.88484768694724
 51
173.2388340632136
  0
LINE
  5
7DE1B343D9E1C82
330
7DE1B343D9E1C9C
100
AcDbEntity
  8
TEXT
100
AcDbLine
 10
4.778103421974657
 20
3.530313164830395
 30
0.0
 11
4.710603704325141
 21
3.530313164830395
 31
0.0
  0
LINE
  5
7DE1B343D9E1C83
330
7DE1B343D9E1C9C
100
AcDbEntity
  8
TEXT
100
AcDbLine
 10
4.778103421974662
 20
3.595777370597995
 30
0.0
 11
4.778103421974657
 21
3.530313164830395
 31
0.0
  0
LINE
  5
7DE1B343D9E1C84
330
7DE1B343D9E1C9C
100
AcDbEntity
  8
TEXT
100
AcDbLine
 10
4.968508291809548
 20
3.530313164830395
 30
0.0
 11
4.893516459079922
 21
3.530313164830395
 31
0.0
  0
INSERT
  5
7DE1B343D9E1CB8
330
7DE1B343D9E1C9C
100
AcDbEntity
  8
ASHADE
 62
     1
100
AcDbBlockReference
  2
AVE_RENDER
 10
0.0
 20
0.0
 30
0.0
1001
AVE_RENDER
1002
{
1070
     6
1000
Pref
1070
    30
1070
    20
1070
     1
1070
     0
1000

1070
    10
1070
     1
1070
    30
1040
1.0
1070
     1
1040
0.3
1040
0.7
1040
0.0
1040
10.0
1010
-1.0
1020
-1.0
1030
-1.0
1040
0.3
1070
    49
1070
     0
1070
     0
1010
1.0
1020
1.0
1030
1.0
1040
45.0
1070
     1
1070
     0
1000
WCS
1040
0.0
1002
}
  0
INSERT
  5
7DE1B343D9E1CB9
330
7DE1B343D9E1C9C
100
AcDbEntity
  8
ASHADE
 62
     3
100
AcDbBlockReference
  2
AVE_RENDER
 10
0.0
 20
0.0
 30
0.0
1001
AVE_RENDER
1002
{
1070
     0
1000
Full Opt
1070
     0
1070
     1
1070
     1
1070
     1
1070
     0
1070
     0
1070
     0
1070
     1
1070
     1
1040
0.0001
1040
0.0001
1002
}
  0
INSERT
  5
7DE1B343D9E1CBA
330
7DE1B343D9E1C9C
100
AcDbEntity
  8
ASHADE
 62
     4
100
AcDbBlockReference
  2
AVE_RENDER
 10
0.0
 20
0.0
 30
0.0
1001
AVE_RENDER
1002
{
1070
     0
1000
Quick Opt
1070
     0
1070
     1
1070
     1
1070
     1
1070
     0
1070
     0
1070
     1
1002
}
  0
INSERT
  5
7DE1B343D9E1CBB
330
7DE1B343D9E1C9C
100
AcDbEntity
  8
ASHADE
 62
     5
100
AcDbBlockReference
  2
AVE_RENDER
 10
0.0
 20
0.0
 30
0.0
1001
AVE_RENDER
1002
{
1070
     1
1000
Scanl Opt
1070
     2
1070
     0
1070
     2
1040
2.0
1040
4.0
1070
     0
1070
     1
1070
     0
1040
0.03
1002
}
  0
INSERT
  5
7DE1B343D9E1CBC
330
7DE1B343D9E1C9C
100
AcDbEntity
  8
ASHADE
 62
     6
100
AcDbBlockReference
  2
AVE_RENDER
 10
0.0
 20
0.0
 30
0.0
1001
AVE_RENDER
1002
{
1070
     2
1000
Raytr Opt
1070
     2
1070
     0
1070
     2
1040
2.0
1040
4.0
1070
     0
1070
     1
1070
     1
1040
0.03
1070
     3
1040
0.03
1002
}
  0
INSERT
  5
7DE1B343D9E1CBD
330
7DE1B343D9E1C9C
100
AcDbEntity
  8
ASHADE
 62
     7
100
AcDbBlockReference
  2
AVE_RENDER
 10
0.0
 20
0.0
 30
0.0
1001
AVE_RENDER
1002
{
1070
     0
1000
RFile Opt
1070
     5
1070
   640
1070
   480
1070
 10000
1070
     3
1070
    32
1070
    24
1070
     0
1070
     0
1070
     0
1070
     1
1070
     0
1070
     0
1070
     0
1002
}
  0
INSERT
  5
7DE1B343D9E1CBE
330
7DE1B343D9E1C9C
100
AcDbEntity
  8
ASHADE
 62
     8
100
AcDbBlockReference
  2
AVE_RENDER
 10
0.0
 20
0.0
 30
0.0
1001
AVE_RENDER
1002
{
1070
     0
1000
Fog Opt
1070
     0
1070
     0
1040
0.0
1040
1.0
1040
0.0
1040
1.0
1010
0.5
1020
0.5
1030
0.5
1002
}
  0
INSERT
  5
7DE1B343D9E1CBF
330
7DE1B343D9E1C9C
100
AcDbEntity
  8
ASHADE
 62
     9
100
AcDbBlockReference
  2
AVE_RENDER
 10
0.0
 20
0.0
 30
0.0
1001
AVE_RENDER
1002
{
1070
     0
1000
BG Opt
1070
     0
1070
     1
1010
0.0
1020
0.0
1030
0.0
1010
1.0
1020
0.0
1030
0.0
1010
0.0
1020
1.0
1030
0.0
1010
0.0
1020
0.0
1030
1.0
1040
0.5
1040
0.33
1040
0.0
1000

1070
     1
1000

1070
     1
1070
     1
1040
1.0
1040
1.0
1040
0.0
1040
0.0
1070
     0
1002
}
  0
INSERT
  5
7DE1B343D9E1CC6
330
7DE1B343D9E1C9C
100
AcDbEntity
  8
ASHADE
 62
     1
100
AcDbBlockReference
  2
AVE_GLOBAL
 10
0.0
 20
0.0
 30
0.0
1001
AVE_MATERIAL
1002
{
1000
*GLOBAL*
1000
1
1000
Global finish.
1002
{
1002
}
1002
{
1070
    63
1002
{
1002
{
1010
-1.0
1020
-1.0
1030
-1.0
1002
}
1040
0.1000000014901161
1000

1040
0.0
1002
{
1002
}
1040
0.0
1002
{
1002
}
1040
0.0
1002
}
1002
{
1002
{
1010
-1.0
1020
-1.0
1030
-1.0
1002
}
1040
0.6999999880790711
1000

1040
0.0
1002
{
1002
}
1040
0.0
1002
{
1002
}
1040
0.0
1002
}
1002
{
1002
{
1010
-1.0
1020
-1.0
1030
-1.0
1002
}
1040
0.2000000029802322
1000

1040
0.0
1002
{
1002
}
1040
0.0
1002
{
1002
}
1040
0.0
1002
}
1002
{
1070
     0
1002
{
1070
     1
1002
{
1040
1.0
1040
1.0
1000

1040
0.0
1002
{
1002
}
1040
0.0
1002
{
1002
}
1040
0.0
1002
}
1002
}
1040
1.0
1040
0.0
1040
0.0
1002
}
1002
{
1040
1.0
1040
1.0
1000

1040
0.0
1002
{
1002
}
1040
0.0
1002
{
1002
}
1040
0.0
1002
}
1002
{
1040
0.5
1040
1.0
1000

1040
0.0
1002
{
1002
}
1040
0.0
1002
{
1002
}
1040
0.0
1002
}
1002
{
1070
     0
1040
0.0
1002
{
1002
}
1040
1.0
1002
{
1002
}
1040
0.0
1002
}
1002
{
1040
0.0
1002
{
1002
{
1010
0.0
1020
0.0
1030
0.0
1002
}
1040
1.0
1000

1040
0.0
1002
{
1002
}
1040
0.0
1002
{
1002
}
1040
0.0
1002
}
1002
}
1002
{
1002
{
1070
     1
1002
{
1040
0.0
1040
1.0
1000

1040
0.0
1002
{
1002
}
1040
0.0
1002
{
1002
}
1040
0.0
1002
}
1002
}
1040
0.0
1002
{
1002
}
1010
1.0
1020
0.0
1030
0.0
1010
0.0
1020
1.0
1030
0.0
1010
0.0
1020
0.0
1030
1.0
1070
     0
1002
}
1002
{
1002
{
1040
1.0
1040
1.0
1002
{
1070
     1
1002
{
1040
1.0
1040
1.0
1000

1040
0.0
1002
{
1002
}
1040
0.0
1002
{
1002
}
1040
0.0
1002
}
1002
}
1002
}
1070
     0
1040
0.0
1002
{
1002
}
1002
}
1002
{
1002
}
1002
}
1002
{
1071
        3
1070
     3
1070
     0
1002
{
1070
     2
1070
     0
1070
     0
1040
0.0
1002
}
1070
     0
1070
     2
1002
{
1002
}
1002
}
1002
{
1040
8030.0
1040
190.3000030517578
1040
0.3050000071525574
1040
228.0
1040
545.0
1040
14.0
1040
17.39999961853027
1040
0.4560000002384186
1002
}
1002
}
  0
ENDSEC
  0
SECTION
  2
OBJECTS
  0
DICTIONARY
  5
7DE1B343D9E1C90
330
0
100
AcDbDictionary
  3
ACAD_GROUP
350
7DE1B343D9E1C91
  3
ACAD_LAYOUT
350
7DE1B343D9E1CD2
  3
ACAD_MLINESTYLE
350
7DE1B343D9E1C92
  3
ACAD_PLOTSETTINGS
350
7DE1B343D9E1CD3
  3
ACAD_PLOTSTYLENAME
350
7DE1B343D9E1CD0
  3
ACDBHEADERROUNDTRIPXREC
350
7DE1B343D9E1CDD
  3
ACDBVARIABLEDICTIONARY
350
7DE1B343D9E1CDA
  0
DICTIONARY
  5
7DE1B343D9E1CFF
330
7DE1B343D9E1C9C
100
AcDbDictionary
280
     1
  3
ACAD_LAYOUTSELFREF
360
7DE1B343D9E1D00
  0
DICTIONARY
  5
7DE1B343D9E1CFD
330
7DE1B343D9E1C99
100
AcDbDictionary
280
     1
  3
ACAD_LAYOUTSELFREF
360
7DE1B343D9E1CFE
  0
DICTIONARY
  5
7DE1B343D9E1C91
102
{ACAD_REACTORS
330
7DE1B343D9E1C90
102
}
330
7DE1B343D9E1C90
100
AcDbDictionary
  0
DICTIONARY
  5
7DE1B343D9E1CD2
102
{ACAD_REACTORS
330
7DE1B343D9E1C90
102
}
330
7DE1B343D9E1C90
100
AcDbDictionary
  0
DICTIONARY
  5
7DE1B343D9E1C92
102
{ACAD_REACTORS
330
7DE1B343D9E1C90
102
}
330
7DE1B343D9E1C90
100
AcDbDictionary
  3
STANDARD
350
7DE1B343D9E1C9F
  0
DICTIONARY
  5
7DE1B343D9E1CD3
102
{ACAD_REACTORS
330
7DE1B343D9E1C90
102
}
330
7DE1B343D9E1C90
100
AcDbDictionary
  0
ACDBDICTIONARYWDFLT
  5
7DE1B343D9E1CD0
102
{ACAD_REACTORS
330
7DE1B343D9E1C90
102
}
330
7DE1B343D9E1C90
100
AcDbDictionary
281
     1
  3
Normal
350
7DE1B343D9E1CD1
100
AcDbDictionaryWithDefault
340
7DE1B343D9E1CD1
  0
DICTIONARY
  5
7DE1B343D9E1CDD
102
{ACAD_REACTORS
330
7DE1B343D9E1C90
102
}
330
7DE1B343D9E1C90
100
AcDbDictionary
  3
CEPSNTYPE
350
7DE1B343D9E1CE7
  3
FINGERPRINTGUID
350
7DE1B343D9E1CE8
  3
HYPERLINKBASE
350
7DE1B343D9E1CE0
  3
INSUNITS
350
7DE1B343D9E1CE6
  3
LAYOUTDICT
350
7DE1B343D9E1CE2
  3
LWETCUNION
350
7DE1B343D9E1CE5
  3
PLOTSETDICT
350
7DE1B343D9E1CE3
  3
PLOTSTYLNAMDICT
350
7DE1B343D9E1CE4
  3
PSVPSCALE
350
7DE1B343D9E1CEA
  3
PUCSBASE
350
7DE1B343D9E1CED
  3
PUCSORGBACK
350
7DE1B343D9E1CF3
  3
PUCSORGBOTTOM
350
7DE1B343D9E1CEF
  3
PUCSORGFRONT
350
7DE1B343D9E1CF2
  3
PUCSORGLEFT
350
7DE1B343D9E1CF0
  3
PUCSORGRIGHT
350
7DE1B343D9E1CF1
  3
PUCSORGTOP
350
7DE1B343D9E1CEE
  3
PUCSORTHOREF
350
7DE1B343D9E1CEB
  3
PUCSORTHOVIEW
350
7DE1B343D9E1CEC
  3
STYLESHEET
350
7DE1B343D9E1CE1
  3
TSTACKALIGN
350
7DE1B343D9E1CDE
  3
TSTACKSIZE
350
7DE1B343D9E1CDF
  3
UCSBASE
350
7DE1B343D9E1CF6
  3
UCSORGBACK
350
7DE1B343D9E1CFC
  3
UCSORGBOTTOM
350
7DE1B343D9E1CF8
  3
UCSORGFRONT
350
7DE1B343D9E1CFB
  3
UCSORGLEFT
350
7DE1B343D9E1CF9
  3
UCSORGRIGHT
350
7DE1B343D9E1CFA
  3
UCSORGTOP
350
7DE1B343D9E1CF7
  3
UCSORTHOREF
350
7DE1B343D9E1CF4
  3
UCSORTHOVIEW
350
7DE1B343D9E1CF5
  3
VERSIONGUID
350
7DE1B343D9E1CE9
  0
DICTIONARY
  5
7DE1B343D9E1CDA
102
{ACAD_REACTORS
330
7DE1B343D9E1C90
102
}
330
7DE1B343D9E1C90
100
AcDbDictionary
  3
DIMASSOC
350
7DE1B343D9E1CDB
  0
XRECORD
  5
7DE1B343D9E1D00
102
{ACAD_REACTORS
330
7DE1B343D9E1CFF
102
}
330
7DE1B343D9E1CFF
100
AcDbXrecord
340
7DE1B343D9E1C9C
  0
XRECORD
  5
7DE1B343D9E1CFE
102
{ACAD_REACTORS
330
7DE1B343D9E1CFD
102
}
330
7DE1B343D9E1CFD
100
AcDbXrecord
340
7DE1B343D9E1C99
  0
MLINESTYLE
  5
7DE1B343D9E1C9F
102
{ACAD_REACTORS
330
7DE1B343D9E1C92
102
}
330
7DE1B343D9E1C92
100
AcDbMlineStyle
  2
STANDARD
 70
     0
  3

 62
     0
 51
90.0
 52
90.0
 71
     2
 49
0.5
 62
   256
  6
BYLAYER
 49
-0.5
 62
   256
  6
BYLAYER
  0
ACDBPLACEHOLDER
  5
7DE1B343D9E1CD1
102
{ACAD_REACTORS
330
7DE1B343D9E1CD0
102
}
330
7DE1B343D9E1CD0
100
AcDbPlaceHolder
280
     0
  0
XRECORD
  5
7DE1B343D9E1CE7
102
{ACAD_REACTORS
330
7DE1B343D9E1CDD
102
}
330
7DE1B343D9E1CDD
100
AcDbXrecord
 90
        0
  0
XRECORD
  5
7DE1B343D9E1CE8
102
{ACAD_REACTORS
330
7DE1B343D9E1CDD
102
}
330
7DE1B343D9E1CDD
100
AcDbXrecord
  1
{FEA7B4B0-8DB6-11D6-88E6-0090279574E7}
  0
XRECORD
  5
7DE1B343D9E1CE0
102
{ACAD_REACTORS
330
7DE1B343D9E1CDD
102
}
330
7DE1B343D9E1CDD
100
AcDbXrecord
  1

  0
XRECORD
  5
7DE1B343D9E1CE6
102
{ACAD_REACTORS
330
7DE1B343D9E1CDD
102
}
330
7DE1B343D9E1CDD
100
AcDbXrecord
 90
        0
  0
XRECORD
  5
7DE1B343D9E1CE2
102
{ACAD_REACTORS
330
7DE1B343D9E1CDD
102
}
330
7DE1B343D9E1CDD
100
AcDbXrecord
340
7DE1B343D9E1CD2
  0
XRECORD
  5
7DE1B343D9E1CE5
102
{ACAD_REACTORS
330
7DE1B343D9E1CDD
102
}
330
7DE1B343D9E1CDD
100
AcDbXrecord
 90
    14877
  0
XRECORD
  5
7DE1B343D9E1CE3
102
{ACAD_REACTORS
330
7DE1B343D9E1CDD
102
}
330
7DE1B343D9E1CDD
100
AcDbXrecord
340
7DE1B343D9E1CD3
  0
XRECORD
  5
7DE1B343D9E1CE4
102
{ACAD_REACTORS
330
7DE1B343D9E1CDD
102
}
330
7DE1B343D9E1CDD
100
AcDbXrecord
340
7DE1B343D9E1CD0
  0
XRECORD
  5
7DE1B343D9E1CEA
102
{ACAD_REACTORS
330
7DE1B343D9E1CDD
102
}
330
7DE1B343D9E1CDD
100
AcDbXrecord
 40
0.0
  0
XRECORD
  5
7DE1B343D9E1CED
102
{ACAD_REACTORS
330
7DE1B343D9E1CDD
102
}
330
7DE1B343D9E1CDD
100
AcDbXrecord
340
0
  0
XRECORD
  5
7DE1B343D9E1CF3
102
{ACAD_REACTORS
330
7DE1B343D9E1CDD
102
}
330
7DE1B343D9E1CDD
100
AcDbXrecord
 10
0.0
 20
0.0
 30
0.0
  0
XRECORD
  5
7DE1B343D9E1CEF
102
{ACAD_REACTORS
330
7DE1B343D9E1CDD
102
}
330
7DE1B343D9E1CDD
100
AcDbXrecord
 10
0.0
 20
0.0
 30
0.0
  0
XRECORD
  5
7DE1B343D9E1CF2
102
{ACAD_REACTORS
330
7DE1B343D9E1CDD
102
}
330
7DE1B343D9E1CDD
100
AcDbXrecord
 10
0.0
 20
0.0
 30
0.0
  0
XRECORD
  5
7DE1B343D9E1CF0
102
{ACAD_REACTORS
330
7DE1B343D9E1CDD
102
}
330
7DE1B343D9E1CDD
100
AcDbXrecord
 10
0.0
 20
0.0
 30
0.0
  0
XRECORD
  5
7DE1B343D9E1CF1
102
{ACAD_REACTORS
330
7DE1B343D9E1CDD
102
}
330
7DE1B343D9E1CDD
100
AcDbXrecord
 10
0.0
 20
0.0
 30
0.0
  0
XRECORD
  5
7DE1B343D9E1CEE
102
{ACAD_REACTORS
330
7DE1B343D9E1CDD
102
}
330
7DE1B343D9E1CDD
100
AcDbXrecord
 10
0.0
 20
0.0
 30
0.0
  0
XRECORD
  5
7DE1B343D9E1CEB
102
{ACAD_REACTORS
330
7DE1B343D9E1CDD
102
}
330
7DE1B343D9E1CDD
100
AcDbXrecord
340
0
  0
XRECORD
  5
7DE1B343D9E1CEC
102
{ACAD_REACTORS
330
7DE1B343D9E1CDD
102
}
330
7DE1B343D9E1CDD
100
AcDbXrecord
 70
     0
  0
XRECORD
  5
7DE1B343D9E1CE1
102
{ACAD_REACTORS
330
7DE1B343D9E1CDD
102
}
330
7DE1B343D9E1CDD
100
AcDbXrecord
  1

  0
XRECORD
  5
7DE1B343D9E1CDE
102
{ACAD_REACTORS
330
7DE1B343D9E1CDD
102
}
330
7DE1B343D9E1CDD
100
AcDbXrecord
 90
        1
  0
XRECORD
  5
7DE1B343D9E1CDF
102
{ACAD_REACTORS
330
7DE1B343D9E1CDD
102
}
330
7DE1B343D9E1CDD
100
AcDbXrecord
 90
       70
  0
XRECORD
  5
7DE1B343D9E1CF6
102
{ACAD_REACTORS
330
7DE1B343D9E1CDD
102
}
330
7DE1B343D9E1CDD
100
AcDbXrecord
340
0
  0
XRECORD
  5
7DE1B343D9E1CFC
102
{ACAD_REACTORS
330
7DE1B343D9E1CDD
102
}
330
7DE1B343D9E1CDD
100
AcDbXrecord
 10
0.0
 20
0.0
 30
0.0
  0
XRECORD
  5
7DE1B343D9E1CF8
102
{ACAD_REACTORS
330
7DE1B343D9E1CDD
102
}
330
7DE1B343D9E1CDD
100
AcDbXrecord
 10
0.0
 20
0.0
 30
0.0
  0
XRECORD
  5
7DE1B343D9E1CFB
102
{ACAD_REACTORS
330
7DE1B343D9E1CDD
102
}
330
7DE1B343D9E1CDD
100
AcDbXrecord
 10
0.0
 20
0.0
 30
0.0
  0
XRECORD
  5
7DE1B343D9E1CF9
102
{ACAD_REACTORS
330
7DE1B343D9E1CDD
102
}
330
7DE1B343D9E1CDD
100
AcDbXrecord
 10
0.0
 20
0.0
 30
0.0
  0
XRECORD
  5
7DE1B343D9E1CFA
102
{ACAD_REACTORS
330
7DE1B343D9E1CDD
102
}
330
7DE1B343D9E1CDD
100
AcDbXrecord
 10
0.0
 20
0.0
 30
0.0
  0
XRECORD
  5
7DE1B343D9E1CF7
102
{ACAD_REACTORS
330
7DE1B343D9E1CDD
102
}
330
7DE1B343D9E1CDD
100
AcDbXrecord
 10
0.0
 20
0.0
 30
0.0
  0
XRECORD
  5
7DE1B343D9E1CF4
102
{ACAD_REACTORS
330
7DE1B343D9E1CDD
102
}
330
7DE1B343D9E1CDD
100
AcDbXrecord
340
0
  0
XRECORD
  5
7DE1B343D9E1CF5
102
{ACAD_REACTORS
330
7DE1B343D9E1CDD
102
}
330
7DE1B343D9E1CDD
100
AcDbXrecord
 70
     0
  0
XRECORD
  5
7DE1B343D9E1CE9
102
{ACAD_REACTORS
330
7DE1B343D9E1CDD
102
}
330
7DE1B343D9E1CDD
100
AcDbXrecord
  1
{FEA7B4B2-8DB6-11D6-88E6-0090279574E7}
  0
DICTIONARYVAR
  5
7DE1B343D9E1CDB
102
{ACAD_REACTORS
330
7DE1B343D9E1CDA
102
}
330
7DE1B343D9E1CDA
100
DictionaryVariables
280
     0
  1
1
  0
ENDSEC
  0
EOF
