  0
SECTION
  2
HEADER
  9
$ACADVER
  1
AC1014
  9
$ACADMAINTVER
 70
     9
  9
$DWGCODEPAGE
  3
ANSI_1252
  9
$INSBASE
 10
0.0
 20
0.0
 30
0.0
  9
$EXTMIN
 10
12.48651875250814
 20
4.729923105493189
 30
0.0
  9
$EXTMAX
 10
15.97173807425529
 20
7.48331799515455
 30
0.0
  9
$LIMMIN
 10
0.0
 20
0.0
  9
$LIMMAX
 10
8.5
 20
11.0
  9
$ORTHOMODE
 70
     0
  9
$REGENMODE
 70
     1
  9
$FILLMODE
 70
     1
  9
$QTEXTMODE
 70
     0
  9
$MIRRTEXT
 70
     0
  9
$DRAGMODE
 70
     2
  9
$LTSCALE
 40
1.0
  9
$OSMODE
 70
    39
  9
$ATTMODE
 70
     1
  9
$TEXTSIZE
 40
0.125
  9
$TRACEWID
 40
0.05
  9
$TEXTSTYLE
  7
ROMANS
  9
$CLAYER
  8
TEXT
  9
$CELTYPE
  6
BYLAYER
  9
$CECOLOR
 62
   256
  9
$CELTSCALE
 40
1.0
  9
$DELOBJ
 70
     1
  9
$DISPSILH
 70
     1
  9
$DIMSCALE
 40
1.0
  9
$DIMASZ
 40
0.125
  9
$DIMEXO
 40
0.125
  9
$DIMDLI
 40
0.375
  9
$DIMRND
 40
0.0
  9
$DIMDLE
 40
0.0
  9
$DIMEXE
 40
0.125
  9
$DIMTP
 40
0.0
  9
$DIMTM
 40
0.0
  9
$DIMTXT
 40
0.125
  9
$DIMCEN
 40
-0.125
  9
$DIMTSZ
 40
0.0
  9
$DIMTOL
 70
     0
  9
$DIMLIM
 70
     0
  9
$DIMTIH
 70
     1
  9
$DIMTOH
 70
     1
  9
$DIMSE1
 70
     0
  9
$DIMSE2
 70
     0
  9
$DIMTAD
 70
     0
  9
$DIMZIN
 70
     4
  9
$DIMBLK
  1

  9
$DIMASO
 70
     1
  9
$DIMSHO
 70
     1
  9
$DIMPOST
  1

  9
$DIMAPOST
  1

  9
$DIMALT
 70
     0
  9
$DIMALTD
 70
     2
  9
$DIMALTF
 40
25.4
  9
$DIMLFAC
 40
1.0
  9
$DIMTOFL
 70
     0
  9
$DIMTVP
 40
0.0
  9
$DIMTIX
 70
     0
  9
$DIMSOXD
 70
     0
  9
$DIMSAH
 70
     0
  9
$DIMBLK1
  1

  9
$DIMBLK2
  1

  9
$DIMSTYLE
  2
STANDARD
  9
$DIMCLRD
 70
     0
  9
$DIMCLRE
 70
     0
  9
$DIMCLRT
 70
     0
  9
$DIMTFAC
 40
1.0
  9
$DIMGAP
 40
0.09
  9
$DIMJUST
 70
     0
  9
$DIMSD1
 70
     0
  9
$DIMSD2
 70
     0
  9
$DIMTOLJ
 70
     1
  9
$DIMTZIN
 70
     4
  9
$DIMALTZ
 70
     0
  9
$DIMALTTZ
 70
     0
  9
$DIMFIT
 70
     3
  9
$DIMUPT
 70
     0
  9
$DIMUNIT
 70
     2
  9
$DIMDEC
 70
     3
  9
$DIMTDEC
 70
     3
  9
$DIMALTU
 70
     2
  9
$DIMALTTD
 70
     2
  9
$DIMTXSTY
  7
ROMANS
  9
$DIMAUNIT
 70
     0
  9
$LUNITS
 70
     2
  9
$LUPREC
 70
     4
  9
$SKETCHINC
 40
0.1
  9
$FILLETRAD
 40
0.02
  9
$AUNITS
 70
     0
  9
$AUPREC
 70
     0
  9
$MENU
  1
AUTOMSTR
  9
$ELEVATION
 40
0.0
  9
$PELEVATION
 40
0.0
  9
$THICKNESS
 40
0.0
  9
$LIMCHECK
 70
     0
  9
$BLIPMODE
 70
     0
  9
$CHAMFERA
 40
0.0
  9
$CHAMFERB
 40
0.0
  9
$CHAMFERC
 40
0.0
  9
$CHAMFERD
 40
0.0
  9
$SKPOLY
 70
     0
  9
$TDCREATE
 40
2448236.643640856
  9
$TDUPDATE
 40
2452458.310303113
  9
$TDINDWG
 40
0.1693871412
  9
$TDUSRTIMER
 40
0.1693871412
  9
$USRTIMER
 70
     1
  9
$ANGBASE
 50
0.0
  9
$ANGDIR
 70
     0
  9
$PDMODE
 70
     0
  9
$PDSIZE
 40
0.0
  9
$PLINEWID
 40
0.0
  9
$COORDS
 70
     2
  9
$SPLFRAME
 70
     0
  9
$SPLINETYPE
 70
     6
  9
$SPLINESEGS
 70
     8
  9
$ATTDIA
 70
     0
  9
$ATTREQ
 70
     1
  9
$HANDLING
 70
 22529
  9
$HANDSEED
  5
7A5
  9
$SURFTAB1
 70
     6
  9
$SURFTAB2
 70
     6
  9
$SURFTYPE
 70
     6
  9
$SURFU
 70
     6
  9
$SURFV
 70
     6
  9
$UCSNAME
  2

  9
$UCSORG
 10
0.0
 20
0.0
 30
0.0
  9
$UCSXDIR
 10
1.0
 20
0.0
 30
0.0
  9
$UCSYDIR
 10
0.0
 20
1.0
 30
0.0
  9
$PUCSNAME
  2

  9
$PUCSORG
 10
0.0
 20
0.0
 30
0.0
  9
$PUCSXDIR
 10
1.0
 20
0.0
 30
0.0
  9
$PUCSYDIR
 10
0.0
 20
1.0
 30
0.0
  9
$USERI1
 70
     0
  9
$USERI2
 70
     0
  9
$USERI3
 70
     0
  9
$USERI4
 70
     0
  9
$USERI5
 70
     0
  9
$USERR1
 40
0.0
  9
$USERR2
 40
0.0
  9
$USERR3
 40
0.0
  9
$USERR4
 40
0.0
  9
$USERR5
 40
0.0
  9
$WORLDVIEW
 70
     1
  9
$SHADEDGE
 70
     3
  9
$SHADEDIF
 70
    70
  9
$TILEMODE
 70
     1
  9
$MAXACTVP
 70
    16
  9
$PINSBASE
 10
0.0
 20
0.0
 30
0.0
  9
$PLIMCHECK
 70
     0
  9
$PEXTMIN
 10
1.000000000000000E+20
 20
1.000000000000000E+20
 30
1.000000000000000E+20
  9
$PEXTMAX
 10
-1.000000000000000E+20
 20
-1.000000000000000E+20
 30
-1.000000000000000E+20
  9
$PLIMMIN
 10
0.0
 20
0.0
  9
$PLIMMAX
 10
12.0
 20
9.0
  9
$UNITMODE
 70
     0
  9
$VISRETAIN
 70
     0
  9
$PLINEGEN
 70
     1
  9
$PSLTSCALE
 70
     0
  9
$TREEDEPTH
 70
  3020
  9
$PICKSTYLE
 70
     1
  9
$CMLSTYLE
  2
STANDARD
  9
$CMLJUST
 70
     0
  9
$CMLSCALE
 40
1.0
  9
$PROXYGRAPHICS
 70
     1
  9
$MEASUREMENT
 70
     0
  0
ENDSEC
  0
SECTION
  2
CLASSES
  0
CLASS
  1
LWPOLYLINE
  2
AcDbPolyline
  3
AutoCAD 2000
 90
        0
280
     0
281
     1
  0
CLASS
  1
ACDBDICTIONARYWDFLT
  2
AcDbDictionaryWithDefault
  3
AutoCAD 2000
 90
        0
280
     0
281
     0
  0
CLASS
  1
ACDBPLACEHOLDER
  2
AcDbPlaceHolder
  3
AutoCAD 2000
 90
        0
280
     0
281
     0
  0
CLASS
  1
LAYOUT
  2
AcDbLayout
  3
AutoCAD 2000
 90
        0
280
     0
281
     0
  0
CLASS
  1
DICTIONARYVAR
  2
AcDbDictionaryVar
  3
AutoCAD 2000
 90
        0
280
     0
281
     0
  0
CLASS
  1
LONG_TRANSACTION
  2
AcDbLongTransaction
  3
AutoCAD 2000
 90
        0
280
     0
281
     0
  0
CLASS
  1
LWPOLYLINE
  2
AcDbPolyline
  3
AutoCAD 2000
 90
        0
280
     0
281
     1
  0
CLASS
  1
HATCH
  2
AcDbHatch
  3
AutoCAD 2000
 90
        0
280
     0
281
     1
  0
CLASS
  1
XRECORD
  2
AcDbXrecord
  3
AutoCAD 2000
 90
        0
280
     0
281
     0
  0
ENDSEC
  0
SECTION
  2
TABLES
  0
TABLE
  2
VPORT
  5
8
330
0
100
AcDbSymbolTable
 70
     2
  0
VPORT
  5
780
330
8
100
AcDbSymbolTableRecord
100
AcDbViewportTableRecord
  2
*ACTIVE
 70
     0
 10
0.0
 20
0.0
 11
1.0
 21
1.0
 12
17.9821382468975
 22
6.106765773388055
 13
0.0
 23
0.0
 14
0.015625
 24
0.015625
 15
0.0
 25
0.0
 16
0.0
 26
0.0
 36
1.0
 17
0.0
 27
0.0
 37
0.0
 40
2.778489820166758
 41
4.320930232558139
 42
50.0
 43
0.0
 44
0.0
 50
0.0
 51
0.0
 71
     0
 72
  2000
 73
     1
 74
     1
 75
     0
 76
     0
 77
     0
 78
     0
  0
ENDTAB
  0
TABLE
  2
LTYPE
  5
5
330
0
100
AcDbSymbolTable
 70
     1
  0
LTYPE
  5
12
330
5
100
AcDbSymbolTableRecord
100
AcDbLinetypeTableRecord
  2
BYBLOCK
 70
     0
  3

 72
    65
 73
     0
 40
0.0
  0
LTYPE
  5
13
330
5
100
AcDbSymbolTableRecord
100
AcDbLinetypeTableRecord
  2
BYLAYER
 70
     0
  3

 72
    65
 73
     0
 40
0.0
  0
LTYPE
  5
14
330
5
100
AcDbSymbolTableRecord
100
AcDbLinetypeTableRecord
  2
CONTINUOUS
 70
     0
  3
Solid line
 72
    65
 73
     0
 40
0.0
  0
ENDTAB
  0
TABLE
  2
LAYER
  5
2
330
0
100
AcDbSymbolTable
 70
     2
  0
LAYER
  5
F
330
2
100
AcDbSymbolTableRecord
100
AcDbLayerTableRecord
  2
0
 70
     0
 62
     7
  6
CONTINUOUS
  0
LAYER
  5
2C
330
2
100
AcDbSymbolTableRecord
100
AcDbLayerTableRecord
  2
TEXT
 70
     0
 62
     3
  6
CONTINUOUS
  0
ENDTAB
  0
TABLE
  2
STYLE
  5
3
330
0
100
AcDbSymbolTable
 70
     3
  0
STYLE
  5
10
330
3
100
AcDbSymbolTableRecord
100
AcDbTextStyleTableRecord
  2
STANDARD
 70
     0
 40
0.0
 41
1.0
 50
0.0
 71
     0
 42
0.25
  3
txt
  4

  0
STYLE
  5
267
330
3
100
AcDbSymbolTableRecord
100
AcDbTextStyleTableRecord
  2
ROMANS
 70
     0
 40
0.0
 41
1.0
 50
0.0
 71
     0
 42
0.125
  3
romans.shx
  4

  0
STYLE
  5
66E
330
3
100
AcDbSymbolTableRecord
100
AcDbTextStyleTableRecord
  2
ITALICC
 70
     0
 40
0.0
 41
1.0
 50
0.0
 71
     0
 42
0.125
  3
italicc
  4

  0
ENDTAB
  0
TABLE
  2
VIEW
  5
6
330
0
100
AcDbSymbolTable
 70
     0
  0
ENDTAB
  0
TABLE
  2
UCS
  5
7
330
0
100
AcDbSymbolTable
 70
     0
  0
ENDTAB
  0
TABLE
  2
APPID
  5
9
330
0
100
AcDbSymbolTable
 70
     1
  0
APPID
  5
11
330
9
100
AcDbSymbolTableRecord
100
AcDbRegAppTableRecord
  2
ACAD
 70
     0
  0
ENDTAB
  0
TABLE
  2
DIMSTYLE
  5
A
330
0
100
AcDbSymbolTable
 70
     1
  0
DIMSTYLE
105
25D
330
A
100
AcDbSymbolTableRecord
100
AcDbDimStyleTableRecord
  2
STANDARD
 70
     0
  3

  4

  5

  6

  7

 40
1.0
 41
0.125
 42
0.125
 43
0.375
 44
0.125
 45
0.0
 46
0.0
 47
0.0
 48
0.0
140
0.125
141
-0.125
142
0.0
143
25.4
144
1.0
145
0.0
146
1.0
147
0.09
 71
     0
 72
     0
 73
     1
 74
     1
 75
     0
 76
     0
 77
     0
 78
     4
170
     0
171
     2
172
     0
173
     0
174
     0
175
     0
176
     0
177
     0
178
     0
270
     2
271
     3
272
     3
273
     2
274
     2
340
267
275
     0
280
     0
281
     0
282
     0
283
     1
284
     4
285
     0
286
     0
287
     3
288
     0
  0
ENDTAB
  0
TABLE
  2
BLOCK_RECORD
  5
1
330
0
100
AcDbSymbolTable
 70
     0
  0
BLOCK_RECORD
  5
18
102
{ACAD_XDICTIONARY
360
7A3
102
}
330
1
100
AcDbSymbolTableRecord
100
AcDbBlockTableRecord
  2
*MODEL_SPACE
  0
BLOCK_RECORD
  5
15
102
{ACAD_XDICTIONARY
360
7A1
102
}
330
1
100
AcDbSymbolTableRecord
100
AcDbBlockTableRecord
  2
*PAPER_SPACE
  0
ENDTAB
  0
ENDSEC
  0
SECTION
  2
BLOCKS
  0
BLOCK
  5
37
330
18
100
AcDbEntity
  8
0
100
AcDbBlockBegin
  2
*MODEL_SPACE
 70
     0
 10
0.0
 20
0.0
 30
0.0
  3
*MODEL_SPACE
  1

  0
ENDBLK
  5
38
330
18
100
AcDbEntity
  8
0
100
AcDbBlockEnd
  0
BLOCK
  5
35
330
15
100
AcDbEntity
 67
     1
  8
0
100
AcDbBlockBegin
  2
*PAPER_SPACE
 70
     0
 10
0.0
 20
0.0
 30
0.0
  3
*PAPER_SPACE
  1

  0
ENDBLK
  5
36
330
15
100
AcDbEntity
 67
     1
  8
0
100
AcDbBlockEnd
  0
ENDSEC
  0
SECTION
  2
ENTITIES
  0
LWPOLYLINE
  5
229
330
18
100
AcDbEntity
  8
0
 62
     7
100
AcDbPolyline
 90
       46
 70
     1
 43
0.0
 10
13.30261564988826
 20
7.354175859530819
 10
13.30261564988826
 20
6.379653008936318
 42
0.3386255571654466
 10
13.64636564988826
 20
5.87866287768035
 10
13.64636564988826
 20
6.584175859530818
 42
-0.4142135623730951
 10
13.66636564988826
 20
6.604175859530818
 10
13.78261564988826
 20
6.604175859530818
 42
-0.4142135623730951
 10
13.80261564988826
 20
6.584175859530818
 10
13.80261564988826
 20
6.478475859530819
 10
13.76961564988826
 20
6.353475859530819
 10
13.80261564988826
 20
6.353475859530819
 10
13.76961564988826
 20
6.228475859530819
 10
13.80261564988826
 20
6.228475859530819
 10
13.76961564988826
 20
6.103475859530819
 10
13.80261564988826
 20
6.103475859530819
 10
13.76961564988826
 20
5.978475859530819
 10
13.80261564988826
 20
5.978475859530819
 10
13.76961564988826
 20
5.853475859530819
 10
13.80261564988826
 20
5.853475859530819
 10
13.80261564988826
 20
5.749149560189893
 42
-0.4236060866574365
 10
13.78197653339971
 20
5.729159774545371
 42
-0.3915032691850132
 10
13.17761564988826
 20
6.324979473174427
 10
13.17761564988826
 20
7.459175859530818
 42
-0.4142135623730943
 10
13.19761564988827
 20
7.479175859530817
 10
15.15761564988826
 20
7.479175859530819
 42
-0.4142135623730949
 10
15.17761564988826
 20
7.459175859530819
 10
15.17761564988826
 20
6.324979473174519
 42
-0.3915032691850695
 10
14.57325476637682
 20
5.729159774545369
 42
-0.4236060866574295
 10
14.55261564988826
 20
5.749149560189893
 10
14.55261564988826
 20
5.853475859530819
 10
14.58561564988826
 20
5.853475859530819
 10
14.55261564988826
 20
5.978475859530819
 10
14.58561564988826
 20
5.978475859530819
 10
14.55261564988826
 20
6.103475859530819
 10
14.58561564988826
 20
6.103475859530819
 10
14.55261564988826
 20
6.228475859530819
 10
14.58561564988826
 20
6.228475859530819
 10
14.55261564988826
 20
6.353475859530819
 10
14.58561564988826
 20
6.353475859530819
 10
14.55261564988826
 20
6.478475859530819
 10
14.55261564988826
 20
6.584175859530819
 42
-0.4142135623730951
 10
14.57261564988826
 20
6.604175859530819
 10
14.68886564988826
 20
6.604175859530819
 42
-0.4142135623731015
 10
14.70886564988826
 20
6.584175859530819
 10
14.70886564988826
 20
5.878662877680352
 42
0.33862555716539
 10
15.05261564988827
 20
6.379653008936217
 10
15.05261564988826
 20
7.35417585953082
  0
LINE
  5
6F3
330
18
100
AcDbEntity
  8
TEXT
100
AcDbLine
 10
14.33771680320268
 20
4.931999391801163
 30
0.0
 11
14.33771680320268
 21
5.073328923980302
 31
0.0
  0
LINE
  5
6F4
330
18
100
AcDbEntity
  8
TEXT
100
AcDbLine
 10
14.38481496175867
 20
5.007864718212701
 30
0.0
 11
14.33771680320268
 21
4.931999391801163
 31
0.0
  0
LINE
  5
6F5
330
18
100
AcDbEntity
  8
TEXT
100
AcDbLine
 10
14.39524967852259
 20
4.897971475271727
 30
0.0
 11
14.4598067944883
 21
5.007864718212701
 31
0.0
  0
TEXT
  5
6F6
330
18
100
AcDbEntity
  8
TEXT
100
AcDbText
 10
14.64280548998561
 20
4.927535920835978
 30
0.0
 40
0.0522247191011236
  1
6536 Main St. N.E. * P.O. Box 32008
 41
0.8388932496075355
 72
     5
 11
15.97173807425527
 21
4.927535920835978
 31
0.0
100
AcDbText
  0
ARC
  5
6F7
330
18
100
AcDbEntity
  8
TEXT
100
AcDbCircle
 10
14.19723383068735
 20
4.918682148273273
 30
0.0
 40
0.0249058752826653
100
AcDbArc
 50
89.99971217465335
 51
179.9999999999985
  0
LINE
  5
6F8
330
18
100
AcDbEntity
  8
TEXT
100
AcDbLine
 10
14.11003306426431
 20
4.902652739659274
 30
0.0
 11
14.06628229308241
 21
4.984903015655419
 31
0.0
  0
LINE
  5
6F9
330
18
100
AcDbEntity
  8
TEXT
100
AcDbLine
 10
14.11003306426431
 20
5.007864718212701
 30
0.0
 11
14.11003306426431
 21
4.902652739659274
 31
0.0
  0
ARC
  5
6FA
330
18
100
AcDbEntity
  8
TEXT
100
AcDbCircle
 10
14.0020422270448
 20
4.915228648555938
 30
0.0
 40
0.028359375
100
AcDbArc
 50
25.78218179591245
 51
90.0
  0
LINE
  5
6FB
330
18
100
AcDbEntity
  8
TEXT
100
AcDbLine
 10
13.54004776586105
 20
4.823779523327189
 30
0.0
 11
13.54004776586105
 21
5.075876195951511
 31
0.0
  0
LINE
  5
6FC
330
18
100
AcDbEntity
  8
TEXT
100
AcDbLine
 10
13.57235961999871
 20
5.007864718212701
 30
0.0
 11
13.57235961999871
 21
4.807000511480293
 31
0.0
  0
LINE
  5
6FD
330
18
100
AcDbEntity
  8
TEXT
100
AcDbLine
 10
13.4431171405013
 20
5.007864718212701
 30
0.0
 11
13.38436857769544
 21
4.90699272209958
 31
0.0
  0
LINE
  5
6FE
330
18
100
AcDbEntity
  8
TEXT
100
AcDbLine
 10
13.38436857769544
 20
4.90699272209958
 30
0.0
 11
13.3257382566635
 21
5.007864718212701
 31
0.0
  0
ARC
  5
6FF
330
18
100
AcDbEntity
  8
TEXT
100
AcDbCircle
 10
13.01816493277708
 20
4.925777258766199
 30
0.0
 40
0.0820874594465043
100
AcDbArc
 50
90.0
 51
270.0
  0
LWPOLYLINE
  5
700
330
18
100
AcDbEntity
  8
TEXT
100
AcDbPolyline
 90
        2
 70
     0
 43
0.0001332181640625
 10
12.61007859967611
 20
4.934594727978325
 10
12.60008723737142
 20
5.007864718212704
  0
LWPOLYLINE
  5
701
330
18
100
AcDbEntity
  8
TEXT
100
AcDbPolyline
 90
        2
 70
     0
 43
0.0001332181640625
 10
12.60008723737142
 20
4.981221085400203
 10
12.61007859967611
 20
4.921272911572078
  0
LWPOLYLINE
  5
702
330
18
100
AcDbEntity
  8
TEXT
100
AcDbPolyline
 90
        2
 70
     0
 43
0.0001332181640625
 10
12.64005268659017
 20
4.981221085400203
 10
12.63006132428548
 20
4.921272911572078
  0
LWPOLYLINE
  5
703
330
18
100
AcDbEntity
  8
TEXT
100
AcDbPolyline
 90
        2
 70
     0
 43
0.0001332181640625
 10
12.64005268659017
 20
5.007864718212704
 10
12.63006132428548
 20
4.934594727978325
  0
LWPOLYLINE
  5
704
330
18
100
AcDbEntity
  8
TEXT
100
AcDbPolyline
 90
        3
 70
     0
 43
0.0006660908203125
 10
12.7532881260433
 20
4.894629278759577
 10
12.7532881260433
 20
5.007864718212704
 10
12.64005268659017
 20
5.007864718212704
  0
LWPOLYLINE
  5
705
330
18
100
AcDbEntity
  8
TEXT
100
AcDbPolyline
 90
        3
 70
     0
 43
0.0006660908203125
 10
12.7266444932308
 20
4.894629278759577
 10
12.7266444932308
 20
4.981221085400203
 10
12.64005268659017
 20
4.981221085400203
  0
LWPOLYLINE
  5
706
330
18
100
AcDbEntity
  8
TEXT
100
AcDbPolyline
 90
        2
 70
     0
 43
0.0001332181640625
 10
12.7266444932308
 20
4.981221085400203
 10
12.66669631940267
 20
4.921272911572078
  0
LWPOLYLINE
  5
707
330
18
100
AcDbEntity
  8
TEXT
100
AcDbPolyline
 90
        2
 70
     0
 43
0.0001332181640625
 10
12.5134954307308
 20
4.981221085400203
 10
12.57344360455892
 20
4.921272911572078
  0
LWPOLYLINE
  5
708
330
18
100
AcDbEntity
  8
TEXT
100
AcDbPolyline
 90
        3
 70
     0
 43
0.0006660908203125
 10
12.60008723737142
 20
5.007864718212704
 10
12.4868517979183
 20
5.007864718212704
 10
12.4868517979183
 20
4.894629278759577
  0
LWPOLYLINE
  5
709
330
18
100
AcDbEntity
  8
TEXT
100
AcDbPolyline
 90
        3
 70
     0
 43
0.0006660908203125
 10
12.60008723737142
 20
4.981221085400203
 10
12.5134954307308
 20
4.981221085400203
 10
12.5134954307308
 20
4.894629278759577
  0
LINE
  5
70A
330
18
100
AcDbEntity
  8
TEXT
100
AcDbLine
 10
13.08900239913562
 20
4.907783301945308
 30
0.0
 11
13.02340226289132
 21
4.907783301945308
 31
0.0
  0
LINE
  5
70B
330
18
100
AcDbEntity
  8
TEXT
100
AcDbLine
 10
13.01816493277708
 20
4.843689799319694
 30
0.0
 11
13.0939427730419
 21
4.843689799319694
 31
0.0
  0
LINE
  5
70C
330
18
100
AcDbEntity
  8
TEXT
100
AcDbLine
 10
12.93607747333057
 20
4.74139168522419
 30
0.0
 11
13.08900239913562
 21
4.74139168522419
 31
0.0
  0
LINE
  5
70D
330
18
100
AcDbEntity
  8
TEXT
100
AcDbLine
 10
13.0939427730419
 20
4.809748691557629
 30
0.0
 11
12.93607747333057
 21
4.809748691557629
 31
0.0
  0
LINE
  5
70E
330
18
100
AcDbEntity
  8
TEXT
100
AcDbLine
 10
13.02340226289132
 20
4.943588023555935
 30
0.0
 11
13.19030791692029
 21
4.943588023555935
 31
0.0
  0
LWPOLYLINE
  5
70F
330
18
100
AcDbEntity
  8
TEXT
100
AcDbPolyline
 90
        2
 70
     0
 43
0.0006660908203125
 10
12.7266444932308
 20
4.894629278759577
 10
12.7532881260433
 20
4.894629278759577
  0
LWPOLYLINE
  5
710
330
18
100
AcDbEntity
  8
TEXT
100
AcDbPolyline
 90
        2
 70
     0
 43
0.0001332181640625
 10
12.68001813580892
 20
4.884637916454888
 10
12.7532881260433
 20
4.894629278759577
  0
LWPOLYLINE
  5
711
330
18
100
AcDbEntity
  8
TEXT
100
AcDbPolyline
 90
        2
 70
     0
 43
0.0006660908203125
 10
12.7266444932308
 20
4.854663829540829
 10
12.7532881260433
 20
4.854663829540829
  0
LWPOLYLINE
  5
712
330
18
100
AcDbEntity
  8
TEXT
100
AcDbPolyline
 90
        3
 70
     0
 43
0.0006660908203125
 10
12.64005268659017
 20
4.741428390087701
 10
12.7532881260433
 20
4.741428390087701
 10
12.7532881260433
 20
4.854663829540829
  0
LWPOLYLINE
  5
713
330
18
100
AcDbEntity
  8
TEXT
100
AcDbPolyline
 90
        2
 70
     0
 43
0.0001332181640625
 10
12.7532881260433
 20
4.854663829540829
 10
12.68001813580892
 20
4.864655191845514
  0
LWPOLYLINE
  5
714
330
18
100
AcDbEntity
  8
TEXT
100
AcDbPolyline
 90
        3
 70
     0
 43
0.0006660908203125
 10
12.4868517979183
 20
4.854663829540829
 10
12.4868517979183
 20
4.741428390087701
 10
12.60008723737142
 20
4.741428390087701
  0
LWPOLYLINE
  5
715
330
18
100
AcDbEntity
  8
TEXT
100
AcDbPolyline
 90
        3
 70
     0
 43
0.0006660908203125
 10
12.5134954307308
 20
4.854663829540829
 10
12.5134954307308
 20
4.768072022900202
 10
12.60008723737142
 20
4.768072022900202
  0
LWPOLYLINE
  5
716
330
18
100
AcDbEntity
  8
TEXT
100
AcDbPolyline
 90
        5
 70
     0
 43
0.0001332181640625
 10
12.61007859967611
 20
4.814698380322077
 10
12.61007859967611
 20
4.828020196728328
 10
12.57344360455892
 20
4.828020196728328
 10
12.57344360455892
 20
4.864655191845514
 10
12.56012178815267
 20
4.864655191845514
  0
LWPOLYLINE
  5
717
330
18
100
AcDbEntity
  8
TEXT
100
AcDbPolyline
 90
        5
 70
     0
 43
0.0001332181640625
 10
12.56012178815267
 20
4.884637916454888
 10
12.57344360455892
 20
4.884637916454888
 10
12.57344360455892
 20
4.921272911572078
 10
12.61007859967611
 20
4.921272911572078
 10
12.61007859967611
 20
4.934594727978325
  0
LWPOLYLINE
  5
718
330
18
100
AcDbEntity
  8
TEXT
100
AcDbPolyline
 90
        2
 70
     0
 43
0.0001332181640625
 10
12.5134954307308
 20
4.894629278759577
 10
12.57344360455892
 20
4.884637916454888
  0
LWPOLYLINE
  5
719
330
18
100
AcDbEntity
  8
TEXT
100
AcDbPolyline
 90
        2
 70
     0
 43
0.0001332181640625
 10
12.4868517979183
 20
4.894629278759577
 10
12.56012178815267
 20
4.884637916454888
  0
LWPOLYLINE
  5
71A
330
18
100
AcDbEntity
  8
TEXT
100
AcDbPolyline
 90
        2
 70
     0
 43
0.0006660908203125
 10
12.5134954307308
 20
4.894629278759577
 10
12.4868517979183
 20
4.894629278759577
  0
LWPOLYLINE
  5
71B
330
18
100
AcDbEntity
  8
TEXT
100
AcDbPolyline
 90
        2
 70
     0
 43
0.0001332181640625
 10
12.5134954307308
 20
4.768072022900202
 10
12.57344360455892
 20
4.828020196728328
  0
LWPOLYLINE
  5
71C
330
18
100
AcDbEntity
  8
TEXT
100
AcDbPolyline
 90
        2
 70
     0
 43
0.0006660908203125
 10
12.5134954307308
 20
4.854663829540829
 10
12.4868517979183
 20
4.854663829540829
  0
LWPOLYLINE
  5
71D
330
18
100
AcDbEntity
  8
TEXT
100
AcDbPolyline
 90
        2
 70
     0
 43
0.0001332181640625
 10
12.56012178815267
 20
4.864655191845514
 10
12.4868517979183
 20
4.854663829540829
  0
LWPOLYLINE
  5
71E
330
18
100
AcDbEntity
  8
TEXT
100
AcDbPolyline
 90
        2
 70
     0
 43
0.0001332181640625
 10
12.5134954307308
 20
4.854663829540829
 10
12.57344360455892
 20
4.864655191845514
  0
LWPOLYLINE
  5
71F
330
18
100
AcDbEntity
  8
TEXT
100
AcDbPolyline
 90
        5
 70
     0
 43
0.0001332181640625
 10
12.63006132428548
 20
4.934594727978325
 10
12.63006132428548
 20
4.921272911572078
 10
12.66669631940267
 20
4.921272911572078
 10
12.66669631940267
 20
4.884637916454888
 10
12.68001813580892
 20
4.884637916454888
  0
LWPOLYLINE
  5
720
330
18
100
AcDbEntity
  8
TEXT
100
AcDbPolyline
 90
        2
 70
     0
 43
0.0001332181640625
 10
12.7266444932308
 20
4.894629278759577
 10
12.66669631940267
 20
4.884637916454888
  0
LWPOLYLINE
  5
721
330
18
100
AcDbEntity
  8
TEXT
100
AcDbPolyline
 90
        2
 70
     0
 43
0.0006660908203125
 10
12.60008723737142
 20
4.768072022900202
 10
12.60008723737142
 20
4.741428390087701
  0
LWPOLYLINE
  5
722
330
18
100
AcDbEntity
  8
TEXT
100
AcDbPolyline
 90
        2
 70
     0
 43
0.0001332181640625
 10
12.60008723737142
 20
4.768072022900202
 10
12.61007859967611
 20
4.828020196728328
  0
LWPOLYLINE
  5
723
330
18
100
AcDbEntity
  8
TEXT
100
AcDbPolyline
 90
        2
 70
     0
 43
0.0001332181640625
 10
12.60008723737142
 20
4.741428390087701
 10
12.61007859967611
 20
4.814698380322077
  0
LWPOLYLINE
  5
724
330
18
100
AcDbEntity
  8
TEXT
100
AcDbPolyline
 90
        2
 70
     0
 43
0.0001332181640625
 10
12.64005268659017
 20
4.768072022900202
 10
12.63006132428548
 20
4.828020196728328
  0
LWPOLYLINE
  5
725
330
18
100
AcDbEntity
  8
TEXT
100
AcDbPolyline
 90
        2
 70
     0
 43
0.0001332181640625
 10
12.63006132428548
 20
4.814698380322077
 10
12.64005268659017
 20
4.741428390087701
  0
LWPOLYLINE
  5
726
330
18
100
AcDbEntity
  8
TEXT
100
AcDbPolyline
 90
        2
 70
     0
 43
0.0006660908203125
 10
12.64005268659017
 20
4.768072022900202
 10
12.64005268659017
 20
4.741428390087701
  0
LWPOLYLINE
  5
727
330
18
100
AcDbEntity
  8
TEXT
100
AcDbPolyline
 90
        2
 70
     0
 43
0.0001332181640625
 10
12.7266444932308
 20
4.768072022900202
 10
12.66669631940267
 20
4.828020196728328
  0
LWPOLYLINE
  5
728
330
18
100
AcDbEntity
  8
TEXT
100
AcDbPolyline
 90
        3
 70
     0
 43
0.0006660908203125
 10
12.64005268659017
 20
4.768072022900202
 10
12.7266444932308
 20
4.768072022900202
 10
12.7266444932308
 20
4.854663829540829
  0
LWPOLYLINE
  5
729
330
18
100
AcDbEntity
  8
TEXT
100
AcDbPolyline
 90
        2
 70
     0
 43
0.0001332181640625
 10
12.7266444932308
 20
4.854663829540829
 10
12.66669631940267
 20
4.864655191845514
  0
LWPOLYLINE
  5
72A
330
18
100
AcDbEntity
  8
TEXT
100
AcDbPolyline
 90
        5
 70
     0
 43
0.0001332181640625
 10
12.68001813580892
 20
4.864655191845514
 10
12.66669631940267
 20
4.864655191845514
 10
12.66669631940267
 20
4.828020196728328
 10
12.63006132428548
 20
4.828020196728328
 10
12.63006132428548
 20
4.814698380322077
  0
ARC
  5
72B
330
18
100
AcDbEntity
  8
TEXT
100
AcDbCircle
 10
13.02340226289132
 20
4.925685662750623
 30
0.0
 40
0.017902360805315
100
AcDbArc
 50
90.0
 51
270.0
  0
LINE
  5
72C
330
18
100
AcDbEntity
  8
TEXT
100
AcDbLine
 10
12.93607747333057
 20
4.809748691557629
 30
0.0
 11
12.93607747333057
 21
4.74139168522419
 31
0.0
  0
TEXT
  5
72D
330
18
100
AcDbEntity
  8
TEXT
100
AcDbText
 10
14.64280548998561
 20
4.741019066903394
 30
0.0
 40
0.0522247191011236
  1
Phone  1-800-328-2495
 41
1.272321428571429
 72
     5
 11
15.97173807425527
 21
4.741019066903394
 31
0.0
100
AcDbText
  0
TEXT
  5
72E
330
18
100
AcDbEntity
  8
TEXT
100
AcDbText
 10
14.64280548998561
 20
4.834277493869686
 30
0.0
 40
0.0522247191011236
  1
Minneapolis, MN 55432-0008
 41
1.11444212721585
 72
     5
 11
15.97173807425527
 21
4.834277493869686
 31
0.0
100
AcDbText
  0
LINE
  5
72F
330
18
100
AcDbEntity
  8
TEXT
100
AcDbLine
 10
14.19723383068735
 20
4.943588023555935
 30
0.0
 11
14.2738818119799
 21
4.943588023555935
 31
0.0
  0
LINE
  5
730
330
18
100
AcDbEntity
  8
TEXT
100
AcDbLine
 10
13.63919067305667
 20
4.943588023555935
 30
0.0
 11
13.68902595287982
 21
4.943588023555935
 31
0.0
  0
ARC
  5
731
330
18
100
AcDbEntity
  8
TEXT
100
AcDbCircle
 10
13.34072478078627
 20
4.780939407497886
 30
0.0
 40
0.0392772371940762
100
AcDbArc
 50
270.1604552698595
 51
330.0831797321295
  0
ARC
  5
732
330
18
100
AcDbEntity
  8
TEXT
100
AcDbCircle
 10
13.25042393489405
 20
4.80118407656224
 30
0.0
 40
0.0601160179737537
100
AcDbArc
 50
180.0000000000003
 51
264.0521544866073
  0
LINE
  5
733
330
18
100
AcDbEntity
  8
TEXT
100
AcDbLine
 10
13.19030791692029
 20
4.943588023555935
 30
0.0
 11
13.19030791692029
 21
4.80118407656224
 31
0.0
  0
ARC
  5
734
330
18
100
AcDbEntity
  8
TEXT
100
AcDbCircle
 10
13.0939427730419
 20
4.826719245438663
 30
0.0
 40
0.0169705538810321
100
AcDbArc
 50
270.0
 51
90.0
  0
ARC
  5
735
330
18
100
AcDbEntity
  8
TEXT
100
AcDbCircle
 10
13.08900239913562
 20
4.824587493584747
 30
0.0
 40
0.0831958083605586
100
AcDbArc
 50
270.0
 51
90.0
  0
LWPOLYLINE
  5
736
330
18
100
AcDbEntity
  8
TEXT
100
AcDbPolyline
 90
        6
 70
     1
 43
0.0
 10
13.28671832797555
 20
4.943588023555935
 10
13.25640173375534
 20
4.943588023555935
 10
13.25640173375534
 20
4.820477025501041
 42
0.407328721240804
 10
13.26794538491682
 20
4.808658110824655
 10
13.32856708396155
 20
4.808658110824655
 10
13.34603242436886
 20
4.841470339868134
  0
LINE
  5
737
330
18
100
AcDbEntity
  8
TEXT
100
AcDbLine
 10
13.2441945244004
 20
4.74139168522419
 30
0.0
 11
13.34083477547539
 21
4.741662324322472
 31
0.0
  0
LWPOLYLINE
  5
738
330
18
100
AcDbEntity
  8
TEXT
100
AcDbPolyline
 90
        2
 70
     0
 43
0.0
 10
13.47206804679193
 20
4.792943027439118
 42
0.3318488747599744
 10
13.54118733935724
 20
4.74139168522419
 42
-6.868794160588311
  0
LINE
  5
739
330
18
100
AcDbEntity
  8
TEXT
100
AcDbLine
 10
13.47206804679193
 20
4.925700402264471
 30
0.0
 11
13.47206804679193
 21
4.792943027439115
 31
0.0
  0
LINE
  5
73A
330
18
100
AcDbEntity
  8
TEXT
100
AcDbLine
 10
13.37476834069848
 20
4.761350191329203
 30
0.0
 11
13.47206804679193
 21
4.925700402264471
 31
0.0
  0
ARC
  5
73B
330
18
100
AcDbEntity
  8
TEXT
100
AcDbCircle
 10
13.5553659831141
 20
4.822382317723718
 30
0.0
 40
0.0153818062434269
100
AcDbArc
 50
174.7883570302258
 51
270.0
  0
LINE
  5
73C
330
18
100
AcDbEntity
  8
TEXT
100
AcDbLine
 10
13.57235961999871
 20
4.807000511480293
 30
0.0
 11
13.5553659831141
 21
4.807000511480293
 31
0.0
  0
LINE
  5
73D
330
18
100
AcDbEntity
  8
TEXT
100
AcDbLine
 10
13.54118733935724
 20
4.74139168522419
 30
0.0
 11
13.63919067305667
 21
4.74139168522419
 31
0.0
  0
LINE
  5
73E
330
18
100
AcDbEntity
  8
TEXT
100
AcDbLine
 10
13.63919067305667
 20
4.74139168522419
 30
0.0
 11
13.63919067305667
 21
4.943588023555935
 31
0.0
  0
LINE
  5
73F
330
18
100
AcDbEntity
  8
TEXT
100
AcDbLine
 10
14.0020422270448
 20
4.943588023555935
 30
0.0
 11
13.8948359536575
 21
4.943588023555935
 31
0.0
  0
LINE
  5
740
330
18
100
AcDbEntity
  8
TEXT
100
AcDbLine
 10
13.95555531256553
 20
4.906313050093803
 30
0.0
 11
14.03784330234892
 21
4.906313050093803
 31
0.0
  0
LWPOLYLINE
  5
741
330
18
100
AcDbEntity
  8
TEXT
100
AcDbPolyline
 90
        4
 70
     1
 43
0.0
 10
14.05077434363182
 20
4.844355663208215
 10
13.96211402497196
 20
4.844355663208215
 42
0.9999999999999998
 10
13.96211402497196
 20
4.801957122704354
 10
14.05077434363182
 20
4.801957122704354
 42
1.0
  0
LWPOLYLINE
  5
742
330
18
100
AcDbEntity
  8
TEXT
100
AcDbPolyline
 90
        2
 70
     0
 43
0.0
 10
13.93687939107033
 20
4.74139168522419
 10
14.07089680870171
 20
4.74139168522419
 42
0.9999999999999998
  0
LINE
  5
743
330
18
100
AcDbEntity
  8
TEXT
100
AcDbLine
 10
13.76363778882778
 20
4.943588023555935
 30
0.0
 11
13.81777138574873
 21
4.943588023555935
 31
0.0
  0
LINE
  5
744
330
18
100
AcDbEntity
  8
TEXT
100
AcDbLine
 10
13.69657974204594
 20
4.74139168522419
 30
0.0
 11
13.76363778882778
 21
4.74139168522419
 31
0.0
  0
LINE
  5
745
330
18
100
AcDbEntity
  8
TEXT
100
AcDbLine
 10
13.76363778882778
 20
4.74139168522419
 30
0.0
 11
13.76363778882778
 21
4.943588023555935
 31
0.0
  0
LINE
  5
746
330
18
100
AcDbEntity
  8
TEXT
100
AcDbLine
 10
13.69657974204594
 20
4.936034234389826
 30
0.0
 11
13.69657974204594
 21
4.74139168522419
 31
0.0
  0
LWPOLYLINE
  5
747
330
18
100
AcDbEntity
  8
TEXT
100
AcDbPolyline
 90
        2
 70
     0
 43
0.0
 10
13.68902595287982
 20
4.943588023555935
 42
-0.4142135623731017
 10
13.69657974204594
 20
4.936034234389826
 42
-0.9999999999999998
  0
LINE
  5
748
330
18
100
AcDbEntity
  8
TEXT
100
AcDbLine
 10
13.8948359536575
 20
4.943588023555935
 30
0.0
 11
13.8948359536575
 21
4.868535617481729
 31
0.0
  0
ARC
  5
749
330
18
100
AcDbEntity
  8
TEXT
100
AcDbCircle
 10
13.95555531256553
 20
4.838627468949685
 30
0.0
 40
0.0676855811441166
100
AcDbArc
 50
90.0
 51
153.7768192527749
  0
LWPOLYLINE
  5
74A
330
18
100
AcDbEntity
  8
TEXT
100
AcDbPolyline
 90
        2
 70
     0
 43
0.0
 10
13.8938034582027
 20
4.784882630174628
 42
0.2901071551932823
 10
13.93687939107033
 20
4.74139168522419
 42
5.328517124445801
  0
LWPOLYLINE
  5
74B
330
18
100
AcDbEntity
  8
TEXT
100
AcDbPolyline
 90
        2
 70
     0
 43
0.0
 10
13.81777138574872
 20
4.943588023555935
 42
-0.4142135623731017
 10
13.82532517491484
 20
4.936034234389826
 42
-0.9999999999999998
  0
LWPOLYLINE
  5
74C
330
18
100
AcDbEntity
  8
TEXT
100
AcDbPolyline
 90
        4
 70
     0
 43
0.0
 10
13.82532517491484
 20
4.936034234389826
 10
13.82532517491484
 20
4.74139168522419
 10
13.8938034582027
 20
4.74139168522419
 10
13.8938034582027
 20
4.784882630174628
 42
-1.714843617202739
  0
LWPOLYLINE
  5
74D
330
18
100
AcDbEntity
  8
TEXT
100
AcDbPolyline
 90
        2
 70
     0
 43
0.0
 10
14.11397274156935
 20
4.784882630174628
 42
-0.2901071551932486
 10
14.07089680870171
 20
4.74139168522419
 42
-5.328517124445184
  0
LWPOLYLINE
  5
74E
330
18
100
AcDbEntity
  8
TEXT
100
AcDbPolyline
 90
        2
 70
     0
 43
0.0
 10
14.11397274156935
 20
4.74139168522419
 10
14.17232795540469
 20
4.74139168522419
  0
LWPOLYLINE
  5
74F
330
18
100
AcDbEntity
  8
TEXT
100
AcDbPolyline
 90
        2
 70
     0
 43
0.0
 10
14.11397274156935
 20
4.784882630174628
 10
14.11397274156935
 20
4.74139168522419
  0
LINE
  5
750
330
18
100
AcDbEntity
  8
TEXT
100
AcDbLine
 10
14.03784330234892
 20
4.906313050093803
 30
0.0
 11
14.02757854193535
 21
4.927563589666497
 31
0.0
  0
LINE
  5
751
330
18
100
AcDbEntity
  8
TEXT
100
AcDbLine
 10
14.17232795540469
 20
4.74139168522419
 30
0.0
 11
14.17232795540468
 21
4.918682190655658
 31
0.0
  0
LINE
  5
752
330
18
100
AcDbEntity
  8
TEXT
100
AcDbLine
 10
14.4907419018862
 20
4.74139168522419
 30
0.0
 11
14.39524967852259
 21
4.897971475271727
 31
0.0
  0
LINE
  5
753
330
18
100
AcDbEntity
  8
TEXT
100
AcDbLine
 10
14.41416352951
 20
4.74139168522419
 30
0.0
 11
14.4907419018862
 21
4.74139168522419
 31
0.0
  0
LINE
  5
754
330
18
100
AcDbEntity
  8
TEXT
100
AcDbLine
 10
14.27388181197991
 20
4.74139168522419
 30
0.0
 11
14.33825999629853
 21
4.74139168522419
 31
0.0
  0
LINE
  5
755
330
18
100
AcDbEntity
  8
TEXT
100
AcDbLine
 10
14.2738818119799
 20
4.943588023555935
 30
0.0
 11
14.27388181197991
 21
4.74139168522419
 31
0.0
  0
LINE
  5
756
330
18
100
AcDbEntity
  8
TEXT
100
AcDbLine
 10
14.33825999629853
 20
4.87297125370037
 30
0.0
 11
14.41416352951
 21
4.74139168522419
 31
0.0
  0
LINE
  5
757
330
18
100
AcDbEntity
  8
TEXT
100
AcDbLine
 10
14.33825999629853
 20
4.74139168522419
 30
0.0
 11
14.33825999629853
 21
4.87297125370037
 31
0.0
  0
LINE
  5
758
330
18
100
AcDbEntity
  8
TEXT
100
AcDbLine
 10
13.19389668567559
 20
5.007864718212701
 30
0.0
 11
13.01816493277708
 21
5.007864718212701
 31
0.0
  0
LWPOLYLINE
  5
759
330
18
100
AcDbEntity
  8
TEXT
100
AcDbPolyline
 90
        2
 70
     0
 43
0.0006660908203125
 10
12.60008723737142
 20
4.981221085400203
 10
12.60008723737142
 20
5.007864718212704
  0
LWPOLYLINE
  5
75A
330
18
100
AcDbEntity
  8
TEXT
100
AcDbPolyline
 90
        2
 70
     0
 43
0.0006660908203125
 10
12.64005268659017
 20
4.981221085400203
 10
12.64005268659017
 20
5.007864718212704
  0
TEXT
  5
75B
330
18
100
AcDbEntity
  8
TEXT
100
AcDbText
 10
14.64280548998561
 20
5.02079434780227
 30
0.0
 40
0.0522247191011236
  1
Stylmark  Incorporated
 41
1.221428571428571
 72
     5
 11
15.97173807425527
 21
5.02079434780227
 31
0.0
100
AcDbText
  0
LINE
  5
75C
330
18
100
AcDbEntity
  8
TEXT
100
AcDbLine
 10
14.2694019246534
 20
5.007864718212701
 30
0.0
 11
14.20190220700389
 21
5.007864718212701
 31
0.0
  0
TEXT
  5
75D
330
18
100
AcDbEntity
  8
TEXT
100
AcDbText
 10
13.47652414125909
 20
5.18794170957577
 30
0.0
 40
0.125
  1
PART #110399
  7
ITALICC
 72
     1
 11
14.22950033173528
 21
5.18794170957577
 31
0.0
100
AcDbText
  0
LINE
  5
75E
330
18
100
AcDbEntity
  8
TEXT
100
AcDbLine
 10
13.70637767592984
 20
5.007864718212701
 30
0.0
 11
13.57235961999871
 21
5.007864718212701
 31
0.0
  0
LINE
  5
75F
330
18
100
AcDbEntity
  8
TEXT
100
AcDbLine
 10
13.25393929051959
 20
5.042252635806839
 30
0.0
 11
13.19389668567559
 21
5.042252635806839
 31
0.0
  0
LINE
  5
760
330
18
100
AcDbEntity
  8
TEXT
100
AcDbLine
 10
13.19389668567559
 20
5.042252635806839
 30
0.0
 11
13.19389668567559
 21
5.007864718212701
 31
0.0
  0
LINE
  5
761
330
18
100
AcDbEntity
  8
TEXT
100
AcDbLine
 10
13.3257382566635
 20
5.007864718212701
 30
0.0
 11
13.25393929051959
 21
5.007864718212701
 31
0.0
  0
LINE
  5
762
330
18
100
AcDbEntity
  8
TEXT
100
AcDbLine
 10
13.25393929051959
 20
5.007864718212701
 30
0.0
 11
13.25393929051959
 21
5.042252635806839
 31
0.0
  0
LINE
  5
763
330
18
100
AcDbEntity
  8
TEXT
100
AcDbLine
 10
13.54004776586105
 20
5.075876195951511
 30
0.0
 11
13.47323905329468
 21
5.075876195951511
 31
0.0
  0
LINE
  5
764
330
18
100
AcDbEntity
  8
TEXT
100
AcDbLine
 10
13.47323905329468
 20
5.007864718212701
 30
0.0
 11
13.4431171405013
 21
5.007864718212701
 31
0.0
  0
LINE
  5
765
330
18
100
AcDbEntity
  8
TEXT
100
AcDbLine
 10
13.47323905329468
 20
5.075876195951511
 30
0.0
 11
13.47323905329468
 21
5.007864718212701
 31
0.0
  0
LINE
  5
766
330
18
100
AcDbEntity
  8
TEXT
100
AcDbLine
 10
14.03107312538927
 20
5.007864718212701
 30
0.0
 11
13.89624121617221
 21
5.007864718212701
 31
0.0
  0
LWPOLYLINE
  5
767
330
18
100
AcDbEntity
  8
TEXT
100
AcDbPolyline
 90
        3
 70
     0
 43
0.0
 10
13.86045952545905
 20
5.007864718212704
 10
13.742159366643
 20
5.007864718212704
 10
13.742159366643
 20
4.980697221451809
 42
-1.960274751411753
  0
LWPOLYLINE
  5
768
330
18
100
AcDbEntity
  8
TEXT
100
AcDbPolyline
 90
        2
 70
     0
 43
0.0
 10
13.70637767592984
 20
5.007864718212704
 42
-0.3328679258950098
 10
13.742159366643
 20
4.980697221451809
 42
6.772930709997214
  0
LINE
  5
769
330
18
100
AcDbEntity
  8
TEXT
100
AcDbLine
 10
13.89624121617221
 20
5.007864718212701
 30
0.0
 11
13.89624121617221
 21
4.979542172443057
 31
0.0
  0
LWPOLYLINE
  5
76A
330
18
100
AcDbEntity
  8
TEXT
100
AcDbPolyline
 90
        2
 70
     0
 43
0.0
 10
13.86045952545905
 20
5.007864718212704
 42
-0.3277054968067132
 10
13.89624121617221
 20
4.979542172443061
 42
6.667889725900311
  0
LINE
  5
76B
330
18
100
AcDbEntity
  8
TEXT
100
AcDbLine
 10
14.17392997056381
 20
5.007864718212701
 30
0.0
 11
14.11003306426431
 21
5.007864718212701
 31
0.0
  0
ARC
  5
76C
330
18
100
AcDbEntity
  8
TEXT
100
AcDbCircle
 10
14.02904618561221
 20
4.966281151091799
 30
0.0
 40
0.0416329381542859
100
AcDbArc
 50
26.56974201007528
 51
87.20939649401342
  0
LINE
  5
76D
330
18
100
AcDbEntity
  8
TEXT
100
AcDbLine
 10
14.17392997056381
 20
4.980317068351826
 30
0.0
 11
14.17392997056381
 21
5.007864718212701
 31
0.0
  0
ARC
  5
76E
330
18
100
AcDbEntity
  8
TEXT
100
AcDbCircle
 10
14.20512278762692
 20
4.976618990930436
 30
0.0
 40
0.0314112657011332
100
AcDbArc
 50
95.88484768694724
 51
173.2388340632136
  0
LINE
  5
76F
330
18
100
AcDbEntity
  8
TEXT
100
AcDbLine
 10
14.4598067944883
 20
5.007864718212701
 30
0.0
 11
14.38481496175867
 21
5.007864718212701
 31
0.0
  0
LINE
  5
770
330
18
100
AcDbEntity
  8
TEXT
100
AcDbLine
 10
14.26940192465341
 20
5.073328923980302
 30
0.0
 11
14.2694019246534
 21
5.007864718212701
 31
0.0
  0
LINE
  5
771
330
18
100
AcDbEntity
  8
TEXT
100
AcDbLine
 10
14.33771680320268
 20
5.073328923980302
 30
0.0
 11
14.26940192465341
 21
5.073328923980302
 31
0.0
  0
ENDSEC
  0
SECTION
  2
OBJECTS
  0
DICTIONARY
  5
C
330
0
100
AcDbDictionary
  3
ACAD_GROUP
350
D
  3
ACAD_LAYOUT
350
776
  3
ACAD_MLINESTYLE
350
E
  3
ACAD_PLOTSETTINGS
350
777
  3
ACAD_PLOTSTYLENAME
350
774
  3
ACDBHEADERROUNDTRIPXREC
350
781
  3
ACDBVARIABLEDICTIONARY
350
77E
  0
DICTIONARY
  5
7A3
330
18
100
AcDbDictionary
280
     1
  3
ACAD_LAYOUTSELFREF
360
7A4
  0
DICTIONARY
  5
7A1
330
15
100
AcDbDictionary
280
     1
  3
ACAD_LAYOUTSELFREF
360
7A2
  0
DICTIONARY
  5
D
102
{ACAD_REACTORS
330
C
102
}
330
C
100
AcDbDictionary
  3
*A1
350
268
  3
*A2
350
5D2
  3
*A3
350
64A
  3
*A4
350
64B
  0
DICTIONARY
  5
776
102
{ACAD_REACTORS
330
C
102
}
330
C
100
AcDbDictionary
  0
DICTIONARY
  5
E
102
{ACAD_REACTORS
330
C
102
}
330
C
100
AcDbDictionary
  3
STANDARD
350
1B
  0
DICTIONARY
  5
777
102
{ACAD_REACTORS
330
C
102
}
330
C
100
AcDbDictionary
  0
ACDBDICTIONARYWDFLT
  5
774
102
{ACAD_REACTORS
330
C
102
}
330
C
100
AcDbDictionary
281
     1
  3
Normal
350
775
100
AcDbDictionaryWithDefault
340
775
  0
DICTIONARY
  5
781
102
{ACAD_REACTORS
330
C
102
}
330
C
100
AcDbDictionary
  3
CEPSNTYPE
350
78B
  3
FINGERPRINTGUID
350
78C
  3
HYPERLINKBASE
350
784
  3
INSUNITS
350
78A
  3
LAYOUTDICT
350
786
  3
LWETCUNION
350
789
  3
PLOTSETDICT
350
787
  3
PLOTSTYLNAMDICT
350
788
  3
PSVPSCALE
350
78E
  3
PUCSBASE
350
791
  3
PUCSORGBACK
350
797
  3
PUCSORGBOTTOM
350
793
  3
PUCSORGFRONT
350
796
  3
PUCSORGLEFT
350
794
  3
PUCSORGRIGHT
350
795
  3
PUCSORGTOP
350
792
  3
PUCSORTHOREF
350
78F
  3
PUCSORTHOVIEW
350
790
  3
STYLESHEET
350
785
  3
TSTACKALIGN
350
782
  3
TSTACKSIZE
350
783
  3
UCSBASE
350
79A
  3
UCSORGBACK
350
7A0
  3
UCSORGBOTTOM
350
79C
  3
UCSORGFRONT
350
79F
  3
UCSORGLEFT
350
79D
  3
UCSORGRIGHT
350
79E
  3
UCSORGTOP
350
79B
  3
UCSORTHOREF
350
798
  3
UCSORTHOVIEW
350
799
  3
VERSIONGUID
350
78D
  0
DICTIONARY
  5
77E
102
{ACAD_REACTORS
330
C
102
}
330
C
100
AcDbDictionary
  3
DIMASSOC
350
77F
  0
XRECORD
  5
7A4
102
{ACAD_REACTORS
330
7A3
102
}
330
7A3
100
AcDbXrecord
340
18
  0
XRECORD
  5
7A2
102
{ACAD_REACTORS
330
7A1
102
}
330
7A1
100
AcDbXrecord
340
15
  0
GROUP
  5
268
102
{ACAD_REACTORS
330
D
102
}
330
D
100
AcDbGroup
300
BORDER FRAME 10-1-95
 70
     3
 71
     1
  0
GROUP
  5
5D2
102
{ACAD_REACTORS
330
D
102
}
330
D
100
AcDbGroup
300

 70
     1
 71
     1
  0
GROUP
  5
64A
102
{ACAD_REACTORS
330
D
102
}
330
D
100
AcDbGroup
300
BORDER FRAME 10-1-95
 70
     3
 71
     1
  0
GROUP
  5
64B
102
{ACAD_REACTORS
330
D
102
}
330
D
100
AcDbGroup
300

 70
     1
 71
     1
  0
MLINESTYLE
  5
1B
102
{ACAD_REACTORS
330
E
102
}
330
E
100
AcDbMlineStyle
  2
STANDARD
 70
     0
  3

 62
     0
 51
90.0
 52
90.0
 71
     2
 49
0.5
 62
   256
  6
BYLAYER
 49
-0.5
 62
   256
  6
BYLAYER
  0
ACDBPLACEHOLDER
  5
775
102
{ACAD_REACTORS
330
774
102
}
330
774
100
AcDbPlaceHolder
280
     0
  0
XRECORD
  5
78B
102
{ACAD_REACTORS
330
781
102
}
330
781
100
AcDbXrecord
 90
        0
  0
XRECORD
  5
78C
102
{ACAD_REACTORS
330
781
102
}
330
781
100
AcDbXrecord
  1
{FA2C1EE0-8DB6-11D6-88E6-0090279574E7}
  0
XRECORD
  5
784
102
{ACAD_REACTORS
330
781
102
}
330
781
100
AcDbXrecord
  1

  0
XRECORD
  5
78A
102
{ACAD_REACTORS
330
781
102
}
330
781
100
AcDbXrecord
 90
        0
  0
XRECORD
  5
786
102
{ACAD_REACTORS
330
781
102
}
330
781
100
AcDbXrecord
340
776
  0
XRECORD
  5
789
102
{ACAD_REACTORS
330
781
102
}
330
781
100
AcDbXrecord
 90
    14877
  0
XRECORD
  5
787
102
{ACAD_REACTORS
330
781
102
}
330
781
100
AcDbXrecord
340
777
  0
XRECORD
  5
788
102
{ACAD_REACTORS
330
781
102
}
330
781
100
AcDbXrecord
340
774
  0
XRECORD
  5
78E
102
{ACAD_REACTORS
330
781
102
}
330
781
100
AcDbXrecord
 40
0.0
  0
XRECORD
  5
791
102
{ACAD_REACTORS
330
781
102
}
330
781
100
AcDbXrecord
340
0
  0
XRECORD
  5
797
102
{ACAD_REACTORS
330
781
102
}
330
781
100
AcDbXrecord
 10
0.0
 20
0.0
 30
0.0
  0
XRECORD
  5
793
102
{ACAD_REACTORS
330
781
102
}
330
781
100
AcDbXrecord
 10
0.0
 20
0.0
 30
0.0
  0
XRECORD
  5
796
102
{ACAD_REACTORS
330
781
102
}
330
781
100
AcDbXrecord
 10
0.0
 20
0.0
 30
0.0
  0
XRECORD
  5
794
102
{ACAD_REACTORS
330
781
102
}
330
781
100
AcDbXrecord
 10
0.0
 20
0.0
 30
0.0
  0
XRECORD
  5
795
102
{ACAD_REACTORS
330
781
102
}
330
781
100
AcDbXrecord
 10
0.0
 20
0.0
 30
0.0
  0
XRECORD
  5
792
102
{ACAD_REACTORS
330
781
102
}
330
781
100
AcDbXrecord
 10
0.0
 20
0.0
 30
0.0
  0
XRECORD
  5
78F
102
{ACAD_REACTORS
330
781
102
}
330
781
100
AcDbXrecord
340
0
  0
XRECORD
  5
790
102
{ACAD_REACTORS
330
781
102
}
330
781
100
AcDbXrecord
 70
     0
  0
XRECORD
  5
785
102
{ACAD_REACTORS
330
781
102
}
330
781
100
AcDbXrecord
  1

  0
XRECORD
  5
782
102
{ACAD_REACTORS
330
781
102
}
330
781
100
AcDbXrecord
 90
        1
  0
XRECORD
  5
783
102
{ACAD_REACTORS
330
781
102
}
330
781
100
AcDbXrecord
 90
       70
  0
XRECORD
  5
79A
102
{ACAD_REACTORS
330
781
102
}
330
781
100
AcDbXrecord
340
0
  0
XRECORD
  5
7A0
102
{ACAD_REACTORS
330
781
102
}
330
781
100
AcDbXrecord
 10
0.0
 20
0.0
 30
0.0
  0
XRECORD
  5
79C
102
{ACAD_REACTORS
330
781
102
}
330
781
100
AcDbXrecord
 10
0.0
 20
0.0
 30
0.0
  0
XRECORD
  5
79F
102
{ACAD_REACTORS
330
781
102
}
330
781
100
AcDbXrecord
 10
0.0
 20
0.0
 30
0.0
  0
XRECORD
  5
79D
102
{ACAD_REACTORS
330
781
102
}
330
781
100
AcDbXrecord
 10
0.0
 20
0.0
 30
0.0
  0
XRECORD
  5
79E
102
{ACAD_REACTORS
330
781
102
}
330
781
100
AcDbXrecord
 10
0.0
 20
0.0
 30
0.0
  0
XRECORD
  5
79B
102
{ACAD_REACTORS
330
781
102
}
330
781
100
AcDbXrecord
 10
0.0
 20
0.0
 30
0.0
  0
XRECORD
  5
798
102
{ACAD_REACTORS
330
781
102
}
330
781
100
AcDbXrecord
340
0
  0
XRECORD
  5
799
102
{ACAD_REACTORS
330
781
102
}
330
781
100
AcDbXrecord
 70
     0
  0
XRECORD
  5
78D
102
{ACAD_REACTORS
330
781
102
}
330
781
100
AcDbXrecord
  1
{FA2C1EE2-8DB6-11D6-88E6-0090279574E7}
  0
DICTIONARYVAR
  5
77F
102
{ACAD_REACTORS
330
77E
102
}
330
77E
100
DictionaryVariables
280
     0
  1
1
  0
ENDSEC
  0
EOF
