  0
SECTION
  2
HEADER
  9
$ACADVER
  1
AC1014
  9
$ACADMAINTVER
 70
     9
  9
$DWGCODEPAGE
  3
ANSI_1252
  9
$INSBASE
 10
2.137195127442763
 20
1.959043635883171
 30
0.0
  9
$EXTMIN
 10
0.3773111997730798
 20
1.124481810108011
 30
0.0
  9
$EXTMAX
 10
3.862530521520207
 20
2.031644926107358
 30
0.0
  9
$LIMMIN
 10
0.0
 20
0.0
  9
$LIMMAX
 10
18.0
 20
12.0
  9
$ORTHOMODE
 70
     1
  9
$REGENMODE
 70
     1
  9
$FILLMODE
 70
     1
  9
$QTEXTMODE
 70
     0
  9
$MIRRTEXT
 70
     0
  9
$DRAGMODE
 70
     2
  9
$LTSCALE
 40
1.0
  9
$OSMODE
 70
    39
  9
$ATTMODE
 70
     1
  9
$TEXTSIZE
 40
0.125
  9
$TRACEWID
 40
0.05
  9
$TEXTSTYLE
  7
ROMANS
  9
$CLAYER
  8
0
  9
$CELTYPE
  6
BYLAYER
  9
$CECOLOR
 62
   256
  9
$CELTSCALE
 40
1.0
  9
$DELOBJ
 70
     1
  9
$DISPSILH
 70
     1
  9
$DIMSCALE
 40
1.0
  9
$DIMASZ
 40
0.125
  9
$DIMEXO
 40
0.125
  9
$DIMDLI
 40
0.375
  9
$DIMRND
 40
0.0
  9
$DIMDLE
 40
0.0
  9
$DIMEXE
 40
0.125
  9
$DIMTP
 40
0.0
  9
$DIMTM
 40
0.0
  9
$DIMTXT
 40
0.125
  9
$DIMCEN
 40
-0.125
  9
$DIMTSZ
 40
0.0
  9
$DIMTOL
 70
     0
  9
$DIMLIM
 70
     0
  9
$DIMTIH
 70
     1
  9
$DIMTOH
 70
     1
  9
$DIMSE1
 70
     0
  9
$DIMSE2
 70
     0
  9
$DIMTAD
 70
     0
  9
$DIMZIN
 70
     4
  9
$DIMBLK
  1

  9
$DIMASO
 70
     1
  9
$DIMSHO
 70
     1
  9
$DIMPOST
  1

  9
$DIMAPOST
  1

  9
$DIMALT
 70
     0
  9
$DIMALTD
 70
     2
  9
$DIMALTF
 40
25.4
  9
$DIMLFAC
 40
1.0
  9
$DIMTOFL
 70
     0
  9
$DIMTVP
 40
0.0
  9
$DIMTIX
 70
     1
  9
$DIMSOXD
 70
     0
  9
$DIMSAH
 70
     0
  9
$DIMBLK1
  1

  9
$DIMBLK2
  1

  9
$DIMSTYLE
  2
STANDARD
  9
$DIMCLRD
 70
     0
  9
$DIMCLRE
 70
     0
  9
$DIMCLRT
 70
     0
  9
$DIMTFAC
 40
1.0
  9
$DIMGAP
 40
0.09
  9
$DIMJUST
 70
     0
  9
$DIMSD1
 70
     0
  9
$DIMSD2
 70
     0
  9
$DIMTOLJ
 70
     1
  9
$DIMTZIN
 70
     4
  9
$DIMALTZ
 70
     0
  9
$DIMALTTZ
 70
     0
  9
$DIMFIT
 70
     3
  9
$DIMUPT
 70
     0
  9
$DIMUNIT
 70
     2
  9
$DIMDEC
 70
     3
  9
$DIMTDEC
 70
     3
  9
$DIMALTU
 70
     2
  9
$DIMALTTD
 70
     2
  9
$DIMTXSTY
  7
ROMANS
  9
$DIMAUNIT
 70
     0
  9
$LUNITS
 70
     2
  9
$LUPREC
 70
     3
  9
$SKETCHINC
 40
0.1
  9
$FILLETRAD
 40
0.03125
  9
$AUNITS
 70
     0
  9
$AUPREC
 70
     0
  9
$MENU
  1
ACAD
  9
$ELEVATION
 40
0.0
  9
$PELEVATION
 40
0.0
  9
$THICKNESS
 40
0.0
  9
$LIMCHECK
 70
     0
  9
$BLIPMODE
 70
     0
  9
$CHAMFERA
 40
0.0
  9
$CHAMFERB
 40
0.0
  9
$CHAMFERC
 40
0.0
  9
$CHAMFERD
 40
0.0
  9
$SKPOLY
 70
     0
  9
$TDCREATE
 40
2448994.621031828
  9
$TDUPDATE
 40
2452458.310218379
  9
$TDINDWG
 40
0.0007454282
  9
$TDUSRTIMER
 40
0.0007454282
  9
$USRTIMER
 70
     1
  9
$ANGBASE
 50
0.0
  9
$ANGDIR
 70
     0
  9
$PDMODE
 70
     0
  9
$PDSIZE
 40
0.0
  9
$PLINEWID
 40
0.0
  9
$COORDS
 70
     2
  9
$SPLFRAME
 70
     0
  9
$SPLINETYPE
 70
     6
  9
$SPLINESEGS
 70
     8
  9
$ATTDIA
 70
     0
  9
$ATTREQ
 70
     1
  9
$HANDLING
 70
 22529
  9
$HANDSEED
  5
7DE1B343D9E136F
  9
$SURFTAB1
 70
     6
  9
$SURFTAB2
 70
     6
  9
$SURFTYPE
 70
     6
  9
$SURFU
 70
     6
  9
$SURFV
 70
     6
  9
$UCSNAME
  2

  9
$UCSORG
 10
0.0
 20
0.0
 30
0.0
  9
$UCSXDIR
 10
1.0
 20
0.0
 30
0.0
  9
$UCSYDIR
 10
0.0
 20
1.0
 30
0.0
  9
$PUCSNAME
  2

  9
$PUCSORG
 10
0.0
 20
0.0
 30
0.0
  9
$PUCSXDIR
 10
1.0
 20
0.0
 30
0.0
  9
$PUCSYDIR
 10
0.0
 20
1.0
 30
0.0
  9
$USERI1
 70
     0
  9
$USERI2
 70
     0
  9
$USERI3
 70
     0
  9
$USERI4
 70
     0
  9
$USERI5
 70
     0
  9
$USERR1
 40
0.0
  9
$USERR2
 40
0.0
  9
$USERR3
 40
0.0
  9
$USERR4
 40
0.0
  9
$USERR5
 40
0.0
  9
$WORLDVIEW
 70
     1
  9
$SHADEDGE
 70
     3
  9
$SHADEDIF
 70
    70
  9
$TILEMODE
 70
     1
  9
$MAXACTVP
 70
    16
  9
$PINSBASE
 10
0.0
 20
0.0
 30
0.0
  9
$PLIMCHECK
 70
     0
  9
$PEXTMIN
 10
1.000000000000000E+20
 20
1.000000000000000E+20
 30
1.000000000000000E+20
  9
$PEXTMAX
 10
-1.000000000000000E+20
 20
-1.000000000000000E+20
 30
-1.000000000000000E+20
  9
$PLIMMIN
 10
0.0
 20
0.0
  9
$PLIMMAX
 10
12.0
 20
9.0
  9
$UNITMODE
 70
     0
  9
$VISRETAIN
 70
     0
  9
$PLINEGEN
 70
     1
  9
$PSLTSCALE
 70
     0
  9
$TREEDEPTH
 70
  3020
  9
$PICKSTYLE
 70
     1
  9
$CMLSTYLE
  2
STANDARD
  9
$CMLJUST
 70
     0
  9
$CMLSCALE
 40
1.0
  9
$PROXYGRAPHICS
 70
     1
  9
$MEASUREMENT
 70
     0
  0
ENDSEC
  0
SECTION
  2
CLASSES
  0
CLASS
  1
LWPOLYLINE
  2
AcDbPolyline
  3
AutoCAD 2000
 90
        0
280
     0
281
     1
  0
CLASS
  1
ACDBDICTIONARYWDFLT
  2
AcDbDictionaryWithDefault
  3
AutoCAD 2000
 90
        0
280
     0
281
     0
  0
CLASS
  1
ACDBPLACEHOLDER
  2
AcDbPlaceHolder
  3
AutoCAD 2000
 90
        0
280
     0
281
     0
  0
CLASS
  1
LAYOUT
  2
AcDbLayout
  3
AutoCAD 2000
 90
        0
280
     0
281
     0
  0
CLASS
  1
DICTIONARYVAR
  2
AcDbDictionaryVar
  3
AutoCAD 2000
 90
        0
280
     0
281
     0
  0
CLASS
  1
LONG_TRANSACTION
  2
AcDbLongTransaction
  3
AutoCAD 2000
 90
        0
280
     0
281
     0
  0
CLASS
  1
LWPOLYLINE
  2
AcDbPolyline
  3
AutoCAD 2000
 90
        0
280
     0
281
     1
  0
CLASS
  1
HATCH
  2
AcDbHatch
  3
AutoCAD 2000
 90
        0
280
     0
281
     1
  0
CLASS
  1
XRECORD
  2
AcDbXrecord
  3
AutoCAD 2000
 90
        0
280
     0
281
     0
  0
ENDSEC
  0
SECTION
  2
TABLES
  0
TABLE
  2
VPORT
  5
7DE1B343D9E12FB
330
0
100
AcDbSymbolTable
 70
     2
  0
VPORT
  5
7DE1B343D9E134A
330
7DE1B343D9E12FB
100
AcDbSymbolTableRecord
100
AcDbViewportTableRecord
  2
*ACTIVE
 70
     0
 10
0.0
 20
0.0
 11
1.0
 21
1.0
 12
5.096834980165891
 22
1.578002952479295
 13
0.0
 23
0.0
 14
0.015625
 24
0.015625
 15
0.0
 25
0.0
 16
0.0
 26
0.0
 36
1.0
 17
0.0
 27
0.0
 37
0.0
 40
2.282647215150728
 41
4.320930232558139
 42
50.0
 43
0.0
 44
0.0
 50
0.0
 51
0.0
 71
     0
 72
  2000
 73
     1
 74
     0
 75
     0
 76
     0
 77
     0
 78
     0
  0
ENDTAB
  0
TABLE
  2
LTYPE
  5
7DE1B343D9E12F8
330
0
100
AcDbSymbolTable
 70
     1
  0
LTYPE
  5
7DE1B343D9E1305
330
7DE1B343D9E12F8
100
AcDbSymbolTableRecord
100
AcDbLinetypeTableRecord
  2
BYBLOCK
 70
     0
  3

 72
    65
 73
     0
 40
0.0
  0
LTYPE
  5
7DE1B343D9E1306
330
7DE1B343D9E12F8
100
AcDbSymbolTableRecord
100
AcDbLinetypeTableRecord
  2
BYLAYER
 70
     0
  3

 72
    65
 73
     0
 40
0.0
  0
LTYPE
  5
7DE1B343D9E1307
330
7DE1B343D9E12F8
100
AcDbSymbolTableRecord
100
AcDbLinetypeTableRecord
  2
CONTINUOUS
 70
     0
  3
Solid line
 72
    65
 73
     0
 40
0.0
  0
ENDTAB
  0
TABLE
  2
LAYER
  5
7DE1B343D9E12F5
330
0
100
AcDbSymbolTable
 70
     3
  0
LAYER
  5
7DE1B343D9E1302
330
7DE1B343D9E12F5
100
AcDbSymbolTableRecord
100
AcDbLayerTableRecord
  2
0
 70
     0
 62
     7
  6
CONTINUOUS
  0
LAYER
  5
7DE1B343D9E1312
330
7DE1B343D9E12F5
100
AcDbSymbolTableRecord
100
AcDbLayerTableRecord
  2
TEXT
 70
     0
 62
     3
  6
CONTINUOUS
  0
LAYER
  5
7DE1B343D9E1322
330
7DE1B343D9E12F5
100
AcDbSymbolTableRecord
100
AcDbLayerTableRecord
  2
ASHADE
 70
     4
 62
     7
  6
CONTINUOUS
  0
ENDTAB
  0
TABLE
  2
STYLE
  5
7DE1B343D9E12F6
330
0
100
AcDbSymbolTable
 70
     4
  0
STYLE
  5
7DE1B343D9E1303
330
7DE1B343D9E12F6
100
AcDbSymbolTableRecord
100
AcDbTextStyleTableRecord
  2
STANDARD
 70
     0
 40
0.0
 41
1.0
 50
0.0
 71
     0
 42
0.3125
  3
txt
  4

  0
STYLE
  5
7DE1B343D9E130F
330
7DE1B343D9E12F6
100
AcDbSymbolTableRecord
100
AcDbTextStyleTableRecord
  2
ITALICC
 70
     0
 40
0.0
 41
1.0
 50
0.0
 71
     0
 42
0.125
  3
italicc
  4

  0
STYLE
  5
7DE1B343D9E131F
330
7DE1B343D9E12F6
100
AcDbSymbolTableRecord
100
AcDbTextStyleTableRecord
  2
ASHADE
 70
     0
 40
0.2
 41
1.0
 50
0.0
 71
     0
 42
0.3125
  3
simplex
  4

  0
STYLE
  5
7DE1B343D9E133A
330
7DE1B343D9E12F6
100
AcDbSymbolTableRecord
100
AcDbTextStyleTableRecord
  2
ROMANS
 70
     0
 40
0.0
 41
1.0
 50
0.0
 71
     0
 42
0.125
  3
romans.shx
  4

  0
ENDTAB
  0
TABLE
  2
VIEW
  5
7DE1B343D9E12F9
330
0
100
AcDbSymbolTable
 70
     0
  0
ENDTAB
  0
TABLE
  2
UCS
  5
7DE1B343D9E12FA
330
0
100
AcDbSymbolTable
 70
     0
  0
ENDTAB
  0
TABLE
  2
APPID
  5
7DE1B343D9E12FC
330
0
100
AcDbSymbolTable
 70
     6
  0
APPID
  5
7DE1B343D9E1304
330
7DE1B343D9E12FC
100
AcDbSymbolTableRecord
100
AcDbRegAppTableRecord
  2
ACAD
 70
     0
  0
APPID
  5
7DE1B343D9E1320
330
7DE1B343D9E12FC
100
AcDbSymbolTableRecord
100
AcDbRegAppTableRecord
  2
AVE_RENDER
 70
     0
  0
APPID
  5
7DE1B343D9E1321
330
7DE1B343D9E12FC
100
AcDbSymbolTableRecord
100
AcDbRegAppTableRecord
  2
AVE_ENTITY_MATERIAL
 70
     0
  0
APPID
  5
7DE1B343D9E132E
330
7DE1B343D9E12FC
100
AcDbSymbolTableRecord
100
AcDbRegAppTableRecord
  2
AVE_FINISH
 70
     0
  0
APPID
  5
7DE1B343D9E132F
330
7DE1B343D9E12FC
100
AcDbSymbolTableRecord
100
AcDbRegAppTableRecord
  2
AVE_MATERIAL
 70
     0
  0
APPID
  5
7DE1B343D9E1330
330
7DE1B343D9E12FC
100
AcDbSymbolTableRecord
100
AcDbRegAppTableRecord
  2
AVE_GLOBAL
 70
     0
  0
ENDTAB
  0
TABLE
  2
DIMSTYLE
  5
7DE1B343D9E12FD
330
0
100
AcDbSymbolTable
 70
     1
  0
DIMSTYLE
105
7DE1B343D9E1317
330
7DE1B343D9E12FD
100
AcDbSymbolTableRecord
100
AcDbDimStyleTableRecord
  2
STANDARD
 70
     0
  3

  4

  5

  6

  7

 40
1.0
 41
0.125
 42
0.125
 43
0.375
 44
0.125
 45
0.0
 46
0.0
 47
0.0
 48
0.0
140
0.125
141
-0.125
142
0.0
143
25.4
144
1.0
145
0.0
146
1.0
147
0.09
 71
     0
 72
     0
 73
     1
 74
     1
 75
     0
 76
     0
 77
     0
 78
     4
170
     0
171
     2
172
     0
173
     0
174
     1
175
     0
176
     0
177
     0
178
     0
270
     2
271
     3
272
     3
273
     2
274
     2
340
7DE1B343D9E133A
275
     0
280
     0
281
     0
282
     0
283
     1
284
     4
285
     0
286
     0
287
     3
288
     0
  0
ENDTAB
  0
TABLE
  2
BLOCK_RECORD
  5
7DE1B343D9E12F4
330
0
100
AcDbSymbolTable
 70
     2
  0
BLOCK_RECORD
  5
7DE1B343D9E130B
102
{ACAD_XDICTIONARY
360
7DE1B343D9E136D
102
}
330
7DE1B343D9E12F4
100
AcDbSymbolTableRecord
100
AcDbBlockTableRecord
  2
*MODEL_SPACE
  0
BLOCK_RECORD
  5
7DE1B343D9E1308
102
{ACAD_XDICTIONARY
360
7DE1B343D9E136B
102
}
330
7DE1B343D9E12F4
100
AcDbSymbolTableRecord
100
AcDbBlockTableRecord
  2
*PAPER_SPACE
  0
BLOCK_RECORD
  5
7DE1B343D9E1323
330
7DE1B343D9E12F4
100
AcDbSymbolTableRecord
100
AcDbBlockTableRecord
  2
AVE_RENDER
  0
BLOCK_RECORD
  5
7DE1B343D9E1331
330
7DE1B343D9E12F4
100
AcDbSymbolTableRecord
100
AcDbBlockTableRecord
  2
AVE_GLOBAL
  0
ENDTAB
  0
ENDSEC
  0
SECTION
  2
BLOCKS
  0
BLOCK
  5
7DE1B343D9E1315
330
7DE1B343D9E130B
100
AcDbEntity
  8
0
100
AcDbBlockBegin
  2
*MODEL_SPACE
 70
     0
 10
0.0
 20
0.0
 30
0.0
  3
*MODEL_SPACE
  1

  0
ENDBLK
  5
7DE1B343D9E1316
330
7DE1B343D9E130B
100
AcDbEntity
  8
0
100
AcDbBlockEnd
  0
BLOCK
  5
7DE1B343D9E1313
330
7DE1B343D9E1308
100
AcDbEntity
 67
     1
  8
0
100
AcDbBlockBegin
  2
*PAPER_SPACE
 70
     0
 10
0.0
 20
0.0
 30
0.0
  3
*PAPER_SPACE
  1

  0
ENDBLK
  5
7DE1B343D9E1314
330
7DE1B343D9E1308
100
AcDbEntity
 67
     1
  8
0
100
AcDbBlockEnd
  0
BLOCK
  5
7DE1B343D9E1324
330
7DE1B343D9E1323
100
AcDbEntity
  8
0
100
AcDbBlockBegin
  2
AVE_RENDER
 70
     0
 10
0.0
 20
0.0
 30
0.0
  3
AVE_RENDER
  1
AVE_RENDER
  0
ENDBLK
  5
7DE1B343D9E1325
330
7DE1B343D9E1323
100
AcDbEntity
  8
0
100
AcDbBlockEnd
  0
BLOCK
  5
7DE1B343D9E1332
330
7DE1B343D9E1331
100
AcDbEntity
  8
0
100
AcDbBlockBegin
  2
AVE_GLOBAL
 70
     0
 10
0.0
 20
0.0
 30
0.0
  3
AVE_GLOBAL
  1
AVE_GLOBAL
  0
ENDBLK
  5
7DE1B343D9E1333
330
7DE1B343D9E1331
100
AcDbEntity
  8
0
100
AcDbBlockEnd
  0
ENDSEC
  0
SECTION
  2
ENTITIES
  0
LWPOLYLINE
  5
7DE1B343D9DFDA6
330
7DE1B343D9E130B
100
AcDbEntity
  8
0
100
AcDbPolyline
 90
        8
 70
     1
 43
0.0
 10
2.300042779000222
 20
2.025172839195279
 10
1.940542779000223
 20
2.025172839195279
 42
0.4142135623730951
 10
1.909292779000223
 20
1.993922839195279
 10
1.909292779000223
 20
1.918422839195279
 42
0.4142135623730951
 10
1.940542779000223
 20
1.887172839195279
 10
2.300042779000222
 20
1.887172839195279
 42
0.4142135623730951
 10
2.331292779000222
 20
1.918422839195279
 10
2.331292779000222
 20
1.993922839195279
 42
0.4142135623730951
  0
TEXT
  5
7DE1B343D9E11B6
330
7DE1B343D9E130B
100
AcDbEntity
  8
TEXT
100
AcDbText
 10
1.367316588524032
 20
1.582500414190593
 30
0.0
 40
0.125
  1
PART #110398
  7
ITALICC
 72
     1
 11
2.120292779000223
 21
1.582500414190593
 31
0.0
100
AcDbText
  0
TEXT
  5
7DE1B343D9E11B7
330
7DE1B343D9E130B
100
AcDbEntity
  8
TEXT
100
AcDbText
 10
2.533597937250543
 20
1.135577771518218
 30
0.0
 40
0.0522247191011236
  1
Phone  1-800-328-2495
 41
1.272321428571429
 72
     5
 11
3.862530521520207
 21
1.135577771518218
 31
0.0
100
AcDbText
  0
TEXT
  5
7DE1B343D9E11B8
330
7DE1B343D9E130B
100
AcDbEntity
  8
TEXT
100
AcDbText
 10
2.533597937250543
 20
1.415353052417094
 30
0.0
 40
0.0522247191011236
  1
Stylmark  Incorporated
 41
1.221428571428573
 72
     5
 11
3.862530521520207
 21
1.415353052417094
 31
0.0
100
AcDbText
  0
TEXT
  5
7DE1B343D9E11B9
330
7DE1B343D9E130B
100
AcDbEntity
  8
TEXT
100
AcDbText
 10
2.533597937250543
 20
1.322094625450802
 30
0.0
 40
0.0522247191011236
  1
6536 Main St. N.E. * P.O. Box 32008
 41
0.8388932496075366
 72
     5
 11
3.862530521520207
 21
1.322094625450802
 31
0.0
100
AcDbText
  0
TEXT
  5
7DE1B343D9E11BA
330
7DE1B343D9E130B
100
AcDbEntity
  8
TEXT
100
AcDbText
 10
2.533597937250543
 20
1.22883619848451
 30
0.0
 40
0.0522247191011236
  1
Minneapolis, MN 55432-0008
 41
1.11444212721585
 72
     5
 11
3.862530521520207
 21
1.22883619848451
 31
0.0
100
AcDbText
  0
LWPOLYLINE
  5
7DE1B343D9E11BB
330
7DE1B343D9E130B
100
AcDbEntity
  8
TEXT
100
AcDbPolyline
 90
        3
 70
     0
 43
0.0006660908203125
 10
0.377644245183236
 20
1.249222534155653
 10
0.377644245183236
 20
1.135987094702525
 10
0.4908796846363584
 20
1.135987094702525
  0
LWPOLYLINE
  5
7DE1B343D9E11C0
330
7DE1B343D9E130B
100
AcDbEntity
  8
TEXT
100
AcDbPolyline
 90
        3
 70
     0
 43
0.0006660908203125
 10
0.4042878779957336
 20
1.249222534155653
 10
0.4042878779957336
 20
1.162630727515026
 10
0.4908796846363584
 20
1.162630727515026
  0
LWPOLYLINE
  5
7DE1B343D9E11C5
330
7DE1B343D9E130B
100
AcDbEntity
  8
TEXT
100
AcDbPolyline
 90
        2
 70
     0
 43
0.0001332181640625
 10
0.4509142354176104
 20
1.259213896460338
 10
0.377644245183236
 20
1.249222534155653
  0
LWPOLYLINE
  5
7DE1B343D9E11C9
330
7DE1B343D9E130B
100
AcDbEntity
  8
TEXT
100
AcDbPolyline
 90
        2
 70
     0
 43
0.0001332181640625
 10
0.4042878779957336
 20
1.249222534155653
 10
0.4642360518238609
 20
1.259213896460338
  0
LWPOLYLINE
  5
7DE1B343D9E11CD
330
7DE1B343D9E130B
100
AcDbEntity
  8
TEXT
100
AcDbPolyline
 90
        2
 70
     0
 43
0.0001332181640625
 10
0.4042878779957336
 20
1.162630727515026
 10
0.4642360518238609
 20
1.222578901343152
  0
LWPOLYLINE
  5
7DE1B343D9E11D1
330
7DE1B343D9E130B
100
AcDbEntity
  8
TEXT
100
AcDbPolyline
 90
        3
 70
     0
 43
0.0006660908203125
 10
0.4908796846363584
 20
1.402423422827528
 10
0.377644245183236
 20
1.402423422827528
 10
0.377644245183236
 20
1.289187983374401
  0
LWPOLYLINE
  5
7DE1B343D9E11D6
330
7DE1B343D9E130B
100
AcDbEntity
  8
TEXT
100
AcDbPolyline
 90
        3
 70
     0
 43
0.0006660908203125
 10
0.4908796846363584
 20
1.375779790015027
 10
0.4042878779957336
 20
1.375779790015027
 10
0.4042878779957336
 20
1.289187983374401
  0
LWPOLYLINE
  5
7DE1B343D9E11DB
330
7DE1B343D9E130B
100
AcDbEntity
  8
TEXT
100
AcDbPolyline
 90
        2
 70
     0
 43
0.0001332181640625
 10
0.4042878779957336
 20
1.375779790015027
 10
0.4642360518238591
 20
1.315831616186902
  0
LWPOLYLINE
  5
7DE1B343D9E11DF
330
7DE1B343D9E130B
100
AcDbEntity
  8
TEXT
100
AcDbPolyline
 90
        2
 70
     0
 43
0.0001332181640625
 10
0.4042878779957336
 20
1.289187983374401
 10
0.4642360518238591
 20
1.279196621069712
  0
LWPOLYLINE
  5
7DE1B343D9E11E3
330
7DE1B343D9E130B
100
AcDbEntity
  8
TEXT
100
AcDbPolyline
 90
        2
 70
     0
 43
0.0001332181640625
 10
0.377644245183236
 20
1.289187983374401
 10
0.4509142354176104
 20
1.279196621069712
  0
LWPOLYLINE
  5
7DE1B343D9E11E7
330
7DE1B343D9E130B
100
AcDbEntity
  8
TEXT
100
AcDbPolyline
 90
        2
 70
     0
 43
0.0006660908203125
 10
0.4042878779957336
 20
1.249222534155653
 10
0.377644245183236
 20
1.249222534155653
  0
LWPOLYLINE
  5
7DE1B343D9E11EB
330
7DE1B343D9E130B
100
AcDbEntity
  8
TEXT
100
AcDbPolyline
 90
        2
 70
     0
 43
0.0006660908203125
 10
0.4042878779957336
 20
1.289187983374401
 10
0.377644245183236
 20
1.289187983374401
  0
LINE
  5
7DE1B343D9E11EF
330
7DE1B343D9E130B
100
AcDbEntity
  8
TEXT
100
AcDbLine
 10
1.892834674309733
 20
1.338146728170759
 30
0.0
 11
1.785628400922444
 21
1.338146728170759
 31
0.0
  0
LINE
  5
7DE1B343D9E11F0
330
7DE1B343D9E130B
100
AcDbEntity
  8
TEXT
100
AcDbLine
 10
1.921865572654212
 20
1.402423422827525
 30
0.0
 11
1.787033663437152
 21
1.402423422827525
 31
0.0
  0
ARC
  5
7DE1B343D9E11F1
330
7DE1B343D9E130B
100
AcDbEntity
  8
TEXT
100
AcDbCircle
 10
1.846347759830469
 20
1.233186173564508
 30
0.0
 40
0.0676855811441166
100
AcDbArc
 50
90.0
 51
153.7768192527749
  0
LWPOLYLINE
  5
7DE1B343D9E11F2
330
7DE1B343D9E130B
100
AcDbEntity
  8
TEXT
100
AcDbPolyline
 90
        2
 70
     0
 43
0.0
 10
1.784595905467634
 20
1.179441334789452
 42
0.2901071551932823
 10
1.827671838335269
 20
1.135950389839014
 42
5.328517124445801
  0
ARC
  5
7DE1B343D9E11F6
330
7DE1B343D9E130B
100
AcDbEntity
  8
TEXT
100
AcDbCircle
 10
1.141216382158984
 20
1.195742781177064
 30
0.0
 40
0.0601160179737537
100
AcDbArc
 50
180.0000000000003
 51
264.0521544866073
  0
LINE
  5
7DE1B343D9E11F7
330
7DE1B343D9E130B
100
AcDbEntity
  8
TEXT
100
AcDbLine
 10
1.144731737784531
 20
1.436811340421663
 30
0.0
 11
1.084689132940524
 21
1.436811340421663
 31
0.0
  0
ARC
  5
7DE1B343D9E11F8
330
7DE1B343D9E130B
100
AcDbEntity
  8
TEXT
100
AcDbCircle
 10
0.9089573800420133
 20
1.320335963381023
 30
0.0
 40
0.0820874594465043
100
AcDbArc
 50
90.0
 51
270.0
  0
LWPOLYLINE
  5
7DE1B343D9E11F9
330
7DE1B343D9E130B
100
AcDbEntity
  8
TEXT
100
AcDbPolyline
 90
        2
 70
     0
 43
0.0001332181640625
 10
0.5008710469410489
 20
1.329153432593149
 10
0.4908796846363584
 20
1.402423422827528
  0
LWPOLYLINE
  5
7DE1B343D9E11FD
330
7DE1B343D9E130B
100
AcDbEntity
  8
TEXT
100
AcDbPolyline
 90
        2
 70
     0
 43
0.0001332181640625
 10
0.4908796846363584
 20
1.375779790015027
 10
0.5008710469410489
 20
1.315831616186902
  0
LWPOLYLINE
  5
7DE1B343D9E1201
330
7DE1B343D9E130B
100
AcDbEntity
  8
TEXT
100
AcDbPolyline
 90
        3
 70
     0
 43
0.0006660908203125
 10
0.6440805733082358
 20
1.289187983374401
 10
0.6440805733082358
 20
1.402423422827528
 10
0.5308451338551099
 20
1.402423422827528
  0
LWPOLYLINE
  5
7DE1B343D9E1206
330
7DE1B343D9E130B
100
AcDbEntity
  8
TEXT
100
AcDbPolyline
 90
        3
 70
     0
 43
0.0006660908203125
 10
0.6174369404957348
 20
1.289187983374401
 10
0.6174369404957348
 20
1.375779790015027
 10
0.5308451338551099
 20
1.375779790015027
  0
LWPOLYLINE
  5
7DE1B343D9E120B
330
7DE1B343D9E130B
100
AcDbEntity
  8
TEXT
100
AcDbPolyline
 90
        2
 70
     0
 43
0.0001332181640625
 10
0.6174369404957348
 20
1.375779790015027
 10
0.557488766667611
 20
1.315831616186902
  0
LWPOLYLINE
  5
7DE1B343D9E120F
330
7DE1B343D9E130B
100
AcDbEntity
  8
TEXT
100
AcDbPolyline
 90
        2
 70
     0
 43
0.0001332181640625
 10
0.5308451338551099
 20
1.375779790015027
 10
0.5208537715504212
 20
1.315831616186902
  0
LWPOLYLINE
  5
7DE1B343D9E1213
330
7DE1B343D9E130B
100
AcDbEntity
  8
TEXT
100
AcDbPolyline
 90
        2
 70
     0
 43
0.0001332181640625
 10
0.5308451338551099
 20
1.402423422827528
 10
0.5208537715504212
 20
1.329153432593149
  0
LWPOLYLINE
  5
7DE1B343D9E1217
330
7DE1B343D9E130B
100
AcDbEntity
  8
TEXT
100
AcDbPolyline
 90
        2
 70
     0
 43
0.0001332181640625
 10
0.5708105830738597
 20
1.279196621069712
 10
0.6440805733082358
 20
1.289187983374401
  0
LWPOLYLINE
  5
7DE1B343D9E121B
330
7DE1B343D9E130B
100
AcDbEntity
  8
TEXT
100
AcDbPolyline
 90
        2
 70
     0
 43
0.0001332181640625
 10
0.6174369404957348
 20
1.289187983374401
 10
0.557488766667611
 20
1.279196621069712
  0
LWPOLYLINE
  5
7DE1B343D9E121F
330
7DE1B343D9E130B
100
AcDbEntity
  8
TEXT
100
AcDbPolyline
 90
        2
 70
     0
 43
0.0001332181640625
 10
0.6440805733082358
 20
1.249222534155653
 10
0.5708105830738597
 20
1.259213896460338
  0
LWPOLYLINE
  5
7DE1B343D9E1223
330
7DE1B343D9E130B
100
AcDbEntity
  8
TEXT
100
AcDbPolyline
 90
        2
 70
     0
 43
0.0001332181640625
 10
0.6174369404957348
 20
1.249222534155653
 10
0.557488766667611
 20
1.259213896460338
  0
LWPOLYLINE
  5
7DE1B343D9E1227
330
7DE1B343D9E130B
100
AcDbEntity
  8
TEXT
100
AcDbPolyline
 90
        2
 70
     0
 43
0.0001332181640625
 10
0.6174369404957348
 20
1.162630727515026
 10
0.557488766667611
 20
1.222578901343152
  0
LWPOLYLINE
  5
7DE1B343D9E122B
330
7DE1B343D9E130B
100
AcDbEntity
  8
TEXT
100
AcDbPolyline
 90
        3
 70
     0
 43
0.0006660908203125
 10
0.5308451338551099
 20
1.162630727515026
 10
0.6174369404957348
 20
1.162630727515026
 10
0.6174369404957348
 20
1.249222534155653
  0
LWPOLYLINE
  5
7DE1B343D9E1230
330
7DE1B343D9E130B
100
AcDbEntity
  8
TEXT
100
AcDbPolyline
 90
        3
 70
     0
 43
0.0006660908203125
 10
0.5308451338551099
 20
1.135987094702525
 10
0.6440805733082358
 20
1.135987094702525
 10
0.6440805733082358
 20
1.249222534155653
  0
LWPOLYLINE
  5
7DE1B343D9E1235
330
7DE1B343D9E130B
100
AcDbEntity
  8
TEXT
100
AcDbPolyline
 90
        5
 70
     0
 43
0.0001332181640625
 10
0.5008710469410489
 20
1.209257084936901
 10
0.5008710469410489
 20
1.222578901343152
 10
0.4642360518238609
 20
1.222578901343152
 10
0.4642360518238609
 20
1.259213896460338
 10
0.4509142354176104
 20
1.259213896460338
  0
LWPOLYLINE
  5
7DE1B343D9E123C
330
7DE1B343D9E130B
100
AcDbEntity
  8
TEXT
100
AcDbPolyline
 90
        2
 70
     0
 43
0.0006660908203125
 10
0.4908796846363584
 20
1.162630727515026
 10
0.4908796846363584
 20
1.135987094702525
  0
LWPOLYLINE
  5
7DE1B343D9E1240
330
7DE1B343D9E130B
100
AcDbEntity
  8
TEXT
100
AcDbPolyline
 90
        2
 70
     0
 43
0.0001332181640625
 10
0.4908796846363584
 20
1.162630727515026
 10
0.5008710469410489
 20
1.222578901343152
  0
LWPOLYLINE
  5
7DE1B343D9E1244
330
7DE1B343D9E130B
100
AcDbEntity
  8
TEXT
100
AcDbPolyline
 90
        2
 70
     0
 43
0.0001332181640625
 10
0.4908796846363584
 20
1.135987094702525
 10
0.5008710469410489
 20
1.209257084936901
  0
LWPOLYLINE
  5
7DE1B343D9E1248
330
7DE1B343D9E130B
100
AcDbEntity
  8
TEXT
100
AcDbPolyline
 90
        5
 70
     0
 43
0.0001332181640625
 10
0.4509142354176104
 20
1.279196621069712
 10
0.4642360518238591
 20
1.279196621069712
 10
0.4642360518238591
 20
1.315831616186902
 10
0.5008710469410489
 20
1.315831616186902
 10
0.5008710469410489
 20
1.329153432593149
  0
LWPOLYLINE
  5
7DE1B343D9E124F
330
7DE1B343D9E130B
100
AcDbEntity
  8
TEXT
100
AcDbPolyline
 90
        5
 70
     0
 43
0.0001332181640625
 10
0.5208537715504212
 20
1.329153432593149
 10
0.5208537715504212
 20
1.315831616186902
 10
0.557488766667611
 20
1.315831616186902
 10
0.557488766667611
 20
1.279196621069712
 10
0.5708105830738597
 20
1.279196621069712
  0
LWPOLYLINE
  5
7DE1B343D9E1256
330
7DE1B343D9E130B
100
AcDbEntity
  8
TEXT
100
AcDbPolyline
 90
        2
 70
     0
 43
0.0001332181640625
 10
0.5308451338551099
 20
1.162630727515026
 10
0.5208537715504212
 20
1.222578901343152
  0
LWPOLYLINE
  5
7DE1B343D9E125A
330
7DE1B343D9E130B
100
AcDbEntity
  8
TEXT
100
AcDbPolyline
 90
        2
 70
     0
 43
0.0001332181640625
 10
0.5208537715504212
 20
1.209257084936901
 10
0.5308451338551099
 20
1.135987094702525
  0
LWPOLYLINE
  5
7DE1B343D9E125E
330
7DE1B343D9E130B
100
AcDbEntity
  8
TEXT
100
AcDbPolyline
 90
        2
 70
     0
 43
0.0006660908203125
 10
0.5308451338551099
 20
1.162630727515026
 10
0.5308451338551099
 20
1.135987094702525
  0
LWPOLYLINE
  5
7DE1B343D9E1262
330
7DE1B343D9E130B
100
AcDbEntity
  8
TEXT
100
AcDbPolyline
 90
        5
 70
     0
 43
0.0001332181640625
 10
0.5708105830738597
 20
1.259213896460338
 10
0.557488766667611
 20
1.259213896460338
 10
0.557488766667611
 20
1.222578901343152
 10
0.5208537715504212
 20
1.222578901343152
 10
0.5208537715504212
 20
1.209257084936901
  0
LWPOLYLINE
  5
7DE1B343D9E1269
330
7DE1B343D9E130B
100
AcDbEntity
  8
TEXT
100
AcDbPolyline
 90
        2
 70
     0
 43
0.0006660908203125
 10
0.6174369404957348
 20
1.289187983374401
 10
0.6440805733082358
 20
1.289187983374401
  0
LWPOLYLINE
  5
7DE1B343D9E126D
330
7DE1B343D9E130B
100
AcDbEntity
  8
TEXT
100
AcDbPolyline
 90
        2
 70
     0
 43
0.0006660908203125
 10
0.6174369404957348
 20
1.249222534155653
 10
0.6440805733082358
 20
1.249222534155653
  0
LINE
  5
7DE1B343D9E1271
330
7DE1B343D9E130B
100
AcDbEntity
  8
TEXT
100
AcDbLine
 10
0.9141947101562607
 20
1.338146728170759
 30
0.0
 11
1.081100364185231
 21
1.338146728170759
 31
0.0
  0
LINE
  5
7DE1B343D9E1272
330
7DE1B343D9E130B
100
AcDbEntity
  8
TEXT
100
AcDbLine
 10
0.9797948464005617
 20
1.302342006560131
 30
0.0
 11
0.9141947101562607
 21
1.302342006560131
 31
0.0
  0
LINE
  5
7DE1B343D9E1273
330
7DE1B343D9E130B
100
AcDbEntity
  8
TEXT
100
AcDbLine
 10
0.8268699205955091
 20
1.135950389839014
 30
0.0
 11
0.9797948464005617
 21
1.135950389839014
 31
0.0
  0
LINE
  5
7DE1B343D9E1274
330
7DE1B343D9E130B
100
AcDbEntity
  8
TEXT
100
AcDbLine
 10
0.9847352203068414
 20
1.204307396172453
 30
0.0
 11
0.8268699205955073
 21
1.204307396172453
 31
0.0
  0
LINE
  5
7DE1B343D9E1275
330
7DE1B343D9E130B
100
AcDbEntity
  8
TEXT
100
AcDbLine
 10
0.9089573800420126
 20
1.238248503934518
 30
0.0
 11
0.9847352203068414
 21
1.238248503934518
 31
0.0
  0
ARC
  5
7DE1B343D9E1276
330
7DE1B343D9E130B
100
AcDbEntity
  8
TEXT
100
AcDbCircle
 10
0.9141947101562614
 20
1.320244367365447
 30
0.0
 40
0.017902360805315
100
AcDbArc
 50
90.0
 51
270.0
  0
LINE
  5
7DE1B343D9E1277
330
7DE1B343D9E130B
100
AcDbEntity
  8
TEXT
100
AcDbLine
 10
0.8268699205955073
 20
1.204307396172453
 30
0.0
 11
0.8268699205955091
 21
1.135950389839014
 31
0.0
  0
LINE
  5
7DE1B343D9E1278
330
7DE1B343D9E130B
100
AcDbEntity
  8
TEXT
100
AcDbLine
 10
1.081100364185231
 20
1.338146728170759
 30
0.0
 11
1.081100364185231
 21
1.195742781177064
 31
0.0
  0
ARC
  5
7DE1B343D9E1279
330
7DE1B343D9E130B
100
AcDbEntity
  8
TEXT
100
AcDbCircle
 10
0.9797948464005624
 20
1.219146198199571
 30
0.0
 40
0.0831958083605586
100
AcDbArc
 50
270.0
 51
90.0
  0
ARC
  5
7DE1B343D9E127A
330
7DE1B343D9E130B
100
AcDbEntity
  8
TEXT
100
AcDbCircle
 10
0.9847352203068421
 20
1.221277950053487
 30
0.0
 40
0.0169705538810321
100
AcDbArc
 50
270.0
 51
90.0
  0
LWPOLYLINE
  5
7DE1B343D9E127B
330
7DE1B343D9E130B
100
AcDbEntity
  8
TEXT
100
AcDbPolyline
 90
        2
 70
     0
 43
0.0006660908203125
 10
0.4908796846363584
 20
1.375779790015027
 10
0.4908796846363584
 20
1.402423422827528
  0
LWPOLYLINE
  5
7DE1B343D9E127F
330
7DE1B343D9E130B
100
AcDbEntity
  8
TEXT
100
AcDbPolyline
 90
        2
 70
     0
 43
0.0006660908203125
 10
0.5308451338551099
 20
1.375779790015027
 10
0.5308451338551099
 20
1.402423422827528
  0
LINE
  5
7DE1B343D9E1283
330
7DE1B343D9E130B
100
AcDbEntity
  8
TEXT
100
AcDbLine
 10
1.084689132940524
 20
1.402423422827525
 30
0.0
 11
0.9089573800420126
 21
1.402423422827525
 31
0.0
  0
LINE
  5
7DE1B343D9E1284
330
7DE1B343D9E130B
100
AcDbEntity
  8
TEXT
100
AcDbLine
 10
1.084689132940524
 20
1.436811340421663
 30
0.0
 11
1.084689132940524
 21
1.402423422827525
 31
0.0
  0
LINE
  5
7DE1B343D9E1285
330
7DE1B343D9E130B
100
AcDbEntity
  8
TEXT
100
AcDbLine
 10
1.275161024960377
 20
1.301551426714404
 30
0.0
 11
1.216530703928439
 21
1.402423422827525
 31
0.0
  0
LINE
  5
7DE1B343D9E1286
330
7DE1B343D9E130B
100
AcDbEntity
  8
TEXT
100
AcDbLine
 10
1.333909587766242
 20
1.402423422827525
 30
0.0
 11
1.275161024960377
 21
1.301551426714404
 31
0.0
  0
LINE
  5
7DE1B343D9E1287
330
7DE1B343D9E130B
100
AcDbEntity
  8
TEXT
100
AcDbLine
 10
1.430840213125983
 20
1.218338227942013
 30
0.0
 11
1.430840213125983
 21
1.470434900566335
 31
0.0
  0
LINE
  5
7DE1B343D9E1288
330
7DE1B343D9E130B
100
AcDbEntity
  8
TEXT
100
AcDbLine
 10
1.463152067263643
 20
1.402423422827525
 30
0.0
 11
1.463152067263643
 21
1.201559216095116
 31
0.0
  0
LINE
  5
7DE1B343D9E1289
330
7DE1B343D9E130B
100
AcDbEntity
  8
TEXT
100
AcDbLine
 10
1.463152067263643
 20
1.201559216095116
 30
0.0
 11
1.446158430379042
 21
1.201559216095116
 31
0.0
  0
LINE
  5
7DE1B343D9E128A
330
7DE1B343D9E130B
100
AcDbEntity
  8
TEXT
100
AcDbLine
 10
1.431979786622178
 20
1.135950389839014
 30
0.0
 11
1.529983120321613
 21
1.135950389839014
 31
0.0
  0
LINE
  5
7DE1B343D9E128B
330
7DE1B343D9E130B
100
AcDbEntity
  8
TEXT
100
AcDbLine
 10
1.265560787963422
 20
1.155908895944027
 30
0.0
 11
1.362860494056867
 21
1.320259106879295
 31
0.0
  0
ARC
  5
7DE1B343D9E128C
330
7DE1B343D9E130B
100
AcDbEntity
  8
TEXT
100
AcDbCircle
 10
1.231517228051208
 20
1.175498112112709
 30
0.0
 40
0.0392772371940762
100
AcDbArc
 50
270.1604552698595
 51
330.0831797321295
  0
LINE
  5
7DE1B343D9E128D
330
7DE1B343D9E130B
100
AcDbEntity
  8
TEXT
100
AcDbLine
 10
1.134986971665337
 20
1.135950389839014
 30
0.0
 11
1.231627222740331
 21
1.136221028937296
 31
0.0
  0
LWPOLYLINE
  5
7DE1B343D9E128E
330
7DE1B343D9E130B
100
AcDbEntity
  8
TEXT
100
AcDbPolyline
 90
        6
 70
     1
 43
0.0
 10
1.177510775240487
 20
1.338146728170759
 10
1.147194181020279
 20
1.338146728170759
 10
1.147194181020279
 20
1.215035730115865
 42
0.407328721240804
 10
1.158737832181755
 20
1.203216815439479
 10
1.219359531226486
 20
1.203216815439479
 10
1.236824871633804
 20
1.236029044482958
  0
LINE
  5
7DE1B343D9E1296
330
7DE1B343D9E130B
100
AcDbEntity
  8
TEXT
100
AcDbLine
 10
1.362860494056867
 20
1.320259106879295
 30
0.0
 11
1.362860494056867
 21
1.187501732053938
 31
0.0
  0
ARC
  5
7DE1B343D9E1297
330
7DE1B343D9E130B
100
AcDbEntity
  8
TEXT
100
AcDbCircle
 10
1.44615843037904
 20
1.216941022338542
 30
0.0
 40
0.0153818062434269
100
AcDbArc
 50
174.7883570302258
 51
270.0
  0
LWPOLYLINE
  5
7DE1B343D9E1298
330
7DE1B343D9E130B
100
AcDbEntity
  8
TEXT
100
AcDbPolyline
 90
        2
 70
     0
 43
0.0
 10
1.362860494056865
 20
1.187501732053942
 42
0.3318488747599744
 10
1.431979786622178
 20
1.135950389839014
 42
-6.868794160588311
  0
LINE
  5
7DE1B343D9E129C
330
7DE1B343D9E130B
100
AcDbEntity
  8
TEXT
100
AcDbLine
 10
1.587372189310874
 20
1.135950389839014
 30
0.0
 11
1.654430236092714
 21
1.135950389839014
 31
0.0
  0
LINE
  5
7DE1B343D9E129D
330
7DE1B343D9E130B
100
AcDbEntity
  8
TEXT
100
AcDbLine
 10
1.587372189310874
 20
1.330592939004649
 30
0.0
 11
1.587372189310874
 21
1.135950389839014
 31
0.0
  0
LINE
  5
7DE1B343D9E129E
330
7DE1B343D9E130B
100
AcDbEntity
  8
TEXT
100
AcDbLine
 10
1.529983120321613
 20
1.338146728170759
 30
0.0
 11
1.57981840014476
 21
1.338146728170759
 31
0.0
  0
LINE
  5
7DE1B343D9E129F
330
7DE1B343D9E130B
100
AcDbEntity
  8
TEXT
100
AcDbLine
 10
1.529983120321613
 20
1.135950389839014
 30
0.0
 11
1.529983120321613
 21
1.338146728170759
 31
0.0
  0
LWPOLYLINE
  5
7DE1B343D9E12A0
330
7DE1B343D9E130B
100
AcDbEntity
  8
TEXT
100
AcDbPolyline
 90
        2
 70
     0
 43
0.0
 10
1.579818400144759
 20
1.338146728170759
 42
-0.4142135623731017
 10
1.587372189310872
 20
1.330592939004649
 42
-0.9999999999999998
  0
LINE
  5
7DE1B343D9E12A4
330
7DE1B343D9E130B
100
AcDbEntity
  8
TEXT
100
AcDbLine
 10
1.785628400922444
 20
1.338146728170759
 30
0.0
 11
1.785628400922444
 21
1.263094322096553
 31
0.0
  0
LINE
  5
7DE1B343D9E12A5
330
7DE1B343D9E130B
100
AcDbEntity
  8
TEXT
100
AcDbLine
 10
1.654430236092714
 20
1.338146728170759
 30
0.0
 11
1.708563833013664
 21
1.338146728170759
 31
0.0
  0
LINE
  5
7DE1B343D9E12A6
330
7DE1B343D9E130B
100
AcDbEntity
  8
TEXT
100
AcDbLine
 10
1.654430236092714
 20
1.135950389839014
 30
0.0
 11
1.654430236092714
 21
1.338146728170759
 31
0.0
  0
LWPOLYLINE
  5
7DE1B343D9E12A7
330
7DE1B343D9E130B
100
AcDbEntity
  8
TEXT
100
AcDbPolyline
 90
        2
 70
     0
 43
0.0
 10
1.708563833013662
 20
1.338146728170759
 42
-0.4142135623731017
 10
1.716117622179776
 20
1.330592939004649
 42
-0.9999999999999998
  0
LWPOLYLINE
  5
7DE1B343D9E12AB
330
7DE1B343D9E130B
100
AcDbEntity
  8
TEXT
100
AcDbPolyline
 90
        4
 70
     0
 43
0.0
 10
1.716117622179776
 20
1.330592939004649
 10
1.716117622179776
 20
1.135950389839014
 10
1.784595905467634
 20
1.135950389839014
 10
1.784595905467634
 20
1.179441334789452
 42
-1.714843617202739
  0
LINE
  5
7DE1B343D9E12B1
330
7DE1B343D9E130B
100
AcDbEntity
  8
TEXT
100
AcDbLine
 10
1.144731737784531
 20
1.402423422827525
 30
0.0
 11
1.144731737784531
 21
1.436811340421663
 31
0.0
  0
LINE
  5
7DE1B343D9E12B2
330
7DE1B343D9E130B
100
AcDbEntity
  8
TEXT
100
AcDbLine
 10
1.216530703928439
 20
1.402423422827525
 30
0.0
 11
1.144731737784531
 21
1.402423422827525
 31
0.0
  0
LINE
  5
7DE1B343D9E12B3
330
7DE1B343D9E130B
100
AcDbEntity
  8
TEXT
100
AcDbLine
 10
1.364031500559618
 20
1.402423422827525
 30
0.0
 11
1.333909587766242
 21
1.402423422827525
 31
0.0
  0
LINE
  5
7DE1B343D9E12B4
330
7DE1B343D9E130B
100
AcDbEntity
  8
TEXT
100
AcDbLine
 10
1.364031500559618
 20
1.470434900566335
 30
0.0
 11
1.364031500559618
 21
1.402423422827525
 31
0.0
  0
LINE
  5
7DE1B343D9E12B5
330
7DE1B343D9E130B
100
AcDbEntity
  8
TEXT
100
AcDbLine
 10
1.430840213125983
 20
1.470434900566335
 30
0.0
 11
1.364031500559618
 21
1.470434900566335
 31
0.0
  0
LWPOLYLINE
  5
7DE1B343D9E12B6
330
7DE1B343D9E130B
100
AcDbEntity
  8
TEXT
100
AcDbPolyline
 90
        3
 70
     0
 43
0.0
 10
1.751251972723986
 20
1.402423422827528
 10
1.632951813907941
 20
1.402423422827528
 10
1.632951813907941
 20
1.375255926066632
 42
-1.960274751411753
  0
LINE
  5
7DE1B343D9E12BB
330
7DE1B343D9E130B
100
AcDbEntity
  8
TEXT
100
AcDbLine
 10
1.59717012319478
 20
1.402423422827525
 30
0.0
 11
1.463152067263643
 21
1.402423422827525
 31
0.0
  0
LWPOLYLINE
  5
7DE1B343D9E12BC
330
7DE1B343D9E130B
100
AcDbEntity
  8
TEXT
100
AcDbPolyline
 90
        2
 70
     0
 43
0.0
 10
1.59717012319478
 20
1.402423422827528
 42
-0.3328679258950098
 10
1.632951813907941
 20
1.375255926066632
 42
6.772930709997214
  0
LINE
  5
7DE1B343D9E12C0
330
7DE1B343D9E130B
100
AcDbEntity
  8
TEXT
100
AcDbLine
 10
1.787033663437152
 20
1.402423422827525
 30
0.0
 11
1.787033663437152
 21
1.374100877057881
 31
0.0
  0
LWPOLYLINE
  5
7DE1B343D9E12C1
330
7DE1B343D9E130B
100
AcDbEntity
  8
TEXT
100
AcDbPolyline
 90
        2
 70
     0
 43
0.0
 10
1.751251972723986
 20
1.402423422827528
 42
-0.3277054968067132
 10
1.787033663437151
 20
1.374100877057884
 42
6.667889725900311
  0
LINE
  5
7DE1B343D9E12C5
330
7DE1B343D9E130B
100
AcDbEntity
  8
TEXT
100
AcDbLine
 10
2.000825511529253
 20
1.297211444274097
 30
0.0
 11
1.957074740347351
 21
1.379461720270243
 31
0.0
  0
LINE
  5
7DE1B343D9E12C6
330
7DE1B343D9E130B
100
AcDbEntity
  8
TEXT
100
AcDbLine
 10
2.000825511529253
 20
1.402423422827525
 30
0.0
 11
2.000825511529253
 21
1.297211444274097
 31
0.0
  0
LINE
  5
7DE1B343D9E12C7
330
7DE1B343D9E130B
100
AcDbEntity
  8
TEXT
100
AcDbLine
 10
2.228509250467622
 20
1.326558096415987
 30
0.0
 11
2.228509250467622
 21
1.467887628595125
 31
0.0
  0
LINE
  5
7DE1B343D9E12C8
330
7DE1B343D9E130B
100
AcDbEntity
  8
TEXT
100
AcDbLine
 10
2.275607409023606
 20
1.402423422827525
 30
0.0
 11
2.228509250467622
 21
1.326558096415987
 31
0.0
  0
LINE
  5
7DE1B343D9E12C9
330
7DE1B343D9E130B
100
AcDbEntity
  8
TEXT
100
AcDbLine
 10
2.286042125787529
 20
1.292530179886551
 30
0.0
 11
2.350599241753234
 21
1.402423422827525
 31
0.0
  0
LINE
  5
7DE1B343D9E12CA
330
7DE1B343D9E130B
100
AcDbEntity
  8
TEXT
100
AcDbLine
 10
2.164674259244848
 20
1.135950389839014
 30
0.0
 11
2.229052443563469
 21
1.135950389839014
 31
0.0
  0
LWPOLYLINE
  5
7DE1B343D9E12CB
330
7DE1B343D9E130B
100
AcDbEntity
  8
TEXT
100
AcDbPolyline
 90
        2
 70
     0
 43
0.0
 10
2.00476518883429
 20
1.179441334789452
 42
-0.2901071551932486
 10
1.961689255966646
 20
1.135950389839014
 42
-5.328517124445184
  0
ARC
  5
7DE1B343D9E12CF
330
7DE1B343D9E130B
100
AcDbEntity
  8
TEXT
100
AcDbCircle
 10
1.892834674309731
 20
1.309787353170762
 30
0.0
 40
0.028359375
100
AcDbArc
 50
25.78218179591245
 51
90.0
  0
LINE
  5
7DE1B343D9E12D0
330
7DE1B343D9E130B
100
AcDbEntity
  8
TEXT
100
AcDbLine
 10
1.928635749613854
 20
1.300871754708627
 30
0.0
 11
1.91837098920029
 21
1.322122294281321
 31
0.0
  0
LINE
  5
7DE1B343D9E12D1
330
7DE1B343D9E130B
100
AcDbEntity
  8
TEXT
100
AcDbLine
 10
1.846347759830471
 20
1.300871754708627
 30
0.0
 11
1.928635749613854
 21
1.300871754708627
 31
0.0
  0
LWPOLYLINE
  5
7DE1B343D9E12D2
330
7DE1B343D9E130B
100
AcDbEntity
  8
TEXT
100
AcDbPolyline
 90
        4
 70
     1
 43
0.0
 10
1.941566790896753
 20
1.238914367823039
 10
1.852906472236895
 20
1.238914367823039
 42
0.9999999999999998
 10
1.852906472236895
 20
1.196515827319178
 10
1.941566790896753
 20
1.196515827319178
 42
1.0
  0
LWPOLYLINE
  5
7DE1B343D9E12D8
330
7DE1B343D9E130B
100
AcDbEntity
  8
TEXT
100
AcDbPolyline
 90
        2
 70
     0
 43
0.0
 10
1.827671838335269
 20
1.135950389839014
 10
1.961689255966646
 20
1.135950389839014
 42
0.9999999999999998
  0
LINE
  5
7DE1B343D9E12DC
330
7DE1B343D9E130B
100
AcDbEntity
  8
TEXT
100
AcDbLine
 10
2.088026277952285
 20
1.338146728170759
 30
0.0
 11
2.164674259244843
 21
1.338146728170759
 31
0.0
  0
LINE
  5
7DE1B343D9E12DD
330
7DE1B343D9E130B
100
AcDbEntity
  8
TEXT
100
AcDbLine
 10
2.164674259244843
 20
1.338146728170759
 30
0.0
 11
2.164674259244848
 21
1.135950389839014
 31
0.0
  0
ARC
  5
7DE1B343D9E12DE
330
7DE1B343D9E130B
100
AcDbEntity
  8
TEXT
100
AcDbCircle
 10
2.088026277952284
 20
1.313240852888096
 30
0.0
 40
0.0249058752826653
100
AcDbArc
 50
89.99971217465335
 51
179.9999999999985
  0
LINE
  5
7DE1B343D9E12DF
330
7DE1B343D9E130B
100
AcDbEntity
  8
TEXT
100
AcDbLine
 10
2.063120402669626
 20
1.135950389839014
 30
0.0
 11
2.063120402669621
 21
1.313240895270482
 31
0.0
  0
LWPOLYLINE
  5
7DE1B343D9E12E0
330
7DE1B343D9E130B
100
AcDbEntity
  8
TEXT
100
AcDbPolyline
 90
        2
 70
     0
 43
0.0
 10
2.00476518883429
 20
1.135950389839014
 10
2.063120402669624
 20
1.135950389839014
  0
LWPOLYLINE
  5
7DE1B343D9E12E4
330
7DE1B343D9E130B
100
AcDbEntity
  8
TEXT
100
AcDbPolyline
 90
        2
 70
     0
 43
0.0
 10
2.00476518883429
 20
1.179441334789452
 10
2.00476518883429
 20
1.135950389839014
  0
LINE
  5
7DE1B343D9E12E8
330
7DE1B343D9E130B
100
AcDbEntity
  8
TEXT
100
AcDbLine
 10
2.381534349151139
 20
1.135950389839014
 30
0.0
 11
2.286042125787529
 21
1.292530179886551
 31
0.0
  0
LINE
  5
7DE1B343D9E12E9
330
7DE1B343D9E130B
100
AcDbEntity
  8
TEXT
100
AcDbLine
 10
2.304955976774933
 20
1.135950389839014
 30
0.0
 11
2.381534349151139
 21
1.135950389839014
 31
0.0
  0
LINE
  5
7DE1B343D9E12EA
330
7DE1B343D9E130B
100
AcDbEntity
  8
TEXT
100
AcDbLine
 10
2.229052443563469
 20
1.267529958315194
 30
0.0
 11
2.304955976774933
 21
1.135950389839014
 31
0.0
  0
LINE
  5
7DE1B343D9E12EB
330
7DE1B343D9E130B
100
AcDbEntity
  8
TEXT
100
AcDbLine
 10
2.229052443563469
 20
1.135950389839014
 30
0.0
 11
2.229052443563469
 21
1.267529958315194
 31
0.0
  0
LINE
  5
7DE1B343D9E12EC
330
7DE1B343D9E130B
100
AcDbEntity
  8
TEXT
100
AcDbLine
 10
2.228509250467622
 20
1.467887628595125
 30
0.0
 11
2.160194371918348
 21
1.467887628595125
 31
0.0
  0
ARC
  5
7DE1B343D9E12ED
330
7DE1B343D9E130B
100
AcDbEntity
  8
TEXT
100
AcDbCircle
 10
1.919838632877142
 20
1.360839855706622
 30
0.0
 40
0.0416329381542859
100
AcDbArc
 50
26.56974201007528
 51
87.20939649401342
  0
LINE
  5
7DE1B343D9E12EE
330
7DE1B343D9E130B
100
AcDbEntity
  8
TEXT
100
AcDbLine
 10
2.064722417828753
 20
1.402423422827525
 30
0.0
 11
2.000825511529253
 21
1.402423422827525
 31
0.0
  0
LINE
  5
7DE1B343D9E12EF
330
7DE1B343D9E130B
100
AcDbEntity
  8
TEXT
100
AcDbLine
 10
2.064722417828753
 20
1.37487577296665
 30
0.0
 11
2.064722417828753
 21
1.402423422827525
 31
0.0
  0
ARC
  5
7DE1B343D9E12F0
330
7DE1B343D9E130B
100
AcDbEntity
  8
TEXT
100
AcDbCircle
 10
2.095915234891861
 20
1.37117769554526
 30
0.0
 40
0.0314112657011332
100
AcDbArc
 50
95.88484768694724
 51
173.2388340632136
  0
LINE
  5
7DE1B343D9E12F1
330
7DE1B343D9E130B
100
AcDbEntity
  8
TEXT
100
AcDbLine
 10
2.160194371918343
 20
1.402423422827525
 30
0.0
 11
2.092694654268826
 21
1.402423422827525
 31
0.0
  0
LINE
  5
7DE1B343D9E12F2
330
7DE1B343D9E130B
100
AcDbEntity
  8
TEXT
100
AcDbLine
 10
2.160194371918348
 20
1.467887628595125
 30
0.0
 11
2.160194371918343
 21
1.402423422827525
 31
0.0
  0
LINE
  5
7DE1B343D9E12F3
330
7DE1B343D9E130B
100
AcDbEntity
  8
TEXT
100
AcDbLine
 10
2.350599241753234
 20
1.402423422827525
 30
0.0
 11
2.275607409023608
 21
1.402423422827525
 31
0.0
  0
INSERT
  5
7DE1B343D9E1326
330
7DE1B343D9E130B
100
AcDbEntity
  8
ASHADE
 62
     1
100
AcDbBlockReference
  2
AVE_RENDER
 10
0.0
 20
0.0
 30
0.0
1001
AVE_RENDER
1002
{
1070
     6
1000
Pref
1070
    30
1070
    20
1070
     1
1070
     0
1000

1070
    10
1070
     1
1070
    30
1040
1.0
1070
     1
1040
0.3
1040
0.7
1040
0.0
1040
10.0
1010
-1.0
1020
-1.0
1030
-1.0
1040
0.3
1070
    49
1070
     0
1070
     0
1010
1.0
1020
1.0
1030
1.0
1040
45.0
1070
     1
1070
     0
1000
WCS
1040
0.0
1002
}
  0
INSERT
  5
7DE1B343D9E1327
330
7DE1B343D9E130B
100
AcDbEntity
  8
ASHADE
 62
     3
100
AcDbBlockReference
  2
AVE_RENDER
 10
0.0
 20
0.0
 30
0.0
1001
AVE_RENDER
1002
{
1070
     0
1000
Full Opt
1070
     0
1070
     1
1070
     1
1070
     1
1070
     0
1070
     0
1070
     0
1070
     1
1070
     1
1040
0.0001
1040
0.0001
1002
}
  0
INSERT
  5
7DE1B343D9E1328
330
7DE1B343D9E130B
100
AcDbEntity
  8
ASHADE
 62
     4
100
AcDbBlockReference
  2
AVE_RENDER
 10
0.0
 20
0.0
 30
0.0
1001
AVE_RENDER
1002
{
1070
     0
1000
Quick Opt
1070
     0
1070
     1
1070
     1
1070
     1
1070
     0
1070
     0
1070
     1
1002
}
  0
INSERT
  5
7DE1B343D9E1329
330
7DE1B343D9E130B
100
AcDbEntity
  8
ASHADE
 62
     5
100
AcDbBlockReference
  2
AVE_RENDER
 10
0.0
 20
0.0
 30
0.0
1001
AVE_RENDER
1002
{
1070
     1
1000
Scanl Opt
1070
     2
1070
     0
1070
     2
1040
2.0
1040
4.0
1070
     0
1070
     1
1070
     0
1040
0.03
1002
}
  0
INSERT
  5
7DE1B343D9E132A
330
7DE1B343D9E130B
100
AcDbEntity
  8
ASHADE
 62
     6
100
AcDbBlockReference
  2
AVE_RENDER
 10
0.0
 20
0.0
 30
0.0
1001
AVE_RENDER
1002
{
1070
     2
1000
Raytr Opt
1070
     2
1070
     0
1070
     2
1040
2.0
1040
4.0
1070
     0
1070
     1
1070
     1
1040
0.03
1070
     3
1040
0.03
1002
}
  0
INSERT
  5
7DE1B343D9E132B
330
7DE1B343D9E130B
100
AcDbEntity
  8
ASHADE
 62
     7
100
AcDbBlockReference
  2
AVE_RENDER
 10
0.0
 20
0.0
 30
0.0
1001
AVE_RENDER
1002
{
1070
     0
1000
RFile Opt
1070
     5
1070
   640
1070
   480
1070
 10000
1070
     3
1070
    32
1070
    24
1070
     0
1070
     0
1070
     0
1070
     1
1070
     0
1070
     0
1070
     0
1002
}
  0
INSERT
  5
7DE1B343D9E132C
330
7DE1B343D9E130B
100
AcDbEntity
  8
ASHADE
 62
     8
100
AcDbBlockReference
  2
AVE_RENDER
 10
0.0
 20
0.0
 30
0.0
1001
AVE_RENDER
1002
{
1070
     0
1000
Fog Opt
1070
     0
1070
     0
1040
0.0
1040
1.0
1040
0.0
1040
1.0
1010
0.5
1020
0.5
1030
0.5
1002
}
  0
INSERT
  5
7DE1B343D9E132D
330
7DE1B343D9E130B
100
AcDbEntity
  8
ASHADE
 62
     9
100
AcDbBlockReference
  2
AVE_RENDER
 10
0.0
 20
0.0
 30
0.0
1001
AVE_RENDER
1002
{
1070
     0
1000
BG Opt
1070
     0
1070
     1
1010
0.0
1020
0.0
1030
0.0
1010
1.0
1020
0.0
1030
0.0
1010
0.0
1020
1.0
1030
0.0
1010
0.0
1020
0.0
1030
1.0
1040
0.5
1040
0.33
1040
0.0
1000

1070
     1
1000

1070
     1
1070
     1
1040
1.0
1040
1.0
1040
0.0
1040
0.0
1070
     0
1002
}
  0
INSERT
  5
7DE1B343D9E1334
330
7DE1B343D9E130B
100
AcDbEntity
  8
ASHADE
 62
     1
100
AcDbBlockReference
  2
AVE_GLOBAL
 10
0.0
 20
0.0
 30
0.0
1001
AVE_MATERIAL
1002
{
1000
*GLOBAL*
1000
1
1000
Global finish.
1002
{
1002
}
1002
{
1070
    63
1002
{
1002
{
1010
-1.0
1020
-1.0
1030
-1.0
1002
}
1040
0.1000000014901161
1000

1040
0.0
1002
{
1002
}
1040
0.0
1002
{
1002
}
1040
0.0
1002
}
1002
{
1002
{
1010
-1.0
1020
-1.0
1030
-1.0
1002
}
1040
0.6999999880790711
1000

1040
0.0
1002
{
1002
}
1040
0.0
1002
{
1002
}
1040
0.0
1002
}
1002
{
1002
{
1010
-1.0
1020
-1.0
1030
-1.0
1002
}
1040
0.2000000029802322
1000

1040
0.0
1002
{
1002
}
1040
0.0
1002
{
1002
}
1040
0.0
1002
}
1002
{
1070
     0
1002
{
1070
     1
1002
{
1040
1.0
1040
1.0
1000

1040
0.0
1002
{
1002
}
1040
0.0
1002
{
1002
}
1040
0.0
1002
}
1002
}
1040
1.0
1040
0.0
1040
0.0
1002
}
1002
{
1040
1.0
1040
1.0
1000

1040
0.0
1002
{
1002
}
1040
0.0
1002
{
1002
}
1040
0.0
1002
}
1002
{
1040
0.5
1040
1.0
1000

1040
0.0
1002
{
1002
}
1040
0.0
1002
{
1002
}
1040
0.0
1002
}
1002
{
1070
     0
1040
0.0
1002
{
1002
}
1040
1.0
1002
{
1002
}
1040
0.0
1002
}
1002
{
1040
0.0
1002
{
1002
{
1010
0.0
1020
0.0
1030
0.0
1002
}
1040
1.0
1000

1040
0.0
1002
{
1002
}
1040
0.0
1002
{
1002
}
1040
0.0
1002
}
1002
}
1002
{
1002
{
1070
     1
1002
{
1040
0.0
1040
1.0
1000

1040
0.0
1002
{
1002
}
1040
0.0
1002
{
1002
}
1040
0.0
1002
}
1002
}
1040
0.0
1002
{
1002
}
1010
1.0
1020
0.0
1030
0.0
1010
0.0
1020
1.0
1030
0.0
1010
0.0
1020
0.0
1030
1.0
1070
     0
1002
}
1002
{
1002
{
1040
1.0
1040
1.0
1002
{
1070
     1
1002
{
1040
1.0
1040
1.0
1000

1040
0.0
1002
{
1002
}
1040
0.0
1002
{
1002
}
1040
0.0
1002
}
1002
}
1002
}
1070
     0
1040
0.0
1002
{
1002
}
1002
}
1002
{
1002
}
1002
}
1002
{
1071
        3
1070
     3
1070
     0
1002
{
1070
     2
1070
     0
1070
     0
1040
0.0
1002
}
1070
     0
1070
     2
1002
{
1002
}
1002
}
1002
{
1040
8030.0
1040
190.3000030517578
1040
0.3050000071525574
1040
228.0
1040
545.0
1040
14.0
1040
17.39999961853027
1040
0.4560000002384186
1002
}
1002
}
  0
ENDSEC
  0
SECTION
  2
OBJECTS
  0
DICTIONARY
  5
7DE1B343D9E12FF
330
0
100
AcDbDictionary
  3
ACAD_GROUP
350
7DE1B343D9E1300
  3
ACAD_LAYOUT
350
7DE1B343D9E1340
  3
ACAD_MLINESTYLE
350
7DE1B343D9E1301
  3
ACAD_PLOTSETTINGS
350
7DE1B343D9E1341
  3
ACAD_PLOTSTYLENAME
350
7DE1B343D9E133E
  3
ACDBHEADERROUNDTRIPXREC
350
7DE1B343D9E134B
  3
ACDBVARIABLEDICTIONARY
350
7DE1B343D9E1348
  0
DICTIONARY
  5
7DE1B343D9E136D
330
7DE1B343D9E130B
100
AcDbDictionary
280
     1
  3
ACAD_LAYOUTSELFREF
360
7DE1B343D9E136E
  0
DICTIONARY
  5
7DE1B343D9E136B
330
7DE1B343D9E1308
100
AcDbDictionary
280
     1
  3
ACAD_LAYOUTSELFREF
360
7DE1B343D9E136C
  0
DICTIONARY
  5
7DE1B343D9E1300
102
{ACAD_REACTORS
330
7DE1B343D9E12FF
102
}
330
7DE1B343D9E12FF
100
AcDbDictionary
  0
DICTIONARY
  5
7DE1B343D9E1340
102
{ACAD_REACTORS
330
7DE1B343D9E12FF
102
}
330
7DE1B343D9E12FF
100
AcDbDictionary
  0
DICTIONARY
  5
7DE1B343D9E1301
102
{ACAD_REACTORS
330
7DE1B343D9E12FF
102
}
330
7DE1B343D9E12FF
100
AcDbDictionary
  3
STANDARD
350
7DE1B343D9E130E
  0
DICTIONARY
  5
7DE1B343D9E1341
102
{ACAD_REACTORS
330
7DE1B343D9E12FF
102
}
330
7DE1B343D9E12FF
100
AcDbDictionary
  0
ACDBDICTIONARYWDFLT
  5
7DE1B343D9E133E
102
{ACAD_REACTORS
330
7DE1B343D9E12FF
102
}
330
7DE1B343D9E12FF
100
AcDbDictionary
281
     1
  3
Normal
350
7DE1B343D9E133F
100
AcDbDictionaryWithDefault
340
7DE1B343D9E133F
  0
DICTIONARY
  5
7DE1B343D9E134B
102
{ACAD_REACTORS
330
7DE1B343D9E12FF
102
}
330
7DE1B343D9E12FF
100
AcDbDictionary
  3
CEPSNTYPE
350
7DE1B343D9E1355
  3
FINGERPRINTGUID
350
7DE1B343D9E1356
  3
HYPERLINKBASE
350
7DE1B343D9E134E
  3
INSUNITS
350
7DE1B343D9E1354
  3
LAYOUTDICT
350
7DE1B343D9E1350
  3
LWETCUNION
350
7DE1B343D9E1353
  3
PLOTSETDICT
350
7DE1B343D9E1351
  3
PLOTSTYLNAMDICT
350
7DE1B343D9E1352
  3
PSVPSCALE
350
7DE1B343D9E1358
  3
PUCSBASE
350
7DE1B343D9E135B
  3
PUCSORGBACK
350
7DE1B343D9E1361
  3
PUCSORGBOTTOM
350
7DE1B343D9E135D
  3
PUCSORGFRONT
350
7DE1B343D9E1360
  3
PUCSORGLEFT
350
7DE1B343D9E135E
  3
PUCSORGRIGHT
350
7DE1B343D9E135F
  3
PUCSORGTOP
350
7DE1B343D9E135C
  3
PUCSORTHOREF
350
7DE1B343D9E1359
  3
PUCSORTHOVIEW
350
7DE1B343D9E135A
  3
STYLESHEET
350
7DE1B343D9E134F
  3
TSTACKALIGN
350
7DE1B343D9E134C
  3
TSTACKSIZE
350
7DE1B343D9E134D
  3
UCSBASE
350
7DE1B343D9E1364
  3
UCSORGBACK
350
7DE1B343D9E136A
  3
UCSORGBOTTOM
350
7DE1B343D9E1366
  3
UCSORGFRONT
350
7DE1B343D9E1369
  3
UCSORGLEFT
350
7DE1B343D9E1367
  3
UCSORGRIGHT
350
7DE1B343D9E1368
  3
UCSORGTOP
350
7DE1B343D9E1365
  3
UCSORTHOREF
350
7DE1B343D9E1362
  3
UCSORTHOVIEW
350
7DE1B343D9E1363
  3
VERSIONGUID
350
7DE1B343D9E1357
  0
DICTIONARY
  5
7DE1B343D9E1348
102
{ACAD_REACTORS
330
7DE1B343D9E12FF
102
}
330
7DE1B343D9E12FF
100
AcDbDictionary
  3
DIMASSOC
350
7DE1B343D9E1349
  0
XRECORD
  5
7DE1B343D9E136E
102
{ACAD_REACTORS
330
7DE1B343D9E136D
102
}
330
7DE1B343D9E136D
100
AcDbXrecord
340
7DE1B343D9E130B
  0
XRECORD
  5
7DE1B343D9E136C
102
{ACAD_REACTORS
330
7DE1B343D9E136B
102
}
330
7DE1B343D9E136B
100
AcDbXrecord
340
7DE1B343D9E1308
  0
MLINESTYLE
  5
7DE1B343D9E130E
102
{ACAD_REACTORS
330
7DE1B343D9E1301
102
}
330
7DE1B343D9E1301
100
AcDbMlineStyle
  2
STANDARD
 70
     0
  3

 62
     0
 51
90.0
 52
90.0
 71
     2
 49
0.5
 62
   256
  6
BYLAYER
 49
-0.5
 62
   256
  6
BYLAYER
  0
ACDBPLACEHOLDER
  5
7DE1B343D9E133F
102
{ACAD_REACTORS
330
7DE1B343D9E133E
102
}
330
7DE1B343D9E133E
100
AcDbPlaceHolder
280
     0
  0
XRECORD
  5
7DE1B343D9E1355
102
{ACAD_REACTORS
330
7DE1B343D9E134B
102
}
330
7DE1B343D9E134B
100
AcDbXrecord
 90
        0
  0
XRECORD
  5
7DE1B343D9E1356
102
{ACAD_REACTORS
330
7DE1B343D9E134B
102
}
330
7DE1B343D9E134B
100
AcDbXrecord
  1
{F5D0A000-8DB6-11D6-88E6-0090279574E7}
  0
XRECORD
  5
7DE1B343D9E134E
102
{ACAD_REACTORS
330
7DE1B343D9E134B
102
}
330
7DE1B343D9E134B
100
AcDbXrecord
  1

  0
XRECORD
  5
7DE1B343D9E1354
102
{ACAD_REACTORS
330
7DE1B343D9E134B
102
}
330
7DE1B343D9E134B
100
AcDbXrecord
 90
        0
  0
XRECORD
  5
7DE1B343D9E1350
102
{ACAD_REACTORS
330
7DE1B343D9E134B
102
}
330
7DE1B343D9E134B
100
AcDbXrecord
340
7DE1B343D9E1340
  0
XRECORD
  5
7DE1B343D9E1353
102
{ACAD_REACTORS
330
7DE1B343D9E134B
102
}
330
7DE1B343D9E134B
100
AcDbXrecord
 90
    14877
  0
XRECORD
  5
7DE1B343D9E1351
102
{ACAD_REACTORS
330
7DE1B343D9E134B
102
}
330
7DE1B343D9E134B
100
AcDbXrecord
340
7DE1B343D9E1341
  0
XRECORD
  5
7DE1B343D9E1352
102
{ACAD_REACTORS
330
7DE1B343D9E134B
102
}
330
7DE1B343D9E134B
100
AcDbXrecord
340
7DE1B343D9E133E
  0
XRECORD
  5
7DE1B343D9E1358
102
{ACAD_REACTORS
330
7DE1B343D9E134B
102
}
330
7DE1B343D9E134B
100
AcDbXrecord
 40
0.0
  0
XRECORD
  5
7DE1B343D9E135B
102
{ACAD_REACTORS
330
7DE1B343D9E134B
102
}
330
7DE1B343D9E134B
100
AcDbXrecord
340
0
  0
XRECORD
  5
7DE1B343D9E1361
102
{ACAD_REACTORS
330
7DE1B343D9E134B
102
}
330
7DE1B343D9E134B
100
AcDbXrecord
 10
0.0
 20
0.0
 30
0.0
  0
XRECORD
  5
7DE1B343D9E135D
102
{ACAD_REACTORS
330
7DE1B343D9E134B
102
}
330
7DE1B343D9E134B
100
AcDbXrecord
 10
0.0
 20
0.0
 30
0.0
  0
XRECORD
  5
7DE1B343D9E1360
102
{ACAD_REACTORS
330
7DE1B343D9E134B
102
}
330
7DE1B343D9E134B
100
AcDbXrecord
 10
0.0
 20
0.0
 30
0.0
  0
XRECORD
  5
7DE1B343D9E135E
102
{ACAD_REACTORS
330
7DE1B343D9E134B
102
}
330
7DE1B343D9E134B
100
AcDbXrecord
 10
0.0
 20
0.0
 30
0.0
  0
XRECORD
  5
7DE1B343D9E135F
102
{ACAD_REACTORS
330
7DE1B343D9E134B
102
}
330
7DE1B343D9E134B
100
AcDbXrecord
 10
0.0
 20
0.0
 30
0.0
  0
XRECORD
  5
7DE1B343D9E135C
102
{ACAD_REACTORS
330
7DE1B343D9E134B
102
}
330
7DE1B343D9E134B
100
AcDbXrecord
 10
0.0
 20
0.0
 30
0.0
  0
XRECORD
  5
7DE1B343D9E1359
102
{ACAD_REACTORS
330
7DE1B343D9E134B
102
}
330
7DE1B343D9E134B
100
AcDbXrecord
340
0
  0
XRECORD
  5
7DE1B343D9E135A
102
{ACAD_REACTORS
330
7DE1B343D9E134B
102
}
330
7DE1B343D9E134B
100
AcDbXrecord
 70
     0
  0
XRECORD
  5
7DE1B343D9E134F
102
{ACAD_REACTORS
330
7DE1B343D9E134B
102
}
330
7DE1B343D9E134B
100
AcDbXrecord
  1

  0
XRECORD
  5
7DE1B343D9E134C
102
{ACAD_REACTORS
330
7DE1B343D9E134B
102
}
330
7DE1B343D9E134B
100
AcDbXrecord
 90
        1
  0
XRECORD
  5
7DE1B343D9E134D
102
{ACAD_REACTORS
330
7DE1B343D9E134B
102
}
330
7DE1B343D9E134B
100
AcDbXrecord
 90
       70
  0
XRECORD
  5
7DE1B343D9E1364
102
{ACAD_REACTORS
330
7DE1B343D9E134B
102
}
330
7DE1B343D9E134B
100
AcDbXrecord
340
0
  0
XRECORD
  5
7DE1B343D9E136A
102
{ACAD_REACTORS
330
7DE1B343D9E134B
102
}
330
7DE1B343D9E134B
100
AcDbXrecord
 10
0.0
 20
0.0
 30
0.0
  0
XRECORD
  5
7DE1B343D9E1366
102
{ACAD_REACTORS
330
7DE1B343D9E134B
102
}
330
7DE1B343D9E134B
100
AcDbXrecord
 10
0.0
 20
0.0
 30
0.0
  0
XRECORD
  5
7DE1B343D9E1369
102
{ACAD_REACTORS
330
7DE1B343D9E134B
102
}
330
7DE1B343D9E134B
100
AcDbXrecord
 10
0.0
 20
0.0
 30
0.0
  0
XRECORD
  5
7DE1B343D9E1367
102
{ACAD_REACTORS
330
7DE1B343D9E134B
102
}
330
7DE1B343D9E134B
100
AcDbXrecord
 10
0.0
 20
0.0
 30
0.0
  0
XRECORD
  5
7DE1B343D9E1368
102
{ACAD_REACTORS
330
7DE1B343D9E134B
102
}
330
7DE1B343D9E134B
100
AcDbXrecord
 10
0.0
 20
0.0
 30
0.0
  0
XRECORD
  5
7DE1B343D9E1365
102
{ACAD_REACTORS
330
7DE1B343D9E134B
102
}
330
7DE1B343D9E134B
100
AcDbXrecord
 10
0.0
 20
0.0
 30
0.0
  0
XRECORD
  5
7DE1B343D9E1362
102
{ACAD_REACTORS
330
7DE1B343D9E134B
102
}
330
7DE1B343D9E134B
100
AcDbXrecord
340
0
  0
XRECORD
  5
7DE1B343D9E1363
102
{ACAD_REACTORS
330
7DE1B343D9E134B
102
}
330
7DE1B343D9E134B
100
AcDbXrecord
 70
     0
  0
XRECORD
  5
7DE1B343D9E1357
102
{ACAD_REACTORS
330
7DE1B343D9E134B
102
}
330
7DE1B343D9E134B
100
AcDbXrecord
  1
{F5D0A002-8DB6-11D6-88E6-0090279574E7}
  0
DICTIONARYVAR
  5
7DE1B343D9E1349
102
{ACAD_REACTORS
330
7DE1B343D9E1348
102
}
330
7DE1B343D9E1348
100
DictionaryVariables
280
     0
  1
1
  0
ENDSEC
  0
EOF
