  0
SECTION
  2
HEADER
  9
$ACADVER
  1
AC1014
  9
$ACADMAINTVER
 70
     9
  9
$DWGCODEPAGE
  3
ANSI_1252
  9
$INSBASE
 10
1.75
 20
0.7465317340847505
 30
0.0
  9
$EXTMIN
 10
0.0070184207728569
 20
-0.0161592804914955
 30
0.0
  9
$EXTMAX
 10
3.492237742519984
 20
1.24653173408475
 30
0.0
  9
$LIMMIN
 10
0.0
 20
0.0
  9
$LIMMAX
 10
18.0
 20
12.0
  9
$ORTHOMODE
 70
     1
  9
$REGENMODE
 70
     1
  9
$FILLMODE
 70
     1
  9
$QTEXTMODE
 70
     0
  9
$MIRRTEXT
 70
     0
  9
$DRAGMODE
 70
     2
  9
$LTSCALE
 40
1.0
  9
$OSMODE
 70
    39
  9
$ATTMODE
 70
     1
  9
$TEXTSIZE
 40
0.125
  9
$TRACEWID
 40
0.05
  9
$TEXTSTYLE
  7
ROMANS
  9
$CLAYER
  8
0
  9
$CELTYPE
  6
BYLAYER
  9
$CECOLOR
 62
   256
  9
$CELTSCALE
 40
1.0
  9
$DELOBJ
 70
     1
  9
$DISPSILH
 70
     1
  9
$DIMSCALE
 40
1.0
  9
$DIMASZ
 40
0.125
  9
$DIMEXO
 40
0.125
  9
$DIMDLI
 40
0.375
  9
$DIMRND
 40
0.0
  9
$DIMDLE
 40
0.0
  9
$DIMEXE
 40
0.125
  9
$DIMTP
 40
0.0
  9
$DIMTM
 40
0.0
  9
$DIMTXT
 40
0.125
  9
$DIMCEN
 40
-0.125
  9
$DIMTSZ
 40
0.0
  9
$DIMTOL
 70
     0
  9
$DIMLIM
 70
     0
  9
$DIMTIH
 70
     1
  9
$DIMTOH
 70
     1
  9
$DIMSE1
 70
     0
  9
$DIMSE2
 70
     0
  9
$DIMTAD
 70
     0
  9
$DIMZIN
 70
     4
  9
$DIMBLK
  1

  9
$DIMASO
 70
     1
  9
$DIMSHO
 70
     1
  9
$DIMPOST
  1

  9
$DIMAPOST
  1

  9
$DIMALT
 70
     0
  9
$DIMALTD
 70
     2
  9
$DIMALTF
 40
25.4
  9
$DIMLFAC
 40
1.0
  9
$DIMTOFL
 70
     0
  9
$DIMTVP
 40
0.0
  9
$DIMTIX
 70
     1
  9
$DIMSOXD
 70
     0
  9
$DIMSAH
 70
     0
  9
$DIMBLK1
  1

  9
$DIMBLK2
  1

  9
$DIMSTYLE
  2
STANDARD
  9
$DIMCLRD
 70
     0
  9
$DIMCLRE
 70
     0
  9
$DIMCLRT
 70
     0
  9
$DIMTFAC
 40
1.0
  9
$DIMGAP
 40
0.09
  9
$DIMJUST
 70
     0
  9
$DIMSD1
 70
     0
  9
$DIMSD2
 70
     0
  9
$DIMTOLJ
 70
     1
  9
$DIMTZIN
 70
     4
  9
$DIMALTZ
 70
     0
  9
$DIMALTTZ
 70
     0
  9
$DIMFIT
 70
     3
  9
$DIMUPT
 70
     0
  9
$DIMUNIT
 70
     2
  9
$DIMDEC
 70
     3
  9
$DIMTDEC
 70
     3
  9
$DIMALTU
 70
     2
  9
$DIMALTTD
 70
     2
  9
$DIMTXSTY
  7
ROMANS
  9
$DIMAUNIT
 70
     0
  9
$LUNITS
 70
     2
  9
$LUPREC
 70
     3
  9
$SKETCHINC
 40
0.1
  9
$FILLETRAD
 40
0.03125
  9
$AUNITS
 70
     0
  9
$AUPREC
 70
     0
  9
$MENU
  1
ACAD
  9
$ELEVATION
 40
0.0
  9
$PELEVATION
 40
0.0
  9
$THICKNESS
 40
0.0
  9
$LIMCHECK
 70
     0
  9
$BLIPMODE
 70
     0
  9
$CHAMFERA
 40
0.0
  9
$CHAMFERB
 40
0.0
  9
$CHAMFERC
 40
0.0
  9
$CHAMFERD
 40
0.0
  9
$SKPOLY
 70
     0
  9
$TDCREATE
 40
2448994.619691088
  9
$TDUPDATE
 40
2452458.310130289
  9
$TDINDWG
 40
0.0006254051
  9
$TDUSRTIMER
 40
0.0006254051
  9
$USRTIMER
 70
     1
  9
$ANGBASE
 50
0.0
  9
$ANGDIR
 70
     0
  9
$PDMODE
 70
     0
  9
$PDSIZE
 40
0.0
  9
$PLINEWID
 40
0.0
  9
$COORDS
 70
     2
  9
$SPLFRAME
 70
     0
  9
$SPLINETYPE
 70
     6
  9
$SPLINESEGS
 70
     8
  9
$ATTDIA
 70
     0
  9
$ATTREQ
 70
     1
  9
$HANDLING
 70
 22529
  9
$HANDSEED
  5
7DE1B343D9E08B2
  9
$SURFTAB1
 70
     6
  9
$SURFTAB2
 70
     6
  9
$SURFTYPE
 70
     6
  9
$SURFU
 70
     6
  9
$SURFV
 70
     6
  9
$UCSNAME
  2

  9
$UCSORG
 10
0.0
 20
0.0
 30
0.0
  9
$UCSXDIR
 10
1.0
 20
0.0
 30
0.0
  9
$UCSYDIR
 10
0.0
 20
1.0
 30
0.0
  9
$PUCSNAME
  2

  9
$PUCSORG
 10
0.0
 20
0.0
 30
0.0
  9
$PUCSXDIR
 10
1.0
 20
0.0
 30
0.0
  9
$PUCSYDIR
 10
0.0
 20
1.0
 30
0.0
  9
$USERI1
 70
     0
  9
$USERI2
 70
     0
  9
$USERI3
 70
     0
  9
$USERI4
 70
     0
  9
$USERI5
 70
     0
  9
$USERR1
 40
0.0
  9
$USERR2
 40
0.0
  9
$USERR3
 40
0.0
  9
$USERR4
 40
0.0
  9
$USERR5
 40
0.0
  9
$WORLDVIEW
 70
     1
  9
$SHADEDGE
 70
     3
  9
$SHADEDIF
 70
    70
  9
$TILEMODE
 70
     1
  9
$MAXACTVP
 70
    16
  9
$PINSBASE
 10
0.9414377652426349
 20
50.00000000000001
 30
2.01524390570817
  9
$PLIMCHECK
 70
     0
  9
$PEXTMIN
 10
1.000000000000000E+20
 20
1.000000000000000E+20
 30
1.000000000000000E+20
  9
$PEXTMAX
 10
-1.000000000000000E+20
 20
-1.000000000000000E+20
 30
-1.000000000000000E+20
  9
$PLIMMIN
 10
0.0
 20
0.0
  9
$PLIMMAX
 10
12.0
 20
9.0
  9
$UNITMODE
 70
     0
  9
$VISRETAIN
 70
     0
  9
$PLINEGEN
 70
     1
  9
$PSLTSCALE
 70
     0
  9
$TREEDEPTH
 70
  3020
  9
$PICKSTYLE
 70
     1
  9
$CMLSTYLE
  2
STANDARD
  9
$CMLJUST
 70
     0
  9
$CMLSCALE
 40
1.0
  9
$PROXYGRAPHICS
 70
     1
  9
$MEASUREMENT
 70
     0
  0
ENDSEC
  0
SECTION
  2
CLASSES
  0
CLASS
  1
LWPOLYLINE
  2
AcDbPolyline
  3
AutoCAD 2000
 90
        0
280
     0
281
     1
  0
CLASS
  1
ACDBDICTIONARYWDFLT
  2
AcDbDictionaryWithDefault
  3
AutoCAD 2000
 90
        0
280
     0
281
     0
  0
CLASS
  1
ACDBPLACEHOLDER
  2
AcDbPlaceHolder
  3
AutoCAD 2000
 90
        0
280
     0
281
     0
  0
CLASS
  1
LAYOUT
  2
AcDbLayout
  3
AutoCAD 2000
 90
        0
280
     0
281
     0
  0
CLASS
  1
DICTIONARYVAR
  2
AcDbDictionaryVar
  3
AutoCAD 2000
 90
        0
280
     0
281
     0
  0
CLASS
  1
LONG_TRANSACTION
  2
AcDbLongTransaction
  3
AutoCAD 2000
 90
        0
280
     0
281
     0
  0
CLASS
  1
LWPOLYLINE
  2
AcDbPolyline
  3
AutoCAD 2000
 90
        0
280
     0
281
     1
  0
CLASS
  1
HATCH
  2
AcDbHatch
  3
AutoCAD 2000
 90
        0
280
     0
281
     1
  0
CLASS
  1
XRECORD
  2
AcDbXrecord
  3
AutoCAD 2000
 90
        0
280
     0
281
     0
  0
ENDSEC
  0
SECTION
  2
TABLES
  0
TABLE
  2
VPORT
  5
7DE1B343D9E0859
330
0
100
AcDbSymbolTable
 70
     2
  0
VPORT
  5
7DE1B343D9E088D
330
7DE1B343D9E0859
100
AcDbSymbolTableRecord
100
AcDbViewportTableRecord
  2
*ACTIVE
 70
     0
 10
0.0
 20
0.0
 11
1.0
 21
1.0
 12
4.726046405515486
 22
0.6151218142661233
 13
0.0
 23
0.0
 14
0.015625
 24
0.015625
 15
0.0
 25
0.0
 16
0.0
 26
0.0
 36
1.0
 17
0.0
 27
0.0
 37
0.0
 40
2.282647215150728
 41
4.320930232558139
 42
50.0
 43
0.0
 44
0.0
 50
0.0
 51
0.0
 71
     0
 72
  2000
 73
     1
 74
     0
 75
     0
 76
     0
 77
     0
 78
     0
  0
ENDTAB
  0
TABLE
  2
LTYPE
  5
7DE1B343D9E0856
330
0
100
AcDbSymbolTable
 70
     1
  0
LTYPE
  5
7DE1B343D9E0863
330
7DE1B343D9E0856
100
AcDbSymbolTableRecord
100
AcDbLinetypeTableRecord
  2
BYBLOCK
 70
     0
  3

 72
    65
 73
     0
 40
0.0
  0
LTYPE
  5
7DE1B343D9E0864
330
7DE1B343D9E0856
100
AcDbSymbolTableRecord
100
AcDbLinetypeTableRecord
  2
BYLAYER
 70
     0
  3

 72
    65
 73
     0
 40
0.0
  0
LTYPE
  5
7DE1B343D9E0865
330
7DE1B343D9E0856
100
AcDbSymbolTableRecord
100
AcDbLinetypeTableRecord
  2
CONTINUOUS
 70
     0
  3
Solid line
 72
    65
 73
     0
 40
0.0
  0
ENDTAB
  0
TABLE
  2
LAYER
  5
7DE1B343D9E0853
330
0
100
AcDbSymbolTable
 70
     2
  0
LAYER
  5
7DE1B343D9E0860
330
7DE1B343D9E0853
100
AcDbSymbolTableRecord
100
AcDbLayerTableRecord
  2
0
 70
     0
 62
     7
  6
CONTINUOUS
  0
LAYER
  5
7DE1B343D9E0870
330
7DE1B343D9E0853
100
AcDbSymbolTableRecord
100
AcDbLayerTableRecord
  2
TEXT
 70
     0
 62
     3
  6
CONTINUOUS
  0
ENDTAB
  0
TABLE
  2
STYLE
  5
7DE1B343D9E0854
330
0
100
AcDbSymbolTable
 70
     3
  0
STYLE
  5
7DE1B343D9E0861
330
7DE1B343D9E0854
100
AcDbSymbolTableRecord
100
AcDbTextStyleTableRecord
  2
STANDARD
 70
     0
 40
0.0
 41
1.0
 50
0.0
 71
     0
 42
0.3125
  3
txt
  4

  0
STYLE
  5
7DE1B343D9E086D
330
7DE1B343D9E0854
100
AcDbSymbolTableRecord
100
AcDbTextStyleTableRecord
  2
ITALICC
 70
     0
 40
0.0
 41
1.0
 50
0.0
 71
     0
 42
0.125
  3
italicc
  4

  0
STYLE
  5
7DE1B343D9E087D
330
7DE1B343D9E0854
100
AcDbSymbolTableRecord
100
AcDbTextStyleTableRecord
  2
ROMANS
 70
     0
 40
0.0
 41
1.0
 50
0.0
 71
     0
 42
0.125
  3
romans.shx
  4

  0
ENDTAB
  0
TABLE
  2
VIEW
  5
7DE1B343D9E0857
330
0
100
AcDbSymbolTable
 70
     0
  0
ENDTAB
  0
TABLE
  2
UCS
  5
7DE1B343D9E0858
330
0
100
AcDbSymbolTable
 70
     0
  0
ENDTAB
  0
TABLE
  2
APPID
  5
7DE1B343D9E085A
330
0
100
AcDbSymbolTable
 70
     1
  0
APPID
  5
7DE1B343D9E0862
330
7DE1B343D9E085A
100
AcDbSymbolTableRecord
100
AcDbRegAppTableRecord
  2
ACAD
 70
     0
  0
ENDTAB
  0
TABLE
  2
DIMSTYLE
  5
7DE1B343D9E085B
330
0
100
AcDbSymbolTable
 70
     1
  0
DIMSTYLE
105
7DE1B343D9E0875
330
7DE1B343D9E085B
100
AcDbSymbolTableRecord
100
AcDbDimStyleTableRecord
  2
STANDARD
 70
     0
  3

  4

  5

  6

  7

 40
1.0
 41
0.125
 42
0.125
 43
0.375
 44
0.125
 45
0.0
 46
0.0
 47
0.0
 48
0.0
140
0.125
141
-0.125
142
0.0
143
25.4
144
1.0
145
0.0
146
1.0
147
0.09
 71
     0
 72
     0
 73
     1
 74
     1
 75
     0
 76
     0
 77
     0
 78
     4
170
     0
171
     2
172
     0
173
     0
174
     1
175
     0
176
     0
177
     0
178
     0
270
     2
271
     3
272
     3
273
     2
274
     2
340
7DE1B343D9E087D
275
     0
280
     0
281
     0
282
     0
283
     1
284
     4
285
     0
286
     0
287
     3
288
     0
  0
ENDTAB
  0
TABLE
  2
BLOCK_RECORD
  5
7DE1B343D9E0852
330
0
100
AcDbSymbolTable
 70
     0
  0
BLOCK_RECORD
  5
7DE1B343D9E0869
102
{ACAD_XDICTIONARY
360
7DE1B343D9E08B0
102
}
330
7DE1B343D9E0852
100
AcDbSymbolTableRecord
100
AcDbBlockTableRecord
  2
*MODEL_SPACE
  0
BLOCK_RECORD
  5
7DE1B343D9E0866
102
{ACAD_XDICTIONARY
360
7DE1B343D9E08AE
102
}
330
7DE1B343D9E0852
100
AcDbSymbolTableRecord
100
AcDbBlockTableRecord
  2
*PAPER_SPACE
  0
ENDTAB
  0
ENDSEC
  0
SECTION
  2
BLOCKS
  0
BLOCK
  5
7DE1B343D9E0873
330
7DE1B343D9E0869
100
AcDbEntity
  8
0
100
AcDbBlockBegin
  2
*MODEL_SPACE
 70
     0
 10
0.0
 20
0.0
 30
0.0
  3
*MODEL_SPACE
  1

  0
ENDBLK
  5
7DE1B343D9E0874
330
7DE1B343D9E0869
100
AcDbEntity
  8
0
100
AcDbBlockEnd
  0
BLOCK
  5
7DE1B343D9E0871
330
7DE1B343D9E0866
100
AcDbEntity
 67
     1
  8
0
100
AcDbBlockBegin
  2
*PAPER_SPACE
 70
     0
 10
0.0
 20
0.0
 30
0.0
  3
*PAPER_SPACE
  1

  0
ENDBLK
  5
7DE1B343D9E0872
330
7DE1B343D9E0866
100
AcDbEntity
 67
     1
  8
0
100
AcDbBlockEnd
  0
ENDSEC
  0
SECTION
  2
ENTITIES
  0
LWPOLYLINE
  5
7DE1B343D9DF48A
330
7DE1B343D9E0869
100
AcDbEntity
  8
0
100
AcDbPolyline
 90
       14
 70
     1
 43
0.0
 10
2.21875
 20
0.8090317340847505
 42
-1.0
 10
2.21875
 20
0.7465317340847505
 10
1.28125
 20
0.7465317340847505
 42
-0.4142135623730951
 10
1.25
 20
0.7777817340847505
 10
1.25
 20
1.21528173408475
 42
-1.0
 10
1.3125
 20
1.21528173408475
 10
1.3125
 20
0.8402817340847505
 42
0.4142135623730951
 10
1.34375
 20
0.8090317340847505
 10
1.67125
 20
0.8090317340847505
 42
0.4142135623730951
 10
1.7025
 20
0.8402817340847505
 10
1.7025
 20
1.21528173408475
 42
-1.0
 10
1.765
 20
1.21528173408475
 10
1.765
 20
0.8402817340847505
 42
0.4142135623730951
 10
1.79625
 20
0.8090317340847505
  0
TEXT
  5
7DE1B343D9E0714
330
7DE1B343D9E0869
100
AcDbEntity
  8
TEXT
100
AcDbText
 10
0.9940476190476189
 20
0.4418593235910861
 30
0.0
 40
0.125
  1
PART #110395
  7
ITALICC
 72
     1
 11
1.75
 21
0.4418593235910861
 31
0.0
100
AcDbText
  0
TEXT
  5
7DE1B343D9E0715
330
7DE1B343D9E0869
100
AcDbEntity
  8
TEXT
100
AcDbText
 10
2.16330515825032
 20
-0.0050633190812891
 30
0.0
 40
0.0522247191011236
  1
Phone  1-800-328-2495
 41
1.272321428571429
 72
     5
 11
3.492237742519984
 21
-0.0050633190812891
 31
0.0
100
AcDbText
  0
TEXT
  5
7DE1B343D9E0716
330
7DE1B343D9E0869
100
AcDbEntity
  8
TEXT
100
AcDbText
 10
2.16330515825032
 20
0.2747119618175874
 30
0.0
 40
0.0522247191011236
  1
Stylmark  Incorporated
 41
1.221428571428573
 72
     5
 11
3.492237742519984
 21
0.2747119618175874
 31
0.0
100
AcDbText
  0
TEXT
  5
7DE1B343D9E0717
330
7DE1B343D9E0869
100
AcDbEntity
  8
TEXT
100
AcDbText
 10
2.16330515825032
 20
0.1814535348512952
 30
0.0
 40
0.0522247191011236
  1
6536 Main St. N.E. * P.O. Box 32008
 41
0.8388932496075366
 72
     5
 11
3.492237742519984
 21
0.1814535348512952
 31
0.0
100
AcDbText
  0
TEXT
  5
7DE1B343D9E0718
330
7DE1B343D9E0869
100
AcDbEntity
  8
TEXT
100
AcDbText
 10
2.16330515825032
 20
0.0881951078850031
 30
0.0
 40
0.0522247191011236
  1
Minneapolis, MN 55432-0008
 41
1.11444212721585
 72
     5
 11
3.492237742519984
 21
0.0881951078850031
 31
0.0
100
AcDbText
  0
LWPOLYLINE
  5
7DE1B343D9E0719
330
7DE1B343D9E0869
100
AcDbEntity
  8
TEXT
100
AcDbPolyline
 90
        3
 70
     0
 43
0.0006660908203125
 10
0.0073514661830132
 20
0.1085814435561457
 10
0.0073514661830132
 20
-0.0046539958969819
 10
0.1205869056361355
 20
-0.0046539958969819
  0
LWPOLYLINE
  5
7DE1B343D9E071E
330
7DE1B343D9E0869
100
AcDbEntity
  8
TEXT
100
AcDbPolyline
 90
        3
 70
     0
 43
0.0006660908203125
 10
0.0339950989955107
 20
0.1085814435561457
 10
0.0339950989955107
 20
0.0219896369155192
 10
0.1205869056361355
 20
0.0219896369155192
  0
LWPOLYLINE
  5
7DE1B343D9E0723
330
7DE1B343D9E0869
100
AcDbEntity
  8
TEXT
100
AcDbPolyline
 90
        2
 70
     0
 43
0.0001332181640625
 10
0.0806214564173875
 20
0.118572805860831
 10
0.0073514661830132
 20
0.1085814435561457
  0
LWPOLYLINE
  5
7DE1B343D9E0727
330
7DE1B343D9E0869
100
AcDbEntity
  8
TEXT
100
AcDbPolyline
 90
        2
 70
     0
 43
0.0001332181640625
 10
0.0339950989955107
 20
0.1085814435561457
 10
0.093943272823638
 20
0.118572805860831
  0
LWPOLYLINE
  5
7DE1B343D9E072B
330
7DE1B343D9E0869
100
AcDbEntity
  8
TEXT
100
AcDbPolyline
 90
        2
 70
     0
 43
0.0001332181640625
 10
0.0339950989955107
 20
0.0219896369155192
 10
0.093943272823638
 20
0.0819378107436447
  0
LWPOLYLINE
  5
7DE1B343D9E072F
330
7DE1B343D9E0869
100
AcDbEntity
  8
TEXT
100
AcDbPolyline
 90
        3
 70
     0
 43
0.0006660908203125
 10
0.1205869056361355
 20
0.2617823322280214
 10
0.0073514661830132
 20
0.2617823322280214
 10
0.0073514661830132
 20
0.1485468927748937
  0
LWPOLYLINE
  5
7DE1B343D9E0734
330
7DE1B343D9E0869
100
AcDbEntity
  8
TEXT
100
AcDbPolyline
 90
        3
 70
     0
 43
0.0006660908203125
 10
0.1205869056361355
 20
0.2351386994155203
 10
0.0339950989955107
 20
0.2351386994155203
 10
0.0339950989955107
 20
0.1485468927748937
  0
LWPOLYLINE
  5
7DE1B343D9E0739
330
7DE1B343D9E0869
100
AcDbEntity
  8
TEXT
100
AcDbPolyline
 90
        2
 70
     0
 43
0.0001332181640625
 10
0.0339950989955107
 20
0.2351386994155203
 10
0.0939432728236362
 20
0.1751905255873948
  0
LWPOLYLINE
  5
7DE1B343D9E073D
330
7DE1B343D9E0869
100
AcDbEntity
  8
TEXT
100
AcDbPolyline
 90
        2
 70
     0
 43
0.0001332181640625
 10
0.0339950989955107
 20
0.1485468927748937
 10
0.0939432728236362
 20
0.138555530470205
  0
LWPOLYLINE
  5
7DE1B343D9E0741
330
7DE1B343D9E0869
100
AcDbEntity
  8
TEXT
100
AcDbPolyline
 90
        2
 70
     0
 43
0.0001332181640625
 10
0.0073514661830132
 20
0.1485468927748937
 10
0.0806214564173875
 20
0.138555530470205
  0
LWPOLYLINE
  5
7DE1B343D9E0745
330
7DE1B343D9E0869
100
AcDbEntity
  8
TEXT
100
AcDbPolyline
 90
        2
 70
     0
 43
0.0006660908203125
 10
0.0339950989955107
 20
0.1085814435561457
 10
0.0073514661830132
 20
0.1085814435561457
  0
LWPOLYLINE
  5
7DE1B343D9E0749
330
7DE1B343D9E0869
100
AcDbEntity
  8
TEXT
100
AcDbPolyline
 90
        2
 70
     0
 43
0.0006660908203125
 10
0.0339950989955107
 20
0.1485468927748937
 10
0.0073514661830132
 20
0.1485468927748937
  0
LINE
  5
7DE1B343D9E074D
330
7DE1B343D9E0869
100
AcDbEntity
  8
TEXT
100
AcDbLine
 10
1.52254189530951
 20
0.1975056375712524
 30
0.0
 11
1.415335621922221
 21
0.1975056375712524
 31
0.0
  0
LINE
  5
7DE1B343D9E074E
330
7DE1B343D9E0869
100
AcDbEntity
  8
TEXT
100
AcDbLine
 10
1.551572793653989
 20
0.2617823322280178
 30
0.0
 11
1.416740884436929
 21
0.2617823322280178
 31
0.0
  0
ARC
  5
7DE1B343D9E074F
330
7DE1B343D9E0869
100
AcDbEntity
  8
TEXT
100
AcDbCircle
 10
1.476054980830246
 20
0.0925450829650015
 30
0.0
 40
0.0676855811441166
100
AcDbArc
 50
90.0
 51
153.7768192527749
  0
LWPOLYLINE
  5
7DE1B343D9E0750
330
7DE1B343D9E0869
100
AcDbEntity
  8
TEXT
100
AcDbPolyline
 90
        2
 70
     0
 43
0.0
 10
1.414303126467411
 20
0.038800244189945
 42
0.2901071551932823
 10
1.457379059335046
 20
-0.0046907007604932
 42
5.328517124445801
  0
ARC
  5
7DE1B343D9E0754
330
7DE1B343D9E0869
100
AcDbEntity
  8
TEXT
100
AcDbCircle
 10
0.7709236031587612
 20
0.0551016905775567
 30
0.0
 40
0.0601160179737537
100
AcDbArc
 50
180.0000000000003
 51
264.0521544866073
  0
LINE
  5
7DE1B343D9E0755
330
7DE1B343D9E0869
100
AcDbEntity
  8
TEXT
100
AcDbLine
 10
0.774438958784309
 20
0.296170249822156
 30
0.0
 11
0.714396353940302
 21
0.296170249822156
 31
0.0
  0
ARC
  5
7DE1B343D9E0756
330
7DE1B343D9E0869
100
AcDbEntity
  8
TEXT
100
AcDbCircle
 10
0.5386646010417906
 20
0.1796948727815161
 30
0.0
 40
0.0820874594465043
100
AcDbArc
 50
90.0
 51
270.0
  0
LWPOLYLINE
  5
7DE1B343D9E0757
330
7DE1B343D9E0869
100
AcDbEntity
  8
TEXT
100
AcDbPolyline
 90
        2
 70
     0
 43
0.0001332181640625
 10
0.130578267940826
 20
0.1885123419936418
 10
0.1205869056361355
 20
0.2617823322280214
  0
LWPOLYLINE
  5
7DE1B343D9E075B
330
7DE1B343D9E0869
100
AcDbEntity
  8
TEXT
100
AcDbPolyline
 90
        2
 70
     0
 43
0.0001332181640625
 10
0.1205869056361355
 20
0.2351386994155203
 10
0.130578267940826
 20
0.1751905255873948
  0
LWPOLYLINE
  5
7DE1B343D9E075F
330
7DE1B343D9E0869
100
AcDbEntity
  8
TEXT
100
AcDbPolyline
 90
        3
 70
     0
 43
0.0006660908203125
 10
0.2737877943080129
 20
0.1485468927748937
 10
0.2737877943080129
 20
0.2617823322280214
 10
0.1605523548548871
 20
0.2617823322280214
  0
LWPOLYLINE
  5
7DE1B343D9E0764
330
7DE1B343D9E0869
100
AcDbEntity
  8
TEXT
100
AcDbPolyline
 90
        3
 70
     0
 43
0.0006660908203125
 10
0.2471441614955119
 20
0.1485468927748937
 10
0.2471441614955119
 20
0.2351386994155203
 10
0.1605523548548871
 20
0.2351386994155203
  0
LWPOLYLINE
  5
7DE1B343D9E0769
330
7DE1B343D9E0869
100
AcDbEntity
  8
TEXT
100
AcDbPolyline
 90
        2
 70
     0
 43
0.0001332181640625
 10
0.2471441614955119
 20
0.2351386994155203
 10
0.1871959876673881
 20
0.1751905255873948
  0
LWPOLYLINE
  5
7DE1B343D9E076D
330
7DE1B343D9E0869
100
AcDbEntity
  8
TEXT
100
AcDbPolyline
 90
        2
 70
     0
 43
0.0001332181640625
 10
0.1605523548548871
 20
0.2351386994155203
 10
0.1505609925501983
 20
0.1751905255873948
  0
LWPOLYLINE
  5
7DE1B343D9E0771
330
7DE1B343D9E0869
100
AcDbEntity
  8
TEXT
100
AcDbPolyline
 90
        2
 70
     0
 43
0.0001332181640625
 10
0.1605523548548871
 20
0.2617823322280214
 10
0.1505609925501983
 20
0.1885123419936418
  0
LWPOLYLINE
  5
7DE1B343D9E0775
330
7DE1B343D9E0869
100
AcDbEntity
  8
TEXT
100
AcDbPolyline
 90
        2
 70
     0
 43
0.0001332181640625
 10
0.2005178040736368
 20
0.138555530470205
 10
0.2737877943080129
 20
0.1485468927748937
  0
LWPOLYLINE
  5
7DE1B343D9E0779
330
7DE1B343D9E0869
100
AcDbEntity
  8
TEXT
100
AcDbPolyline
 90
        2
 70
     0
 43
0.0001332181640625
 10
0.2471441614955119
 20
0.1485468927748937
 10
0.1871959876673881
 20
0.138555530470205
  0
LWPOLYLINE
  5
7DE1B343D9E077D
330
7DE1B343D9E0869
100
AcDbEntity
  8
TEXT
100
AcDbPolyline
 90
        2
 70
     0
 43
0.0001332181640625
 10
0.2737877943080129
 20
0.1085814435561457
 10
0.2005178040736368
 20
0.118572805860831
  0
LWPOLYLINE
  5
7DE1B343D9E0781
330
7DE1B343D9E0869
100
AcDbEntity
  8
TEXT
100
AcDbPolyline
 90
        2
 70
     0
 43
0.0001332181640625
 10
0.2471441614955119
 20
0.1085814435561457
 10
0.1871959876673881
 20
0.118572805860831
  0
LWPOLYLINE
  5
7DE1B343D9E0785
330
7DE1B343D9E0869
100
AcDbEntity
  8
TEXT
100
AcDbPolyline
 90
        2
 70
     0
 43
0.0001332181640625
 10
0.2471441614955119
 20
0.0219896369155192
 10
0.1871959876673881
 20
0.0819378107436447
  0
LWPOLYLINE
  5
7DE1B343D9E0789
330
7DE1B343D9E0869
100
AcDbEntity
  8
TEXT
100
AcDbPolyline
 90
        3
 70
     0
 43
0.0006660908203125
 10
0.1605523548548871
 20
0.0219896369155192
 10
0.2471441614955119
 20
0.0219896369155192
 10
0.2471441614955119
 20
0.1085814435561457
  0
LWPOLYLINE
  5
7DE1B343D9E078E
330
7DE1B343D9E0869
100
AcDbEntity
  8
TEXT
100
AcDbPolyline
 90
        3
 70
     0
 43
0.0006660908203125
 10
0.1605523548548871
 20
-0.0046539958969819
 10
0.2737877943080129
 20
-0.0046539958969819
 10
0.2737877943080129
 20
0.1085814435561457
  0
LWPOLYLINE
  5
7DE1B343D9E0793
330
7DE1B343D9E0869
100
AcDbEntity
  8
TEXT
100
AcDbPolyline
 90
        5
 70
     0
 43
0.0001332181640625
 10
0.130578267940826
 20
0.0686159943373942
 10
0.130578267940826
 20
0.0819378107436447
 10
0.093943272823638
 20
0.0819378107436447
 10
0.093943272823638
 20
0.118572805860831
 10
0.0806214564173875
 20
0.118572805860831
  0
LWPOLYLINE
  5
7DE1B343D9E079A
330
7DE1B343D9E0869
100
AcDbEntity
  8
TEXT
100
AcDbPolyline
 90
        2
 70
     0
 43
0.0006660908203125
 10
0.1205869056361355
 20
0.0219896369155192
 10
0.1205869056361355
 20
-0.0046539958969819
  0
LWPOLYLINE
  5
7DE1B343D9E079E
330
7DE1B343D9E0869
100
AcDbEntity
  8
TEXT
100
AcDbPolyline
 90
        2
 70
     0
 43
0.0001332181640625
 10
0.1205869056361355
 20
0.0219896369155192
 10
0.130578267940826
 20
0.0819378107436447
  0
LWPOLYLINE
  5
7DE1B343D9E07A2
330
7DE1B343D9E0869
100
AcDbEntity
  8
TEXT
100
AcDbPolyline
 90
        2
 70
     0
 43
0.0001332181640625
 10
0.1205869056361355
 20
-0.0046539958969819
 10
0.130578267940826
 20
0.0686159943373942
  0
LWPOLYLINE
  5
7DE1B343D9E07A6
330
7DE1B343D9E0869
100
AcDbEntity
  8
TEXT
100
AcDbPolyline
 90
        5
 70
     0
 43
0.0001332181640625
 10
0.0806214564173875
 20
0.138555530470205
 10
0.0939432728236362
 20
0.138555530470205
 10
0.0939432728236362
 20
0.1751905255873948
 10
0.130578267940826
 20
0.1751905255873948
 10
0.130578267940826
 20
0.1885123419936418
  0
LWPOLYLINE
  5
7DE1B343D9E07AD
330
7DE1B343D9E0869
100
AcDbEntity
  8
TEXT
100
AcDbPolyline
 90
        5
 70
     0
 43
0.0001332181640625
 10
0.1505609925501983
 20
0.1885123419936418
 10
0.1505609925501983
 20
0.1751905255873948
 10
0.1871959876673881
 20
0.1751905255873948
 10
0.1871959876673881
 20
0.138555530470205
 10
0.2005178040736368
 20
0.138555530470205
  0
LWPOLYLINE
  5
7DE1B343D9E07B4
330
7DE1B343D9E0869
100
AcDbEntity
  8
TEXT
100
AcDbPolyline
 90
        2
 70
     0
 43
0.0001332181640625
 10
0.1605523548548871
 20
0.0219896369155192
 10
0.1505609925501983
 20
0.0819378107436447
  0
LWPOLYLINE
  5
7DE1B343D9E07B8
330
7DE1B343D9E0869
100
AcDbEntity
  8
TEXT
100
AcDbPolyline
 90
        2
 70
     0
 43
0.0001332181640625
 10
0.1505609925501983
 20
0.0686159943373942
 10
0.1605523548548871
 20
-0.0046539958969819
  0
LWPOLYLINE
  5
7DE1B343D9E07BC
330
7DE1B343D9E0869
100
AcDbEntity
  8
TEXT
100
AcDbPolyline
 90
        2
 70
     0
 43
0.0006660908203125
 10
0.1605523548548871
 20
0.0219896369155192
 10
0.1605523548548871
 20
-0.0046539958969819
  0
LWPOLYLINE
  5
7DE1B343D9E07C0
330
7DE1B343D9E0869
100
AcDbEntity
  8
TEXT
100
AcDbPolyline
 90
        5
 70
     0
 43
0.0001332181640625
 10
0.2005178040736368
 20
0.118572805860831
 10
0.1871959876673881
 20
0.118572805860831
 10
0.1871959876673881
 20
0.0819378107436447
 10
0.1505609925501983
 20
0.0819378107436447
 10
0.1505609925501983
 20
0.0686159943373942
  0
LWPOLYLINE
  5
7DE1B343D9E07C7
330
7DE1B343D9E0869
100
AcDbEntity
  8
TEXT
100
AcDbPolyline
 90
        2
 70
     0
 43
0.0006660908203125
 10
0.2471441614955119
 20
0.1485468927748937
 10
0.2737877943080129
 20
0.1485468927748937
  0
LWPOLYLINE
  5
7DE1B343D9E07CB
330
7DE1B343D9E0869
100
AcDbEntity
  8
TEXT
100
AcDbPolyline
 90
        2
 70
     0
 43
0.0006660908203125
 10
0.2471441614955119
 20
0.1085814435561457
 10
0.2737877943080129
 20
0.1085814435561457
  0
LINE
  5
7DE1B343D9E07CF
330
7DE1B343D9E0869
100
AcDbEntity
  8
TEXT
100
AcDbLine
 10
0.5439019311560378
 20
0.1975056375712524
 30
0.0
 11
0.7108075851850091
 21
0.1975056375712524
 31
0.0
  0
LINE
  5
7DE1B343D9E07D0
330
7DE1B343D9E0869
100
AcDbEntity
  8
TEXT
100
AcDbLine
 10
0.6095020674003388
 20
0.1617009159606245
 30
0.0
 11
0.5439019311560378
 21
0.1617009159606245
 31
0.0
  0
LINE
  5
7DE1B343D9E07D1
330
7DE1B343D9E0869
100
AcDbEntity
  8
TEXT
100
AcDbLine
 10
0.4565771415952862
 20
-0.0046907007604932
 30
0.0
 11
0.6095020674003388
 21
-0.0046907007604932
 31
0.0
  0
LINE
  5
7DE1B343D9E07D2
330
7DE1B343D9E0869
100
AcDbEntity
  8
TEXT
100
AcDbLine
 10
0.6144424413066185
 20
0.0636663055729462
 30
0.0
 11
0.4565771415952844
 21
0.0636663055729462
 31
0.0
  0
LINE
  5
7DE1B343D9E07D3
330
7DE1B343D9E0869
100
AcDbEntity
  8
TEXT
100
AcDbLine
 10
0.5386646010417897
 20
0.0976074133350108
 30
0.0
 11
0.6144424413066185
 21
0.0976074133350108
 31
0.0
  0
ARC
  5
7DE1B343D9E07D4
330
7DE1B343D9E0869
100
AcDbEntity
  8
TEXT
100
AcDbCircle
 10
0.5439019311560387
 20
0.1796032767659402
 30
0.0
 40
0.017902360805315
100
AcDbArc
 50
90.0
 51
270.0
  0
LINE
  5
7DE1B343D9E07D5
330
7DE1B343D9E0869
100
AcDbEntity
  8
TEXT
100
AcDbLine
 10
0.4565771415952844
 20
0.0636663055729462
 30
0.0
 11
0.4565771415952862
 21
-0.0046907007604932
 31
0.0
  0
LINE
  5
7DE1B343D9E07D6
330
7DE1B343D9E0869
100
AcDbEntity
  8
TEXT
100
AcDbLine
 10
0.7108075851850091
 20
0.1975056375712524
 30
0.0
 11
0.7108075851850091
 21
0.0551016905775567
 31
0.0
  0
ARC
  5
7DE1B343D9E07D7
330
7DE1B343D9E0869
100
AcDbEntity
  8
TEXT
100
AcDbCircle
 10
0.6095020674003397
 20
0.0785051076000639
 30
0.0
 40
0.0831958083605586
100
AcDbArc
 50
270.0
 51
90.0
  0
ARC
  5
7DE1B343D9E07D8
330
7DE1B343D9E0869
100
AcDbEntity
  8
TEXT
100
AcDbCircle
 10
0.6144424413066194
 20
0.0806368594539803
 30
0.0
 40
0.0169705538810321
100
AcDbArc
 50
270.0
 51
90.0
  0
LWPOLYLINE
  5
7DE1B343D9E07D9
330
7DE1B343D9E0869
100
AcDbEntity
  8
TEXT
100
AcDbPolyline
 90
        2
 70
     0
 43
0.0006660908203125
 10
0.1205869056361355
 20
0.2351386994155203
 10
0.1205869056361355
 20
0.2617823322280214
  0
LWPOLYLINE
  5
7DE1B343D9E07DD
330
7DE1B343D9E0869
100
AcDbEntity
  8
TEXT
100
AcDbPolyline
 90
        2
 70
     0
 43
0.0006660908203125
 10
0.1605523548548871
 20
0.2351386994155203
 10
0.1605523548548871
 20
0.2617823322280214
  0
LINE
  5
7DE1B343D9E07E1
330
7DE1B343D9E0869
100
AcDbEntity
  8
TEXT
100
AcDbLine
 10
0.714396353940302
 20
0.2617823322280178
 30
0.0
 11
0.5386646010417897
 21
0.2617823322280178
 31
0.0
  0
LINE
  5
7DE1B343D9E07E2
330
7DE1B343D9E0869
100
AcDbEntity
  8
TEXT
100
AcDbLine
 10
0.714396353940302
 20
0.296170249822156
 30
0.0
 11
0.714396353940302
 21
0.2617823322280178
 31
0.0
  0
LINE
  5
7DE1B343D9E07E3
330
7DE1B343D9E0869
100
AcDbEntity
  8
TEXT
100
AcDbLine
 10
0.9048682459601542
 20
0.1609103361148972
 30
0.0
 11
0.8462379249282163
 21
0.2617823322280178
 31
0.0
  0
LINE
  5
7DE1B343D9E07E4
330
7DE1B343D9E0869
100
AcDbEntity
  8
TEXT
100
AcDbLine
 10
0.9636168087660196
 20
0.2617823322280178
 30
0.0
 11
0.9048682459601542
 21
0.1609103361148972
 31
0.0
  0
LINE
  5
7DE1B343D9E07E5
330
7DE1B343D9E0869
100
AcDbEntity
  8
TEXT
100
AcDbLine
 10
1.060547434125761
 20
0.0776971373425061
 30
0.0
 11
1.060547434125761
 21
0.3297938099668284
 31
0.0
  0
LINE
  5
7DE1B343D9E07E6
330
7DE1B343D9E0869
100
AcDbEntity
  8
TEXT
100
AcDbLine
 10
1.092859288263421
 20
0.2617823322280178
 30
0.0
 11
1.092859288263421
 21
0.0609181254956096
 31
0.0
  0
LINE
  5
7DE1B343D9E07E7
330
7DE1B343D9E0869
100
AcDbEntity
  8
TEXT
100
AcDbLine
 10
1.092859288263421
 20
0.0609181254956096
 30
0.0
 11
1.075865651378819
 21
0.0609181254956096
 31
0.0
  0
LINE
  5
7DE1B343D9E07E8
330
7DE1B343D9E0869
100
AcDbEntity
  8
TEXT
100
AcDbLine
 10
1.061687007621955
 20
-0.0046907007604932
 30
0.0
 11
1.15969034132139
 21
-0.0046907007604932
 31
0.0
  0
LINE
  5
7DE1B343D9E07E9
330
7DE1B343D9E0869
100
AcDbEntity
  8
TEXT
100
AcDbLine
 10
0.8952680089631998
 20
0.0152678053445198
 30
0.0
 11
0.9925677150566444
 21
0.1796180162797879
 31
0.0
  0
ARC
  5
7DE1B343D9E07EA
330
7DE1B343D9E0869
100
AcDbEntity
  8
TEXT
100
AcDbCircle
 10
0.8612244490509858
 20
0.0348570215132026
 30
0.0
 40
0.0392772371940762
100
AcDbArc
 50
270.1604552698595
 51
330.0831797321295
  0
LINE
  5
7DE1B343D9E07EB
330
7DE1B343D9E0869
100
AcDbEntity
  8
TEXT
100
AcDbLine
 10
0.7646941926651147
 20
-0.0046907007604932
 30
0.0
 11
0.8613344437401091
 21
-0.0044200616622109
 31
0.0
  0
LWPOLYLINE
  5
7DE1B343D9E07EC
330
7DE1B343D9E0869
100
AcDbEntity
  8
TEXT
100
AcDbPolyline
 90
        6
 70
     1
 43
0.0
 10
0.8072179962402643
 20
0.1975056375712524
 10
0.7769014020200562
 20
0.1975056375712524
 10
0.7769014020200562
 20
0.0743946395163581
 42
0.407328721240804
 10
0.7884450531815326
 20
0.062575724839972
 10
0.8490667522262633
 20
0.062575724839972
 10
0.8665320926335812
 20
0.0953879538834511
  0
LINE
  5
7DE1B343D9E07F4
330
7DE1B343D9E0869
100
AcDbEntity
  8
TEXT
100
AcDbLine
 10
0.9925677150566444
 20
0.1796180162797879
 30
0.0
 11
0.9925677150566444
 21
0.0468606414544316
 31
0.0
  0
ARC
  5
7DE1B343D9E07F5
330
7DE1B343D9E0869
100
AcDbEntity
  8
TEXT
100
AcDbCircle
 10
1.075865651378818
 20
0.0762999317390351
 30
0.0
 40
0.0153818062434269
100
AcDbArc
 50
174.7883570302258
 51
270.0
  0
LWPOLYLINE
  5
7DE1B343D9E07F6
330
7DE1B343D9E0869
100
AcDbEntity
  8
TEXT
100
AcDbPolyline
 90
        2
 70
     0
 43
0.0
 10
0.9925677150566427
 20
0.0468606414544351
 42
0.3318488747599744
 10
1.061687007621955
 20
-0.0046907007604932
 42
-6.868794160588311
  0
LINE
  5
7DE1B343D9E07FA
330
7DE1B343D9E0869
100
AcDbEntity
  8
TEXT
100
AcDbLine
 10
1.217079410310651
 20
-0.0046907007604932
 30
0.0
 11
1.284137457092491
 21
-0.0046907007604932
 31
0.0
  0
LINE
  5
7DE1B343D9E07FB
330
7DE1B343D9E0869
100
AcDbEntity
  8
TEXT
100
AcDbLine
 10
1.217079410310651
 20
0.1899518484051425
 30
0.0
 11
1.217079410310651
 21
-0.0046907007604932
 31
0.0
  0
LINE
  5
7DE1B343D9E07FC
330
7DE1B343D9E0869
100
AcDbEntity
  8
TEXT
100
AcDbLine
 10
1.15969034132139
 20
0.1975056375712524
 30
0.0
 11
1.209525621144537
 21
0.1975056375712524
 31
0.0
  0
LINE
  5
7DE1B343D9E07FD
330
7DE1B343D9E0869
100
AcDbEntity
  8
TEXT
100
AcDbLine
 10
1.15969034132139
 20
-0.0046907007604932
 30
0.0
 11
1.15969034132139
 21
0.1975056375712524
 31
0.0
  0
LWPOLYLINE
  5
7DE1B343D9E07FE
330
7DE1B343D9E0869
100
AcDbEntity
  8
TEXT
100
AcDbPolyline
 90
        2
 70
     0
 43
0.0
 10
1.209525621144536
 20
0.1975056375712524
 42
-0.4142135623731017
 10
1.217079410310649
 20
0.1899518484051425
 42
-0.9999999999999998
  0
LINE
  5
7DE1B343D9E0802
330
7DE1B343D9E0869
100
AcDbEntity
  8
TEXT
100
AcDbLine
 10
1.415335621922221
 20
0.1975056375712524
 30
0.0
 11
1.415335621922221
 21
0.1224532314970458
 31
0.0
  0
LINE
  5
7DE1B343D9E0803
330
7DE1B343D9E0869
100
AcDbEntity
  8
TEXT
100
AcDbLine
 10
1.284137457092491
 20
0.1975056375712524
 30
0.0
 11
1.338271054013441
 21
0.1975056375712524
 31
0.0
  0
LINE
  5
7DE1B343D9E0804
330
7DE1B343D9E0869
100
AcDbEntity
  8
TEXT
100
AcDbLine
 10
1.284137457092491
 20
-0.0046907007604932
 30
0.0
 11
1.284137457092491
 21
0.1975056375712524
 31
0.0
  0
LWPOLYLINE
  5
7DE1B343D9E0805
330
7DE1B343D9E0869
100
AcDbEntity
  8
TEXT
100
AcDbPolyline
 90
        2
 70
     0
 43
0.0
 10
1.338271054013439
 20
0.1975056375712524
 42
-0.4142135623731017
 10
1.345824843179553
 20
0.1899518484051425
 42
-0.9999999999999998
  0
LWPOLYLINE
  5
7DE1B343D9E0809
330
7DE1B343D9E0869
100
AcDbEntity
  8
TEXT
100
AcDbPolyline
 90
        4
 70
     0
 43
0.0
 10
1.345824843179553
 20
0.1899518484051425
 10
1.345824843179553
 20
-0.0046907007604932
 10
1.414303126467411
 20
-0.0046907007604932
 10
1.414303126467411
 20
0.038800244189945
 42
-1.714843617202739
  0
LINE
  5
7DE1B343D9E080F
330
7DE1B343D9E0869
100
AcDbEntity
  8
TEXT
100
AcDbLine
 10
0.774438958784309
 20
0.2617823322280178
 30
0.0
 11
0.774438958784309
 21
0.296170249822156
 31
0.0
  0
LINE
  5
7DE1B343D9E0810
330
7DE1B343D9E0869
100
AcDbEntity
  8
TEXT
100
AcDbLine
 10
0.8462379249282163
 20
0.2617823322280178
 30
0.0
 11
0.774438958784309
 21
0.2617823322280178
 31
0.0
  0
LINE
  5
7DE1B343D9E0811
330
7DE1B343D9E0869
100
AcDbEntity
  8
TEXT
100
AcDbLine
 10
0.9937387215593959
 20
0.2617823322280178
 30
0.0
 11
0.9636168087660196
 21
0.2617823322280178
 31
0.0
  0
LINE
  5
7DE1B343D9E0812
330
7DE1B343D9E0869
100
AcDbEntity
  8
TEXT
100
AcDbLine
 10
0.9937387215593959
 20
0.3297938099668284
 30
0.0
 11
0.9937387215593959
 21
0.2617823322280178
 31
0.0
  0
LINE
  5
7DE1B343D9E0813
330
7DE1B343D9E0869
100
AcDbEntity
  8
TEXT
100
AcDbLine
 10
1.060547434125761
 20
0.3297938099668284
 30
0.0
 11
0.9937387215593959
 21
0.3297938099668284
 31
0.0
  0
LWPOLYLINE
  5
7DE1B343D9E0814
330
7DE1B343D9E0869
100
AcDbEntity
  8
TEXT
100
AcDbPolyline
 90
        3
 70
     0
 43
0.0
 10
1.380959193723763
 20
0.2617823322280214
 10
1.262659034907718
 20
0.2617823322280214
 10
1.262659034907718
 20
0.2346148354671254
 42
-1.960274751411753
  0
LINE
  5
7DE1B343D9E0819
330
7DE1B343D9E0869
100
AcDbEntity
  8
TEXT
100
AcDbLine
 10
1.226877344194557
 20
0.2617823322280178
 30
0.0
 11
1.092859288263421
 21
0.2617823322280178
 31
0.0
  0
LWPOLYLINE
  5
7DE1B343D9E081A
330
7DE1B343D9E0869
100
AcDbEntity
  8
TEXT
100
AcDbPolyline
 90
        2
 70
     0
 43
0.0
 10
1.226877344194557
 20
0.2617823322280214
 42
-0.3328679258950098
 10
1.262659034907718
 20
0.2346148354671254
 42
6.772930709997214
  0
LINE
  5
7DE1B343D9E081E
330
7DE1B343D9E0869
100
AcDbEntity
  8
TEXT
100
AcDbLine
 10
1.416740884436929
 20
0.2617823322280178
 30
0.0
 11
1.416740884436929
 21
0.2334597864583739
 31
0.0
  0
LWPOLYLINE
  5
7DE1B343D9E081F
330
7DE1B343D9E0869
100
AcDbEntity
  8
TEXT
100
AcDbPolyline
 90
        2
 70
     0
 43
0.0
 10
1.380959193723763
 20
0.2617823322280214
 42
-0.3277054968067132
 10
1.416740884436928
 20
0.2334597864583775
 42
6.667889725900311
  0
LINE
  5
7DE1B343D9E0823
330
7DE1B343D9E0869
100
AcDbEntity
  8
TEXT
100
AcDbLine
 10
1.63053273252903
 20
0.1565703536745905
 30
0.0
 11
1.586781961347128
 21
0.2388206296707357
 31
0.0
  0
LINE
  5
7DE1B343D9E0824
330
7DE1B343D9E0869
100
AcDbEntity
  8
TEXT
100
AcDbLine
 10
1.63053273252903
 20
0.2617823322280178
 30
0.0
 11
1.63053273252903
 21
0.1565703536745905
 31
0.0
  0
LINE
  5
7DE1B343D9E0825
330
7DE1B343D9E0869
100
AcDbEntity
  8
TEXT
100
AcDbLine
 10
1.858216471467399
 20
0.1859170058164797
 30
0.0
 11
1.858216471467399
 21
0.3272465379956185
 31
0.0
  0
LINE
  5
7DE1B343D9E0826
330
7DE1B343D9E0869
100
AcDbEntity
  8
TEXT
100
AcDbLine
 10
1.905314630023383
 20
0.2617823322280178
 30
0.0
 11
1.858216471467399
 21
0.1859170058164797
 31
0.0
  0
LINE
  5
7DE1B343D9E0827
330
7DE1B343D9E0869
100
AcDbEntity
  8
TEXT
100
AcDbLine
 10
1.915749346787306
 20
0.1518890892870443
 30
0.0
 11
1.980306462753011
 21
0.2617823322280178
 31
0.0
  0
LINE
  5
7DE1B343D9E0828
330
7DE1B343D9E0869
100
AcDbEntity
  8
TEXT
100
AcDbLine
 10
1.794381480244626
 20
-0.0046907007604932
 30
0.0
 11
1.858759664563246
 21
-0.0046907007604932
 31
0.0
  0
LWPOLYLINE
  5
7DE1B343D9E0829
330
7DE1B343D9E0869
100
AcDbEntity
  8
TEXT
100
AcDbPolyline
 90
        2
 70
     0
 43
0.0
 10
1.634472409834067
 20
0.038800244189945
 42
-0.2901071551932486
 10
1.591396476966423
 20
-0.0046907007604932
 42
-5.328517124445184
  0
ARC
  5
7DE1B343D9E082D
330
7DE1B343D9E0869
100
AcDbEntity
  8
TEXT
100
AcDbCircle
 10
1.522541895309508
 20
0.1691462625712551
 30
0.0
 40
0.028359375
100
AcDbArc
 50
25.78218179591245
 51
90.0
  0
LINE
  5
7DE1B343D9E082E
330
7DE1B343D9E0869
100
AcDbEntity
  8
TEXT
100
AcDbLine
 10
1.558342970613631
 20
0.1602306641091201
 30
0.0
 11
1.548078210200067
 21
0.1814812036818144
 31
0.0
  0
LINE
  5
7DE1B343D9E082F
330
7DE1B343D9E0869
100
AcDbEntity
  8
TEXT
100
AcDbLine
 10
1.476054980830248
 20
0.1602306641091201
 30
0.0
 11
1.558342970613631
 21
0.1602306641091201
 31
0.0
  0
LWPOLYLINE
  5
7DE1B343D9E0830
330
7DE1B343D9E0869
100
AcDbEntity
  8
TEXT
100
AcDbPolyline
 90
        4
 70
     1
 43
0.0
 10
1.57127401189653
 20
0.0982732772235321
 10
1.482613693236672
 20
0.0982732772235321
 42
0.9999999999999998
 10
1.482613693236672
 20
0.0558747367196714
 10
1.57127401189653
 20
0.0558747367196714
 42
1.0
  0
LWPOLYLINE
  5
7DE1B343D9E0836
330
7DE1B343D9E0869
100
AcDbEntity
  8
TEXT
100
AcDbPolyline
 90
        2
 70
     0
 43
0.0
 10
1.457379059335046
 20
-0.0046907007604932
 10
1.591396476966423
 20
-0.0046907007604932
 42
0.9999999999999998
  0
LINE
  5
7DE1B343D9E083A
330
7DE1B343D9E0869
100
AcDbEntity
  8
TEXT
100
AcDbLine
 10
1.717733498952062
 20
0.1975056375712524
 30
0.0
 11
1.79438148024462
 21
0.1975056375712524
 31
0.0
  0
LINE
  5
7DE1B343D9E083B
330
7DE1B343D9E0869
100
AcDbEntity
  8
TEXT
100
AcDbLine
 10
1.79438148024462
 20
0.1975056375712524
 30
0.0
 11
1.794381480244626
 21
-0.0046907007604932
 31
0.0
  0
ARC
  5
7DE1B343D9E083C
330
7DE1B343D9E0869
100
AcDbEntity
  8
TEXT
100
AcDbCircle
 10
1.717733498952061
 20
0.1725997622885896
 30
0.0
 40
0.0249058752826653
100
AcDbArc
 50
89.99971217465335
 51
179.9999999999985
  0
LINE
  5
7DE1B343D9E083D
330
7DE1B343D9E0869
100
AcDbEntity
  8
TEXT
100
AcDbLine
 10
1.692827623669403
 20
-0.0046907007604932
 30
0.0
 11
1.692827623669398
 21
0.1725998046709752
 31
0.0
  0
LWPOLYLINE
  5
7DE1B343D9E083E
330
7DE1B343D9E0869
100
AcDbEntity
  8
TEXT
100
AcDbPolyline
 90
        2
 70
     0
 43
0.0
 10
1.634472409834067
 20
-0.0046907007604932
 10
1.692827623669401
 20
-0.0046907007604932
  0
LWPOLYLINE
  5
7DE1B343D9E0842
330
7DE1B343D9E0869
100
AcDbEntity
  8
TEXT
100
AcDbPolyline
 90
        2
 70
     0
 43
0.0
 10
1.634472409834067
 20
0.038800244189945
 10
1.634472409834067
 20
-0.0046907007604932
  0
LINE
  5
7DE1B343D9E0846
330
7DE1B343D9E0869
100
AcDbEntity
  8
TEXT
100
AcDbLine
 10
2.011241570150916
 20
-0.0046907007604932
 30
0.0
 11
1.915749346787306
 21
0.1518890892870443
 31
0.0
  0
LINE
  5
7DE1B343D9E0847
330
7DE1B343D9E0869
100
AcDbEntity
  8
TEXT
100
AcDbLine
 10
1.934663197774711
 20
-0.0046907007604932
 30
0.0
 11
2.011241570150916
 21
-0.0046907007604932
 31
0.0
  0
LINE
  5
7DE1B343D9E0848
330
7DE1B343D9E0869
100
AcDbEntity
  8
TEXT
100
AcDbLine
 10
1.858759664563246
 20
0.1268888677156871
 30
0.0
 11
1.934663197774711
 21
-0.0046907007604932
 31
0.0
  0
LINE
  5
7DE1B343D9E0849
330
7DE1B343D9E0869
100
AcDbEntity
  8
TEXT
100
AcDbLine
 10
1.858759664563246
 20
-0.0046907007604932
 30
0.0
 11
1.858759664563246
 21
0.1268888677156871
 31
0.0
  0
LINE
  5
7DE1B343D9E084A
330
7DE1B343D9E0869
100
AcDbEntity
  8
TEXT
100
AcDbLine
 10
1.858216471467399
 20
0.3272465379956185
 30
0.0
 11
1.789901592918125
 21
0.3272465379956185
 31
0.0
  0
ARC
  5
7DE1B343D9E084B
330
7DE1B343D9E0869
100
AcDbEntity
  8
TEXT
100
AcDbCircle
 10
1.549545853876919
 20
0.2201987651071154
 30
0.0
 40
0.0416329381542859
100
AcDbArc
 50
26.56974201007528
 51
87.20939649401342
  0
LINE
  5
7DE1B343D9E084C
330
7DE1B343D9E0869
100
AcDbEntity
  8
TEXT
100
AcDbLine
 10
1.694429638828531
 20
0.2617823322280178
 30
0.0
 11
1.63053273252903
 21
0.2617823322280178
 31
0.0
  0
LINE
  5
7DE1B343D9E084D
330
7DE1B343D9E0869
100
AcDbEntity
  8
TEXT
100
AcDbLine
 10
1.694429638828531
 20
0.2342346823671431
 30
0.0
 11
1.694429638828531
 21
0.2617823322280178
 31
0.0
  0
ARC
  5
7DE1B343D9E084E
330
7DE1B343D9E0869
100
AcDbEntity
  8
TEXT
100
AcDbCircle
 10
1.725622455891638
 20
0.230536604945753
 30
0.0
 40
0.0314112657011332
100
AcDbArc
 50
95.88484768694724
 51
173.2388340632136
  0
LINE
  5
7DE1B343D9E084F
330
7DE1B343D9E0869
100
AcDbEntity
  8
TEXT
100
AcDbLine
 10
1.78990159291812
 20
0.2617823322280178
 30
0.0
 11
1.722401875268604
 21
0.2617823322280178
 31
0.0
  0
LINE
  5
7DE1B343D9E0850
330
7DE1B343D9E0869
100
AcDbEntity
  8
TEXT
100
AcDbLine
 10
1.789901592918125
 20
0.3272465379956185
 30
0.0
 11
1.78990159291812
 21
0.2617823322280178
 31
0.0
  0
LINE
  5
7DE1B343D9E0851
330
7DE1B343D9E0869
100
AcDbEntity
  8
TEXT
100
AcDbLine
 10
1.980306462753011
 20
0.2617823322280178
 30
0.0
 11
1.905314630023385
 21
0.2617823322280178
 31
0.0
  0
ENDSEC
  0
SECTION
  2
OBJECTS
  0
DICTIONARY
  5
7DE1B343D9E085D
330
0
100
AcDbDictionary
  3
ACAD_GROUP
350
7DE1B343D9E085E
  3
ACAD_LAYOUT
350
7DE1B343D9E0883
  3
ACAD_MLINESTYLE
350
7DE1B343D9E085F
  3
ACAD_PLOTSETTINGS
350
7DE1B343D9E0884
  3
ACAD_PLOTSTYLENAME
350
7DE1B343D9E0881
  3
ACDBHEADERROUNDTRIPXREC
350
7DE1B343D9E088E
  3
ACDBVARIABLEDICTIONARY
350
7DE1B343D9E088B
  0
DICTIONARY
  5
7DE1B343D9E08B0
330
7DE1B343D9E0869
100
AcDbDictionary
280
     1
  3
ACAD_LAYOUTSELFREF
360
7DE1B343D9E08B1
  0
DICTIONARY
  5
7DE1B343D9E08AE
330
7DE1B343D9E0866
100
AcDbDictionary
280
     1
  3
ACAD_LAYOUTSELFREF
360
7DE1B343D9E08AF
  0
DICTIONARY
  5
7DE1B343D9E085E
102
{ACAD_REACTORS
330
7DE1B343D9E085D
102
}
330
7DE1B343D9E085D
100
AcDbDictionary
  0
DICTIONARY
  5
7DE1B343D9E0883
102
{ACAD_REACTORS
330
7DE1B343D9E085D
102
}
330
7DE1B343D9E085D
100
AcDbDictionary
  0
DICTIONARY
  5
7DE1B343D9E085F
102
{ACAD_REACTORS
330
7DE1B343D9E085D
102
}
330
7DE1B343D9E085D
100
AcDbDictionary
  3
STANDARD
350
7DE1B343D9E086C
  0
DICTIONARY
  5
7DE1B343D9E0884
102
{ACAD_REACTORS
330
7DE1B343D9E085D
102
}
330
7DE1B343D9E085D
100
AcDbDictionary
  0
ACDBDICTIONARYWDFLT
  5
7DE1B343D9E0881
102
{ACAD_REACTORS
330
7DE1B343D9E085D
102
}
330
7DE1B343D9E085D
100
AcDbDictionary
281
     1
  3
Normal
350
7DE1B343D9E0882
100
AcDbDictionaryWithDefault
340
7DE1B343D9E0882
  0
DICTIONARY
  5
7DE1B343D9E088E
102
{ACAD_REACTORS
330
7DE1B343D9E085D
102
}
330
7DE1B343D9E085D
100
AcDbDictionary
  3
CEPSNTYPE
350
7DE1B343D9E0898
  3
FINGERPRINTGUID
350
7DE1B343D9E0899
  3
HYPERLINKBASE
350
7DE1B343D9E0891
  3
INSUNITS
350
7DE1B343D9E0897
  3
LAYOUTDICT
350
7DE1B343D9E0893
  3
LWETCUNION
350
7DE1B343D9E0896
  3
PLOTSETDICT
350
7DE1B343D9E0894
  3
PLOTSTYLNAMDICT
350
7DE1B343D9E0895
  3
PSVPSCALE
350
7DE1B343D9E089B
  3
PUCSBASE
350
7DE1B343D9E089E
  3
PUCSORGBACK
350
7DE1B343D9E08A4
  3
PUCSORGBOTTOM
350
7DE1B343D9E08A0
  3
PUCSORGFRONT
350
7DE1B343D9E08A3
  3
PUCSORGLEFT
350
7DE1B343D9E08A1
  3
PUCSORGRIGHT
350
7DE1B343D9E08A2
  3
PUCSORGTOP
350
7DE1B343D9E089F
  3
PUCSORTHOREF
350
7DE1B343D9E089C
  3
PUCSORTHOVIEW
350
7DE1B343D9E089D
  3
STYLESHEET
350
7DE1B343D9E0892
  3
TSTACKALIGN
350
7DE1B343D9E088F
  3
TSTACKSIZE
350
7DE1B343D9E0890
  3
UCSBASE
350
7DE1B343D9E08A7
  3
UCSORGBACK
350
7DE1B343D9E08AD
  3
UCSORGBOTTOM
350
7DE1B343D9E08A9
  3
UCSORGFRONT
350
7DE1B343D9E08AC
  3
UCSORGLEFT
350
7DE1B343D9E08AA
  3
UCSORGRIGHT
350
7DE1B343D9E08AB
  3
UCSORGTOP
350
7DE1B343D9E08A8
  3
UCSORTHOREF
350
7DE1B343D9E08A5
  3
UCSORTHOVIEW
350
7DE1B343D9E08A6
  3
VERSIONGUID
350
7DE1B343D9E089A
  0
DICTIONARY
  5
7DE1B343D9E088B
102
{ACAD_REACTORS
330
7DE1B343D9E085D
102
}
330
7DE1B343D9E085D
100
AcDbDictionary
  3
DIMASSOC
350
7DE1B343D9E088C
  0
XRECORD
  5
7DE1B343D9E08B1
102
{ACAD_REACTORS
330
7DE1B343D9E08B0
102
}
330
7DE1B343D9E08B0
100
AcDbXrecord
340
7DE1B343D9E0869
  0
XRECORD
  5
7DE1B343D9E08AF
102
{ACAD_REACTORS
330
7DE1B343D9E08AE
102
}
330
7DE1B343D9E08AE
100
AcDbXrecord
340
7DE1B343D9E0866
  0
MLINESTYLE
  5
7DE1B343D9E086C
102
{ACAD_REACTORS
330
7DE1B343D9E085F
102
}
330
7DE1B343D9E085F
100
AcDbMlineStyle
  2
STANDARD
 70
     0
  3

 62
     0
 51
90.0
 52
90.0
 71
     2
 49
0.5
 62
   256
  6
BYLAYER
 49
-0.5
 62
   256
  6
BYLAYER
  0
ACDBPLACEHOLDER
  5
7DE1B343D9E0882
102
{ACAD_REACTORS
330
7DE1B343D9E0881
102
}
330
7DE1B343D9E0881
100
AcDbPlaceHolder
280
     0
  0
XRECORD
  5
7DE1B343D9E0898
102
{ACAD_REACTORS
330
7DE1B343D9E088E
102
}
330
7DE1B343D9E088E
100
AcDbXrecord
 90
        0
  0
XRECORD
  5
7DE1B343D9E0899
102
{ACAD_REACTORS
330
7DE1B343D9E088E
102
}
330
7DE1B343D9E088E
100
AcDbXrecord
  1
{F14A57E0-8DB6-11D6-88E6-0090279574E7}
  0
XRECORD
  5
7DE1B343D9E0891
102
{ACAD_REACTORS
330
7DE1B343D9E088E
102
}
330
7DE1B343D9E088E
100
AcDbXrecord
  1

  0
XRECORD
  5
7DE1B343D9E0897
102
{ACAD_REACTORS
330
7DE1B343D9E088E
102
}
330
7DE1B343D9E088E
100
AcDbXrecord
 90
        0
  0
XRECORD
  5
7DE1B343D9E0893
102
{ACAD_REACTORS
330
7DE1B343D9E088E
102
}
330
7DE1B343D9E088E
100
AcDbXrecord
340
7DE1B343D9E0883
  0
XRECORD
  5
7DE1B343D9E0896
102
{ACAD_REACTORS
330
7DE1B343D9E088E
102
}
330
7DE1B343D9E088E
100
AcDbXrecord
 90
    14877
  0
XRECORD
  5
7DE1B343D9E0894
102
{ACAD_REACTORS
330
7DE1B343D9E088E
102
}
330
7DE1B343D9E088E
100
AcDbXrecord
340
7DE1B343D9E0884
  0
XRECORD
  5
7DE1B343D9E0895
102
{ACAD_REACTORS
330
7DE1B343D9E088E
102
}
330
7DE1B343D9E088E
100
AcDbXrecord
340
7DE1B343D9E0881
  0
XRECORD
  5
7DE1B343D9E089B
102
{ACAD_REACTORS
330
7DE1B343D9E088E
102
}
330
7DE1B343D9E088E
100
AcDbXrecord
 40
0.0
  0
XRECORD
  5
7DE1B343D9E089E
102
{ACAD_REACTORS
330
7DE1B343D9E088E
102
}
330
7DE1B343D9E088E
100
AcDbXrecord
340
0
  0
XRECORD
  5
7DE1B343D9E08A4
102
{ACAD_REACTORS
330
7DE1B343D9E088E
102
}
330
7DE1B343D9E088E
100
AcDbXrecord
 10
0.0
 20
0.0
 30
0.0
  0
XRECORD
  5
7DE1B343D9E08A0
102
{ACAD_REACTORS
330
7DE1B343D9E088E
102
}
330
7DE1B343D9E088E
100
AcDbXrecord
 10
0.0
 20
0.0
 30
0.0
  0
XRECORD
  5
7DE1B343D9E08A3
102
{ACAD_REACTORS
330
7DE1B343D9E088E
102
}
330
7DE1B343D9E088E
100
AcDbXrecord
 10
0.0
 20
0.0
 30
0.0
  0
XRECORD
  5
7DE1B343D9E08A1
102
{ACAD_REACTORS
330
7DE1B343D9E088E
102
}
330
7DE1B343D9E088E
100
AcDbXrecord
 10
0.0
 20
0.0
 30
0.0
  0
XRECORD
  5
7DE1B343D9E08A2
102
{ACAD_REACTORS
330
7DE1B343D9E088E
102
}
330
7DE1B343D9E088E
100
AcDbXrecord
 10
0.0
 20
0.0
 30
0.0
  0
XRECORD
  5
7DE1B343D9E089F
102
{ACAD_REACTORS
330
7DE1B343D9E088E
102
}
330
7DE1B343D9E088E
100
AcDbXrecord
 10
0.0
 20
0.0
 30
0.0
  0
XRECORD
  5
7DE1B343D9E089C
102
{ACAD_REACTORS
330
7DE1B343D9E088E
102
}
330
7DE1B343D9E088E
100
AcDbXrecord
340
0
  0
XRECORD
  5
7DE1B343D9E089D
102
{ACAD_REACTORS
330
7DE1B343D9E088E
102
}
330
7DE1B343D9E088E
100
AcDbXrecord
 70
     0
  0
XRECORD
  5
7DE1B343D9E0892
102
{ACAD_REACTORS
330
7DE1B343D9E088E
102
}
330
7DE1B343D9E088E
100
AcDbXrecord
  1

  0
XRECORD
  5
7DE1B343D9E088F
102
{ACAD_REACTORS
330
7DE1B343D9E088E
102
}
330
7DE1B343D9E088E
100
AcDbXrecord
 90
        1
  0
XRECORD
  5
7DE1B343D9E0890
102
{ACAD_REACTORS
330
7DE1B343D9E088E
102
}
330
7DE1B343D9E088E
100
AcDbXrecord
 90
       70
  0
XRECORD
  5
7DE1B343D9E08A7
102
{ACAD_REACTORS
330
7DE1B343D9E088E
102
}
330
7DE1B343D9E088E
100
AcDbXrecord
340
0
  0
XRECORD
  5
7DE1B343D9E08AD
102
{ACAD_REACTORS
330
7DE1B343D9E088E
102
}
330
7DE1B343D9E088E
100
AcDbXrecord
 10
0.0
 20
0.0
 30
0.0
  0
XRECORD
  5
7DE1B343D9E08A9
102
{ACAD_REACTORS
330
7DE1B343D9E088E
102
}
330
7DE1B343D9E088E
100
AcDbXrecord
 10
0.0
 20
0.0
 30
0.0
  0
XRECORD
  5
7DE1B343D9E08AC
102
{ACAD_REACTORS
330
7DE1B343D9E088E
102
}
330
7DE1B343D9E088E
100
AcDbXrecord
 10
0.0
 20
0.0
 30
0.0
  0
XRECORD
  5
7DE1B343D9E08AA
102
{ACAD_REACTORS
330
7DE1B343D9E088E
102
}
330
7DE1B343D9E088E
100
AcDbXrecord
 10
0.0
 20
0.0
 30
0.0
  0
XRECORD
  5
7DE1B343D9E08AB
102
{ACAD_REACTORS
330
7DE1B343D9E088E
102
}
330
7DE1B343D9E088E
100
AcDbXrecord
 10
0.0
 20
0.0
 30
0.0
  0
XRECORD
  5
7DE1B343D9E08A8
102
{ACAD_REACTORS
330
7DE1B343D9E088E
102
}
330
7DE1B343D9E088E
100
AcDbXrecord
 10
0.0
 20
0.0
 30
0.0
  0
XRECORD
  5
7DE1B343D9E08A5
102
{ACAD_REACTORS
330
7DE1B343D9E088E
102
}
330
7DE1B343D9E088E
100
AcDbXrecord
340
0
  0
XRECORD
  5
7DE1B343D9E08A6
102
{ACAD_REACTORS
330
7DE1B343D9E088E
102
}
330
7DE1B343D9E088E
100
AcDbXrecord
 70
     0
  0
XRECORD
  5
7DE1B343D9E089A
102
{ACAD_REACTORS
330
7DE1B343D9E088E
102
}
330
7DE1B343D9E088E
100
AcDbXrecord
  1
{F14A57E2-8DB6-11D6-88E6-0090279574E7}
  0
DICTIONARYVAR
  5
7DE1B343D9E088C
102
{ACAD_REACTORS
330
7DE1B343D9E088B
102
}
330
7DE1B343D9E088B
100
DictionaryVariables
280
     0
  1
1
  0
ENDSEC
  0
EOF
