  0
SECTION
  2
HEADER
  9
$ACADVER
  1
AC1014
  9
$ACADMAINTVER
 70
     9
  9
$DWGCODEPAGE
  3
ANSI_1252
  9
$INSBASE
 10
1.75
 20
0.7891858565489788
 30
0.0
  9
$EXTMIN
 10
0.0070184207728567
 20
0.0325882839121667
 30
0.0
  9
$EXTMAX
 10
3.492237742519984
 20
1.289185856548978
 30
0.0
  9
$LIMMIN
 10
0.0
 20
0.0
  9
$LIMMAX
 10
18.0
 20
12.0
  9
$ORTHOMODE
 70
     1
  9
$REGENMODE
 70
     1
  9
$FILLMODE
 70
     1
  9
$QTEXTMODE
 70
     0
  9
$MIRRTEXT
 70
     0
  9
$DRAGMODE
 70
     2
  9
$LTSCALE
 40
1.0
  9
$OSMODE
 70
    39
  9
$ATTMODE
 70
     1
  9
$TEXTSIZE
 40
0.125
  9
$TRACEWID
 40
0.05
  9
$TEXTSTYLE
  7
ROMANS
  9
$CLAYER
  8
0
  9
$CELTYPE
  6
BYLAYER
  9
$CECOLOR
 62
   256
  9
$CELTSCALE
 40
1.0
  9
$DELOBJ
 70
     1
  9
$DISPSILH
 70
     1
  9
$DIMSCALE
 40
1.0
  9
$DIMASZ
 40
0.125
  9
$DIMEXO
 40
0.125
  9
$DIMDLI
 40
0.375
  9
$DIMRND
 40
0.0
  9
$DIMDLE
 40
0.0
  9
$DIMEXE
 40
0.125
  9
$DIMTP
 40
0.0
  9
$DIMTM
 40
0.0
  9
$DIMTXT
 40
0.125
  9
$DIMCEN
 40
-0.125
  9
$DIMTSZ
 40
0.0
  9
$DIMTOL
 70
     0
  9
$DIMLIM
 70
     0
  9
$DIMTIH
 70
     1
  9
$DIMTOH
 70
     1
  9
$DIMSE1
 70
     0
  9
$DIMSE2
 70
     0
  9
$DIMTAD
 70
     0
  9
$DIMZIN
 70
     4
  9
$DIMBLK
  1

  9
$DIMASO
 70
     1
  9
$DIMSHO
 70
     1
  9
$DIMPOST
  1

  9
$DIMAPOST
  1

  9
$DIMALT
 70
     0
  9
$DIMALTD
 70
     2
  9
$DIMALTF
 40
25.4
  9
$DIMLFAC
 40
1.0
  9
$DIMTOFL
 70
     0
  9
$DIMTVP
 40
0.0
  9
$DIMTIX
 70
     1
  9
$DIMSOXD
 70
     0
  9
$DIMSAH
 70
     0
  9
$DIMBLK1
  1

  9
$DIMBLK2
  1

  9
$DIMSTYLE
  2
STANDARD
  9
$DIMCLRD
 70
     0
  9
$DIMCLRE
 70
     0
  9
$DIMCLRT
 70
     0
  9
$DIMTFAC
 40
1.0
  9
$DIMGAP
 40
0.09
  9
$DIMJUST
 70
     0
  9
$DIMSD1
 70
     0
  9
$DIMSD2
 70
     0
  9
$DIMTOLJ
 70
     1
  9
$DIMTZIN
 70
     4
  9
$DIMALTZ
 70
     0
  9
$DIMALTTZ
 70
     0
  9
$DIMFIT
 70
     3
  9
$DIMUPT
 70
     0
  9
$DIMUNIT
 70
     2
  9
$DIMDEC
 70
     3
  9
$DIMTDEC
 70
     3
  9
$DIMALTU
 70
     2
  9
$DIMALTTD
 70
     2
  9
$DIMTXSTY
  7
ROMANS
  9
$DIMAUNIT
 70
     0
  9
$LUNITS
 70
     2
  9
$LUPREC
 70
     3
  9
$SKETCHINC
 40
0.1
  9
$FILLETRAD
 40
0.03125
  9
$AUNITS
 70
     0
  9
$AUPREC
 70
     0
  9
$MENU
  1
ACAD
  9
$ELEVATION
 40
0.0
  9
$PELEVATION
 40
0.0
  9
$THICKNESS
 40
0.0
  9
$LIMCHECK
 70
     0
  9
$BLIPMODE
 70
     0
  9
$CHAMFERA
 40
0.0
  9
$CHAMFERB
 40
0.0
  9
$CHAMFERC
 40
0.0
  9
$CHAMFERD
 40
0.0
  9
$SKPOLY
 70
     0
  9
$TDCREATE
 40
2448994.619037615
  9
$TDUPDATE
 40
2452458.310045451
  9
$TDINDWG
 40
0.0006052778
  9
$TDUSRTIMER
 40
0.0006052778
  9
$USRTIMER
 70
     1
  9
$ANGBASE
 50
0.0
  9
$ANGDIR
 70
     0
  9
$PDMODE
 70
     0
  9
$PDSIZE
 40
0.0
  9
$PLINEWID
 40
0.0
  9
$COORDS
 70
     2
  9
$SPLFRAME
 70
     0
  9
$SPLINETYPE
 70
     6
  9
$SPLINESEGS
 70
     8
  9
$ATTDIA
 70
     0
  9
$ATTREQ
 70
     1
  9
$HANDLING
 70
 22529
  9
$HANDSEED
  5
7DE1B343D9E04FB
  9
$SURFTAB1
 70
     6
  9
$SURFTAB2
 70
     6
  9
$SURFTYPE
 70
     6
  9
$SURFU
 70
     6
  9
$SURFV
 70
     6
  9
$UCSNAME
  2

  9
$UCSORG
 10
0.0
 20
0.0
 30
0.0
  9
$UCSXDIR
 10
1.0
 20
0.0
 30
0.0
  9
$UCSYDIR
 10
0.0
 20
1.0
 30
0.0
  9
$PUCSNAME
  2

  9
$PUCSORG
 10
0.0
 20
0.0
 30
0.0
  9
$PUCSXDIR
 10
1.0
 20
0.0
 30
0.0
  9
$PUCSYDIR
 10
0.0
 20
1.0
 30
0.0
  9
$USERI1
 70
     0
  9
$USERI2
 70
     0
  9
$USERI3
 70
     0
  9
$USERI4
 70
     0
  9
$USERI5
 70
     0
  9
$USERR1
 40
0.0
  9
$USERR2
 40
0.0
  9
$USERR3
 40
0.0
  9
$USERR4
 40
0.0
  9
$USERR5
 40
0.0
  9
$WORLDVIEW
 70
     1
  9
$SHADEDGE
 70
     3
  9
$SHADEDIF
 70
    70
  9
$TILEMODE
 70
     1
  9
$MAXACTVP
 70
    16
  9
$PINSBASE
 10
1.03893293760177
 20
50.00000000000001
 30
1.984756078337617
  9
$PLIMCHECK
 70
     0
  9
$PEXTMIN
 10
1.000000000000000E+20
 20
1.000000000000000E+20
 30
1.000000000000000E+20
  9
$PEXTMAX
 10
-1.000000000000000E+20
 20
-1.000000000000000E+20
 30
-1.000000000000000E+20
  9
$PLIMMIN
 10
0.0
 20
0.0
  9
$PLIMMAX
 10
12.0
 20
9.0
  9
$UNITMODE
 70
     0
  9
$VISRETAIN
 70
     0
  9
$PLINEGEN
 70
     1
  9
$PSLTSCALE
 70
     0
  9
$TREEDEPTH
 70
  3020
  9
$PICKSTYLE
 70
     1
  9
$CMLSTYLE
  2
STANDARD
  9
$CMLJUST
 70
     0
  9
$CMLSCALE
 40
1.0
  9
$PROXYGRAPHICS
 70
     1
  9
$MEASUREMENT
 70
     0
  0
ENDSEC
  0
SECTION
  2
CLASSES
  0
CLASS
  1
LWPOLYLINE
  2
AcDbPolyline
  3
AutoCAD 2000
 90
        0
280
     0
281
     1
  0
CLASS
  1
ACDBDICTIONARYWDFLT
  2
AcDbDictionaryWithDefault
  3
AutoCAD 2000
 90
        0
280
     0
281
     0
  0
CLASS
  1
ACDBPLACEHOLDER
  2
AcDbPlaceHolder
  3
AutoCAD 2000
 90
        0
280
     0
281
     0
  0
CLASS
  1
LAYOUT
  2
AcDbLayout
  3
AutoCAD 2000
 90
        0
280
     0
281
     0
  0
CLASS
  1
DICTIONARYVAR
  2
AcDbDictionaryVar
  3
AutoCAD 2000
 90
        0
280
     0
281
     0
  0
CLASS
  1
LONG_TRANSACTION
  2
AcDbLongTransaction
  3
AutoCAD 2000
 90
        0
280
     0
281
     0
  0
CLASS
  1
LWPOLYLINE
  2
AcDbPolyline
  3
AutoCAD 2000
 90
        0
280
     0
281
     1
  0
CLASS
  1
HATCH
  2
AcDbHatch
  3
AutoCAD 2000
 90
        0
280
     0
281
     1
  0
CLASS
  1
XRECORD
  2
AcDbXrecord
  3
AutoCAD 2000
 90
        0
280
     0
281
     0
  0
ENDSEC
  0
SECTION
  2
TABLES
  0
TABLE
  2
VPORT
  5
7DE1B343D9E04A2
330
0
100
AcDbSymbolTable
 70
     2
  0
VPORT
  5
7DE1B343D9E04D6
330
7DE1B343D9E04A2
100
AcDbSymbolTableRecord
100
AcDbViewportTableRecord
  2
*ACTIVE
 70
     0
 10
0.0
 20
0.0
 11
1.0
 21
1.0
 12
4.726046405515486
 22
0.6606445529738494
 13
0.0
 23
0.0
 14
0.015625
 24
0.015625
 15
0.0
 25
0.0
 16
0.0
 26
0.0
 36
1.0
 17
0.0
 27
0.0
 37
0.0
 40
2.282647215150728
 41
4.320930232558139
 42
50.0
 43
0.0
 44
0.0
 50
0.0
 51
0.0
 71
     0
 72
  2000
 73
     1
 74
     0
 75
     0
 76
     0
 77
     0
 78
     0
  0
ENDTAB
  0
TABLE
  2
LTYPE
  5
7DE1B343D9E049F
330
0
100
AcDbSymbolTable
 70
     1
  0
LTYPE
  5
7DE1B343D9E04AC
330
7DE1B343D9E049F
100
AcDbSymbolTableRecord
100
AcDbLinetypeTableRecord
  2
BYBLOCK
 70
     0
  3

 72
    65
 73
     0
 40
0.0
  0
LTYPE
  5
7DE1B343D9E04AD
330
7DE1B343D9E049F
100
AcDbSymbolTableRecord
100
AcDbLinetypeTableRecord
  2
BYLAYER
 70
     0
  3

 72
    65
 73
     0
 40
0.0
  0
LTYPE
  5
7DE1B343D9E04AE
330
7DE1B343D9E049F
100
AcDbSymbolTableRecord
100
AcDbLinetypeTableRecord
  2
CONTINUOUS
 70
     0
  3
Solid line
 72
    65
 73
     0
 40
0.0
  0
ENDTAB
  0
TABLE
  2
LAYER
  5
7DE1B343D9E049C
330
0
100
AcDbSymbolTable
 70
     2
  0
LAYER
  5
7DE1B343D9E04A9
330
7DE1B343D9E049C
100
AcDbSymbolTableRecord
100
AcDbLayerTableRecord
  2
0
 70
     0
 62
     7
  6
CONTINUOUS
  0
LAYER
  5
7DE1B343D9E04B9
330
7DE1B343D9E049C
100
AcDbSymbolTableRecord
100
AcDbLayerTableRecord
  2
TEXT
 70
     0
 62
     3
  6
CONTINUOUS
  0
ENDTAB
  0
TABLE
  2
STYLE
  5
7DE1B343D9E049D
330
0
100
AcDbSymbolTable
 70
     3
  0
STYLE
  5
7DE1B343D9E04AA
330
7DE1B343D9E049D
100
AcDbSymbolTableRecord
100
AcDbTextStyleTableRecord
  2
STANDARD
 70
     0
 40
0.0
 41
1.0
 50
0.0
 71
     0
 42
0.3125
  3
txt
  4

  0
STYLE
  5
7DE1B343D9E04B6
330
7DE1B343D9E049D
100
AcDbSymbolTableRecord
100
AcDbTextStyleTableRecord
  2
ITALICC
 70
     0
 40
0.0
 41
1.0
 50
0.0
 71
     0
 42
0.125
  3
italicc
  4

  0
STYLE
  5
7DE1B343D9E04C6
330
7DE1B343D9E049D
100
AcDbSymbolTableRecord
100
AcDbTextStyleTableRecord
  2
ROMANS
 70
     0
 40
0.0
 41
1.0
 50
0.0
 71
     0
 42
0.125
  3
romans.shx
  4

  0
ENDTAB
  0
TABLE
  2
VIEW
  5
7DE1B343D9E04A0
330
0
100
AcDbSymbolTable
 70
     0
  0
ENDTAB
  0
TABLE
  2
UCS
  5
7DE1B343D9E04A1
330
0
100
AcDbSymbolTable
 70
     0
  0
ENDTAB
  0
TABLE
  2
APPID
  5
7DE1B343D9E04A3
330
0
100
AcDbSymbolTable
 70
     1
  0
APPID
  5
7DE1B343D9E04AB
330
7DE1B343D9E04A3
100
AcDbSymbolTableRecord
100
AcDbRegAppTableRecord
  2
ACAD
 70
     0
  0
ENDTAB
  0
TABLE
  2
DIMSTYLE
  5
7DE1B343D9E04A4
330
0
100
AcDbSymbolTable
 70
     1
  0
DIMSTYLE
105
7DE1B343D9E04BE
330
7DE1B343D9E04A4
100
AcDbSymbolTableRecord
100
AcDbDimStyleTableRecord
  2
STANDARD
 70
     0
  3

  4

  5

  6

  7

 40
1.0
 41
0.125
 42
0.125
 43
0.375
 44
0.125
 45
0.0
 46
0.0
 47
0.0
 48
0.0
140
0.125
141
-0.125
142
0.0
143
25.4
144
1.0
145
0.0
146
1.0
147
0.09
 71
     0
 72
     0
 73
     1
 74
     1
 75
     0
 76
     0
 77
     0
 78
     4
170
     0
171
     2
172
     0
173
     0
174
     1
175
     0
176
     0
177
     0
178
     0
270
     2
271
     3
272
     3
273
     2
274
     2
340
7DE1B343D9E04C6
275
     0
280
     0
281
     0
282
     0
283
     1
284
     4
285
     0
286
     0
287
     3
288
     0
  0
ENDTAB
  0
TABLE
  2
BLOCK_RECORD
  5
7DE1B343D9E049B
330
0
100
AcDbSymbolTable
 70
     0
  0
BLOCK_RECORD
  5
7DE1B343D9E04B2
102
{ACAD_XDICTIONARY
360
7DE1B343D9E04F9
102
}
330
7DE1B343D9E049B
100
AcDbSymbolTableRecord
100
AcDbBlockTableRecord
  2
*MODEL_SPACE
  0
BLOCK_RECORD
  5
7DE1B343D9E04AF
102
{ACAD_XDICTIONARY
360
7DE1B343D9E04F7
102
}
330
7DE1B343D9E049B
100
AcDbSymbolTableRecord
100
AcDbBlockTableRecord
  2
*PAPER_SPACE
  0
ENDTAB
  0
ENDSEC
  0
SECTION
  2
BLOCKS
  0
BLOCK
  5
7DE1B343D9E04BC
330
7DE1B343D9E04B2
100
AcDbEntity
  8
0
100
AcDbBlockBegin
  2
*MODEL_SPACE
 70
     0
 10
0.0
 20
0.0
 30
0.0
  3
*MODEL_SPACE
  1

  0
ENDBLK
  5
7DE1B343D9E04BD
330
7DE1B343D9E04B2
100
AcDbEntity
  8
0
100
AcDbBlockEnd
  0
BLOCK
  5
7DE1B343D9E04BA
330
7DE1B343D9E04AF
100
AcDbEntity
 67
     1
  8
0
100
AcDbBlockBegin
  2
*PAPER_SPACE
 70
     0
 10
0.0
 20
0.0
 30
0.0
  3
*PAPER_SPACE
  1

  0
ENDBLK
  5
7DE1B343D9E04BB
330
7DE1B343D9E04AF
100
AcDbEntity
 67
     1
  8
0
100
AcDbBlockEnd
  0
ENDSEC
  0
SECTION
  2
ENTITIES
  0
LWPOLYLINE
  5
7DE1B343D9DEF2B
330
7DE1B343D9E04B2
100
AcDbEntity
  8
0
100
AcDbPolyline
 90
       14
 70
     1
 43
0.0
 10
2.21875
 20
0.8516858565489787
 42
-1.0
 10
2.21875
 20
0.7891858565489788
 10
1.28125
 20
0.7891858565489788
 42
-0.4142135623730951
 10
1.25
 20
0.8204358565489787
 10
1.25
 20
1.257935856548978
 42
-1.0
 10
1.3125
 20
1.257935856548978
 10
1.3125
 20
0.8829358565489787
 42
0.4142135623730951
 10
1.34375
 20
0.8516858565489787
 10
1.54625
 20
0.8516858565489787
 42
0.4142135623730951
 10
1.5775
 20
0.8829358565489787
 10
1.5775
 20
1.257935856548978
 42
-1.0
 10
1.64
 20
1.257935856548978
 10
1.64
 20
0.8829358565489783
 42
0.4142135623730951
 10
1.67125
 20
0.8516858565489783
  0
TEXT
  5
7DE1B343D9E035D
330
7DE1B343D9E04B2
100
AcDbEntity
  8
TEXT
100
AcDbText
 10
0.9970238095238093
 20
0.4906068879947483
 30
0.0
 40
0.125
  1
PART #110394
  7
ITALICC
 72
     1
 11
1.75
 21
0.4906068879947483
 31
0.0
100
AcDbText
  0
TEXT
  5
7DE1B343D9E035E
330
7DE1B343D9E04B2
100
AcDbEntity
  8
TEXT
100
AcDbText
 10
2.16330515825032
 20
0.0436842453223731
 30
0.0
 40
0.0522247191011236
  1
Phone  1-800-328-2495
 41
1.272321428571429
 72
     5
 11
3.492237742519984
 21
0.0436842453223731
 31
0.0
100
AcDbText
  0
TEXT
  5
7DE1B343D9E035F
330
7DE1B343D9E04B2
100
AcDbEntity
  8
TEXT
100
AcDbText
 10
2.16330515825032
 20
0.3234595262212496
 30
0.0
 40
0.0522247191011236
  1
Stylmark  Incorporated
 41
1.221428571428573
 72
     5
 11
3.492237742519984
 21
0.3234595262212496
 31
0.0
100
AcDbText
  0
TEXT
  5
7DE1B343D9E0360
330
7DE1B343D9E04B2
100
AcDbEntity
  8
TEXT
100
AcDbText
 10
2.16330515825032
 20
0.2302010992549574
 30
0.0
 40
0.0522247191011236
  1
6536 Main St. N.E. * P.O. Box 32008
 41
0.8388932496075366
 72
     5
 11
3.492237742519984
 21
0.2302010992549574
 31
0.0
100
AcDbText
  0
TEXT
  5
7DE1B343D9E0361
330
7DE1B343D9E04B2
100
AcDbEntity
  8
TEXT
100
AcDbText
 10
2.16330515825032
 20
0.1369426722886653
 30
0.0
 40
0.0522247191011236
  1
Minneapolis, MN 55432-0008
 41
1.11444212721585
 72
     5
 11
3.492237742519984
 21
0.1369426722886653
 31
0.0
100
AcDbText
  0
LWPOLYLINE
  5
7DE1B343D9E0362
330
7DE1B343D9E04B2
100
AcDbEntity
  8
TEXT
100
AcDbPolyline
 90
        3
 70
     0
 43
0.0006660908203125
 10
0.007351466183013
 20
0.1573290079598079
 10
0.007351466183013
 20
0.0440935685066803
 10
0.1205869056361353
 20
0.0440935685066803
  0
LWPOLYLINE
  5
7DE1B343D9E0367
330
7DE1B343D9E04B2
100
AcDbEntity
  8
TEXT
100
AcDbPolyline
 90
        3
 70
     0
 43
0.0006660908203125
 10
0.0339950989955105
 20
0.1573290079598079
 10
0.0339950989955105
 20
0.0707372013191813
 10
0.1205869056361353
 20
0.0707372013191813
  0
LWPOLYLINE
  5
7DE1B343D9E036C
330
7DE1B343D9E04B2
100
AcDbEntity
  8
TEXT
100
AcDbPolyline
 90
        2
 70
     0
 43
0.0001332181640625
 10
0.0806214564173873
 20
0.1673203702644932
 10
0.007351466183013
 20
0.1573290079598079
  0
LWPOLYLINE
  5
7DE1B343D9E0370
330
7DE1B343D9E04B2
100
AcDbEntity
  8
TEXT
100
AcDbPolyline
 90
        2
 70
     0
 43
0.0001332181640625
 10
0.0339950989955105
 20
0.1573290079598079
 10
0.0939432728236378
 20
0.1673203702644932
  0
LWPOLYLINE
  5
7DE1B343D9E0374
330
7DE1B343D9E04B2
100
AcDbEntity
  8
TEXT
100
AcDbPolyline
 90
        2
 70
     0
 43
0.0001332181640625
 10
0.0339950989955105
 20
0.0707372013191813
 10
0.0939432728236378
 20
0.1306853751473069
  0
LWPOLYLINE
  5
7DE1B343D9E0378
330
7DE1B343D9E04B2
100
AcDbEntity
  8
TEXT
100
AcDbPolyline
 90
        3
 70
     0
 43
0.0006660908203125
 10
0.1205869056361353
 20
0.3105298966316836
 10
0.007351466183013
 20
0.3105298966316836
 10
0.007351466183013
 20
0.1972944571785559
  0
LWPOLYLINE
  5
7DE1B343D9E037D
330
7DE1B343D9E04B2
100
AcDbEntity
  8
TEXT
100
AcDbPolyline
 90
        3
 70
     0
 43
0.0006660908203125
 10
0.1205869056361353
 20
0.2838862638191825
 10
0.0339950989955105
 20
0.2838862638191825
 10
0.0339950989955105
 20
0.1972944571785559
  0
LWPOLYLINE
  5
7DE1B343D9E0382
330
7DE1B343D9E04B2
100
AcDbEntity
  8
TEXT
100
AcDbPolyline
 90
        2
 70
     0
 43
0.0001332181640625
 10
0.0339950989955105
 20
0.2838862638191825
 10
0.093943272823636
 20
0.223938089991057
  0
LWPOLYLINE
  5
7DE1B343D9E0386
330
7DE1B343D9E04B2
100
AcDbEntity
  8
TEXT
100
AcDbPolyline
 90
        2
 70
     0
 43
0.0001332181640625
 10
0.0339950989955105
 20
0.1972944571785559
 10
0.093943272823636
 20
0.1873030948738671
  0
LWPOLYLINE
  5
7DE1B343D9E038A
330
7DE1B343D9E04B2
100
AcDbEntity
  8
TEXT
100
AcDbPolyline
 90
        2
 70
     0
 43
0.0001332181640625
 10
0.007351466183013
 20
0.1972944571785559
 10
0.0806214564173873
 20
0.1873030948738671
  0
LWPOLYLINE
  5
7DE1B343D9E038E
330
7DE1B343D9E04B2
100
AcDbEntity
  8
TEXT
100
AcDbPolyline
 90
        2
 70
     0
 43
0.0006660908203125
 10
0.0339950989955105
 20
0.1573290079598079
 10
0.007351466183013
 20
0.1573290079598079
  0
LWPOLYLINE
  5
7DE1B343D9E0392
330
7DE1B343D9E04B2
100
AcDbEntity
  8
TEXT
100
AcDbPolyline
 90
        2
 70
     0
 43
0.0006660908203125
 10
0.0339950989955105
 20
0.1972944571785559
 10
0.007351466183013
 20
0.1972944571785559
  0
LINE
  5
7DE1B343D9E0396
330
7DE1B343D9E04B2
100
AcDbEntity
  8
TEXT
100
AcDbLine
 10
1.52254189530951
 20
0.2462532019749146
 30
0.0
 11
1.415335621922221
 21
0.2462532019749146
 31
0.0
  0
LINE
  5
7DE1B343D9E0397
330
7DE1B343D9E04B2
100
AcDbEntity
  8
TEXT
100
AcDbLine
 10
1.551572793653988
 20
0.31052989663168
 30
0.0
 11
1.416740884436929
 21
0.31052989663168
 31
0.0
  0
ARC
  5
7DE1B343D9E0398
330
7DE1B343D9E04B2
100
AcDbEntity
  8
TEXT
100
AcDbCircle
 10
1.476054980830246
 20
0.1412926473686637
 30
0.0
 40
0.0676855811441166
100
AcDbArc
 50
90.0
 51
153.7768192527749
  0
LWPOLYLINE
  5
7DE1B343D9E0399
330
7DE1B343D9E04B2
100
AcDbEntity
  8
TEXT
100
AcDbPolyline
 90
        2
 70
     0
 43
0.0
 10
1.414303126467411
 20
0.0875478085936072
 42
0.2901071551932823
 10
1.457379059335046
 20
0.044056863643169
 42
5.328517124445801
  0
ARC
  5
7DE1B343D9E039D
330
7DE1B343D9E04B2
100
AcDbEntity
  8
TEXT
100
AcDbCircle
 10
0.770923603158761
 20
0.1038492549812188
 30
0.0
 40
0.0601160179737537
100
AcDbArc
 50
180.0000000000003
 51
264.0521544866073
  0
LINE
  5
7DE1B343D9E039E
330
7DE1B343D9E04B2
100
AcDbEntity
  8
TEXT
100
AcDbLine
 10
0.7744389587843088
 20
0.3449178142258182
 30
0.0
 11
0.7143963539403018
 21
0.3449178142258182
 31
0.0
  0
ARC
  5
7DE1B343D9E039F
330
7DE1B343D9E04B2
100
AcDbEntity
  8
TEXT
100
AcDbCircle
 10
0.5386646010417904
 20
0.2284424371851783
 30
0.0
 40
0.0820874594465043
100
AcDbArc
 50
90.0
 51
270.0
  0
LWPOLYLINE
  5
7DE1B343D9E03A0
330
7DE1B343D9E04B2
100
AcDbEntity
  8
TEXT
100
AcDbPolyline
 90
        2
 70
     0
 43
0.0001332181640625
 10
0.1305782679408258
 20
0.2372599063973039
 10
0.1205869056361353
 20
0.3105298966316836
  0
LWPOLYLINE
  5
7DE1B343D9E03A4
330
7DE1B343D9E04B2
100
AcDbEntity
  8
TEXT
100
AcDbPolyline
 90
        2
 70
     0
 43
0.0001332181640625
 10
0.1205869056361353
 20
0.2838862638191825
 10
0.1305782679408258
 20
0.223938089991057
  0
LWPOLYLINE
  5
7DE1B343D9E03A8
330
7DE1B343D9E04B2
100
AcDbEntity
  8
TEXT
100
AcDbPolyline
 90
        3
 70
     0
 43
0.0006660908203125
 10
0.2737877943080127
 20
0.1972944571785559
 10
0.2737877943080127
 20
0.3105298966316836
 10
0.1605523548548868
 20
0.3105298966316836
  0
LWPOLYLINE
  5
7DE1B343D9E03AD
330
7DE1B343D9E04B2
100
AcDbEntity
  8
TEXT
100
AcDbPolyline
 90
        3
 70
     0
 43
0.0006660908203125
 10
0.2471441614955117
 20
0.1972944571785559
 10
0.2471441614955117
 20
0.2838862638191825
 10
0.1605523548548868
 20
0.2838862638191825
  0
LWPOLYLINE
  5
7DE1B343D9E03B2
330
7DE1B343D9E04B2
100
AcDbEntity
  8
TEXT
100
AcDbPolyline
 90
        2
 70
     0
 43
0.0001332181640625
 10
0.2471441614955117
 20
0.2838862638191825
 10
0.1871959876673879
 20
0.223938089991057
  0
LWPOLYLINE
  5
7DE1B343D9E03B6
330
7DE1B343D9E04B2
100
AcDbEntity
  8
TEXT
100
AcDbPolyline
 90
        2
 70
     0
 43
0.0001332181640625
 10
0.1605523548548868
 20
0.2838862638191825
 10
0.1505609925501981
 20
0.223938089991057
  0
LWPOLYLINE
  5
7DE1B343D9E03BA
330
7DE1B343D9E04B2
100
AcDbEntity
  8
TEXT
100
AcDbPolyline
 90
        2
 70
     0
 43
0.0001332181640625
 10
0.1605523548548868
 20
0.3105298966316836
 10
0.1505609925501981
 20
0.2372599063973039
  0
LWPOLYLINE
  5
7DE1B343D9E03BE
330
7DE1B343D9E04B2
100
AcDbEntity
  8
TEXT
100
AcDbPolyline
 90
        2
 70
     0
 43
0.0001332181640625
 10
0.2005178040736366
 20
0.1873030948738671
 10
0.2737877943080127
 20
0.1972944571785559
  0
LWPOLYLINE
  5
7DE1B343D9E03C2
330
7DE1B343D9E04B2
100
AcDbEntity
  8
TEXT
100
AcDbPolyline
 90
        2
 70
     0
 43
0.0001332181640625
 10
0.2471441614955117
 20
0.1972944571785559
 10
0.1871959876673879
 20
0.1873030948738671
  0
LWPOLYLINE
  5
7DE1B343D9E03C6
330
7DE1B343D9E04B2
100
AcDbEntity
  8
TEXT
100
AcDbPolyline
 90
        2
 70
     0
 43
0.0001332181640625
 10
0.2737877943080127
 20
0.1573290079598079
 10
0.2005178040736366
 20
0.1673203702644932
  0
LWPOLYLINE
  5
7DE1B343D9E03CA
330
7DE1B343D9E04B2
100
AcDbEntity
  8
TEXT
100
AcDbPolyline
 90
        2
 70
     0
 43
0.0001332181640625
 10
0.2471441614955117
 20
0.1573290079598079
 10
0.1871959876673879
 20
0.1673203702644932
  0
LWPOLYLINE
  5
7DE1B343D9E03CE
330
7DE1B343D9E04B2
100
AcDbEntity
  8
TEXT
100
AcDbPolyline
 90
        2
 70
     0
 43
0.0001332181640625
 10
0.2471441614955117
 20
0.0707372013191813
 10
0.1871959876673879
 20
0.1306853751473069
  0
LWPOLYLINE
  5
7DE1B343D9E03D2
330
7DE1B343D9E04B2
100
AcDbEntity
  8
TEXT
100
AcDbPolyline
 90
        3
 70
     0
 43
0.0006660908203125
 10
0.1605523548548868
 20
0.0707372013191813
 10
0.2471441614955117
 20
0.0707372013191813
 10
0.2471441614955117
 20
0.1573290079598079
  0
LWPOLYLINE
  5
7DE1B343D9E03D7
330
7DE1B343D9E04B2
100
AcDbEntity
  8
TEXT
100
AcDbPolyline
 90
        3
 70
     0
 43
0.0006660908203125
 10
0.1605523548548868
 20
0.0440935685066803
 10
0.2737877943080127
 20
0.0440935685066803
 10
0.2737877943080127
 20
0.1573290079598079
  0
LWPOLYLINE
  5
7DE1B343D9E03DC
330
7DE1B343D9E04B2
100
AcDbEntity
  8
TEXT
100
AcDbPolyline
 90
        5
 70
     0
 43
0.0001332181640625
 10
0.1305782679408258
 20
0.1173635587410564
 10
0.1305782679408258
 20
0.1306853751473069
 10
0.0939432728236378
 20
0.1306853751473069
 10
0.0939432728236378
 20
0.1673203702644932
 10
0.0806214564173873
 20
0.1673203702644932
  0
LWPOLYLINE
  5
7DE1B343D9E03E3
330
7DE1B343D9E04B2
100
AcDbEntity
  8
TEXT
100
AcDbPolyline
 90
        2
 70
     0
 43
0.0006660908203125
 10
0.1205869056361353
 20
0.0707372013191813
 10
0.1205869056361353
 20
0.0440935685066803
  0
LWPOLYLINE
  5
7DE1B343D9E03E7
330
7DE1B343D9E04B2
100
AcDbEntity
  8
TEXT
100
AcDbPolyline
 90
        2
 70
     0
 43
0.0001332181640625
 10
0.1205869056361353
 20
0.0707372013191813
 10
0.1305782679408258
 20
0.1306853751473069
  0
LWPOLYLINE
  5
7DE1B343D9E03EB
330
7DE1B343D9E04B2
100
AcDbEntity
  8
TEXT
100
AcDbPolyline
 90
        2
 70
     0
 43
0.0001332181640625
 10
0.1205869056361353
 20
0.0440935685066803
 10
0.1305782679408258
 20
0.1173635587410564
  0
LWPOLYLINE
  5
7DE1B343D9E03EF
330
7DE1B343D9E04B2
100
AcDbEntity
  8
TEXT
100
AcDbPolyline
 90
        5
 70
     0
 43
0.0001332181640625
 10
0.0806214564173873
 20
0.1873030948738671
 10
0.093943272823636
 20
0.1873030948738671
 10
0.093943272823636
 20
0.223938089991057
 10
0.1305782679408258
 20
0.223938089991057
 10
0.1305782679408258
 20
0.2372599063973039
  0
LWPOLYLINE
  5
7DE1B343D9E03F6
330
7DE1B343D9E04B2
100
AcDbEntity
  8
TEXT
100
AcDbPolyline
 90
        5
 70
     0
 43
0.0001332181640625
 10
0.1505609925501981
 20
0.2372599063973039
 10
0.1505609925501981
 20
0.223938089991057
 10
0.1871959876673879
 20
0.223938089991057
 10
0.1871959876673879
 20
0.1873030948738671
 10
0.2005178040736366
 20
0.1873030948738671
  0
LWPOLYLINE
  5
7DE1B343D9E03FD
330
7DE1B343D9E04B2
100
AcDbEntity
  8
TEXT
100
AcDbPolyline
 90
        2
 70
     0
 43
0.0001332181640625
 10
0.1605523548548868
 20
0.0707372013191813
 10
0.1505609925501981
 20
0.1306853751473069
  0
LWPOLYLINE
  5
7DE1B343D9E0401
330
7DE1B343D9E04B2
100
AcDbEntity
  8
TEXT
100
AcDbPolyline
 90
        2
 70
     0
 43
0.0001332181640625
 10
0.1505609925501981
 20
0.1173635587410564
 10
0.1605523548548868
 20
0.0440935685066803
  0
LWPOLYLINE
  5
7DE1B343D9E0405
330
7DE1B343D9E04B2
100
AcDbEntity
  8
TEXT
100
AcDbPolyline
 90
        2
 70
     0
 43
0.0006660908203125
 10
0.1605523548548868
 20
0.0707372013191813
 10
0.1605523548548868
 20
0.0440935685066803
  0
LWPOLYLINE
  5
7DE1B343D9E0409
330
7DE1B343D9E04B2
100
AcDbEntity
  8
TEXT
100
AcDbPolyline
 90
        5
 70
     0
 43
0.0001332181640625
 10
0.2005178040736366
 20
0.1673203702644932
 10
0.1871959876673879
 20
0.1673203702644932
 10
0.1871959876673879
 20
0.1306853751473069
 10
0.1505609925501981
 20
0.1306853751473069
 10
0.1505609925501981
 20
0.1173635587410564
  0
LWPOLYLINE
  5
7DE1B343D9E0410
330
7DE1B343D9E04B2
100
AcDbEntity
  8
TEXT
100
AcDbPolyline
 90
        2
 70
     0
 43
0.0006660908203125
 10
0.2471441614955117
 20
0.1972944571785559
 10
0.2737877943080127
 20
0.1972944571785559
  0
LWPOLYLINE
  5
7DE1B343D9E0414
330
7DE1B343D9E04B2
100
AcDbEntity
  8
TEXT
100
AcDbPolyline
 90
        2
 70
     0
 43
0.0006660908203125
 10
0.2471441614955117
 20
0.1573290079598079
 10
0.2737877943080127
 20
0.1573290079598079
  0
LINE
  5
7DE1B343D9E0418
330
7DE1B343D9E04B2
100
AcDbEntity
  8
TEXT
100
AcDbLine
 10
0.5439019311560376
 20
0.2462532019749146
 30
0.0
 11
0.7108075851850089
 21
0.2462532019749146
 31
0.0
  0
LINE
  5
7DE1B343D9E0419
330
7DE1B343D9E04B2
100
AcDbEntity
  8
TEXT
100
AcDbLine
 10
0.6095020674003387
 20
0.2104484803642867
 30
0.0
 11
0.5439019311560376
 21
0.2104484803642867
 31
0.0
  0
LINE
  5
7DE1B343D9E041A
330
7DE1B343D9E04B2
100
AcDbEntity
  8
TEXT
100
AcDbLine
 10
0.456577141595286
 20
0.044056863643169
 30
0.0
 11
0.6095020674003387
 21
0.044056863643169
 31
0.0
  0
LINE
  5
7DE1B343D9E041B
330
7DE1B343D9E04B2
100
AcDbEntity
  8
TEXT
100
AcDbLine
 10
0.6144424413066183
 20
0.1124138699766084
 30
0.0
 11
0.4565771415952842
 21
0.1124138699766084
 31
0.0
  0
LINE
  5
7DE1B343D9E041C
330
7DE1B343D9E04B2
100
AcDbEntity
  8
TEXT
100
AcDbLine
 10
0.5386646010417895
 20
0.146354977738673
 30
0.0
 11
0.6144424413066183
 21
0.146354977738673
 31
0.0
  0
ARC
  5
7DE1B343D9E041D
330
7DE1B343D9E04B2
100
AcDbEntity
  8
TEXT
100
AcDbCircle
 10
0.5439019311560385
 20
0.2283508411696024
 30
0.0
 40
0.017902360805315
100
AcDbArc
 50
90.0
 51
270.0
  0
LINE
  5
7DE1B343D9E041E
330
7DE1B343D9E04B2
100
AcDbEntity
  8
TEXT
100
AcDbLine
 10
0.4565771415952842
 20
0.1124138699766084
 30
0.0
 11
0.456577141595286
 21
0.044056863643169
 31
0.0
  0
LINE
  5
7DE1B343D9E041F
330
7DE1B343D9E04B2
100
AcDbEntity
  8
TEXT
100
AcDbLine
 10
0.7108075851850089
 20
0.2462532019749146
 30
0.0
 11
0.7108075851850089
 21
0.1038492549812188
 31
0.0
  0
ARC
  5
7DE1B343D9E0420
330
7DE1B343D9E04B2
100
AcDbEntity
  8
TEXT
100
AcDbCircle
 10
0.6095020674003396
 20
0.1272526720037261
 30
0.0
 40
0.0831958083605586
100
AcDbArc
 50
270.0
 51
90.0
  0
ARC
  5
7DE1B343D9E0421
330
7DE1B343D9E04B2
100
AcDbEntity
  8
TEXT
100
AcDbCircle
 10
0.6144424413066192
 20
0.1293844238576424
 30
0.0
 40
0.0169705538810321
100
AcDbArc
 50
270.0
 51
90.0
  0
LWPOLYLINE
  5
7DE1B343D9E0422
330
7DE1B343D9E04B2
100
AcDbEntity
  8
TEXT
100
AcDbPolyline
 90
        2
 70
     0
 43
0.0006660908203125
 10
0.1205869056361353
 20
0.2838862638191825
 10
0.1205869056361353
 20
0.3105298966316836
  0
LWPOLYLINE
  5
7DE1B343D9E0426
330
7DE1B343D9E04B2
100
AcDbEntity
  8
TEXT
100
AcDbPolyline
 90
        2
 70
     0
 43
0.0006660908203125
 10
0.1605523548548868
 20
0.2838862638191825
 10
0.1605523548548868
 20
0.3105298966316836
  0
LINE
  5
7DE1B343D9E042A
330
7DE1B343D9E04B2
100
AcDbEntity
  8
TEXT
100
AcDbLine
 10
0.7143963539403018
 20
0.31052989663168
 30
0.0
 11
0.5386646010417895
 21
0.31052989663168
 31
0.0
  0
LINE
  5
7DE1B343D9E042B
330
7DE1B343D9E04B2
100
AcDbEntity
  8
TEXT
100
AcDbLine
 10
0.7143963539403018
 20
0.3449178142258182
 30
0.0
 11
0.7143963539403018
 21
0.31052989663168
 31
0.0
  0
LINE
  5
7DE1B343D9E042C
330
7DE1B343D9E04B2
100
AcDbEntity
  8
TEXT
100
AcDbLine
 10
0.904868245960154
 20
0.2096579005185594
 30
0.0
 11
0.8462379249282161
 21
0.31052989663168
 31
0.0
  0
LINE
  5
7DE1B343D9E042D
330
7DE1B343D9E04B2
100
AcDbEntity
  8
TEXT
100
AcDbLine
 10
0.9636168087660195
 20
0.31052989663168
 30
0.0
 11
0.904868245960154
 21
0.2096579005185594
 31
0.0
  0
LINE
  5
7DE1B343D9E042E
330
7DE1B343D9E04B2
100
AcDbEntity
  8
TEXT
100
AcDbLine
 10
1.06054743412576
 20
0.1264447017461682
 30
0.0
 11
1.06054743412576
 21
0.3785413743704906
 31
0.0
  0
LINE
  5
7DE1B343D9E042F
330
7DE1B343D9E04B2
100
AcDbEntity
  8
TEXT
100
AcDbLine
 10
1.09285928826342
 20
0.31052989663168
 30
0.0
 11
1.09285928826342
 21
0.1096656898992718
 31
0.0
  0
LINE
  5
7DE1B343D9E0430
330
7DE1B343D9E04B2
100
AcDbEntity
  8
TEXT
100
AcDbLine
 10
1.09285928826342
 20
0.1096656898992718
 30
0.0
 11
1.075865651378819
 21
0.1096656898992718
 31
0.0
  0
LINE
  5
7DE1B343D9E0431
330
7DE1B343D9E04B2
100
AcDbEntity
  8
TEXT
100
AcDbLine
 10
1.061687007621955
 20
0.044056863643169
 30
0.0
 11
1.15969034132139
 21
0.044056863643169
 31
0.0
  0
LINE
  5
7DE1B343D9E0432
330
7DE1B343D9E04B2
100
AcDbEntity
  8
TEXT
100
AcDbLine
 10
0.8952680089631996
 20
0.064015369748182
 30
0.0
 11
0.9925677150566443
 21
0.2283655806834501
 31
0.0
  0
ARC
  5
7DE1B343D9E0433
330
7DE1B343D9E04B2
100
AcDbEntity
  8
TEXT
100
AcDbCircle
 10
0.8612244490509857
 20
0.0836045859168648
 30
0.0
 40
0.0392772371940762
100
AcDbArc
 50
270.1604552698595
 51
330.0831797321295
  0
LINE
  5
7DE1B343D9E0434
330
7DE1B343D9E04B2
100
AcDbEntity
  8
TEXT
100
AcDbLine
 10
0.7646941926651146
 20
0.044056863643169
 30
0.0
 11
0.8613344437401089
 21
0.0443275027414513
 31
0.0
  0
LWPOLYLINE
  5
7DE1B343D9E0435
330
7DE1B343D9E04B2
100
AcDbEntity
  8
TEXT
100
AcDbPolyline
 90
        6
 70
     1
 43
0.0
 10
0.8072179962402641
 20
0.2462532019749146
 10
0.776901402020056
 20
0.2462532019749146
 10
0.776901402020056
 20
0.1231422039200202
 42
0.407328721240804
 10
0.7884450531815324
 20
0.1113232892436342
 10
0.8490667522262631
 20
0.1113232892436342
 10
0.8665320926335811
 20
0.1441355182871133
  0
LINE
  5
7DE1B343D9E043D
330
7DE1B343D9E04B2
100
AcDbEntity
  8
TEXT
100
AcDbLine
 10
0.9925677150566443
 20
0.2283655806834501
 30
0.0
 11
0.9925677150566443
 21
0.0956082058580938
 31
0.0
  0
ARC
  5
7DE1B343D9E043E
330
7DE1B343D9E04B2
100
AcDbEntity
  8
TEXT
100
AcDbCircle
 10
1.075865651378817
 20
0.1250474961426972
 30
0.0
 40
0.0153818062434269
100
AcDbArc
 50
174.7883570302258
 51
270.0
  0
LWPOLYLINE
  5
7DE1B343D9E043F
330
7DE1B343D9E04B2
100
AcDbEntity
  8
TEXT
100
AcDbPolyline
 90
        2
 70
     0
 43
0.0
 10
0.9925677150566425
 20
0.0956082058580973
 42
0.3318488747599744
 10
1.061687007621955
 20
0.044056863643169
 42
-6.868794160588311
  0
LINE
  5
7DE1B343D9E0443
330
7DE1B343D9E04B2
100
AcDbEntity
  8
TEXT
100
AcDbLine
 10
1.217079410310651
 20
0.044056863643169
 30
0.0
 11
1.284137457092491
 21
0.044056863643169
 31
0.0
  0
LINE
  5
7DE1B343D9E0444
330
7DE1B343D9E04B2
100
AcDbEntity
  8
TEXT
100
AcDbLine
 10
1.217079410310651
 20
0.2386994128088046
 30
0.0
 11
1.217079410310651
 21
0.044056863643169
 31
0.0
  0
LINE
  5
7DE1B343D9E0445
330
7DE1B343D9E04B2
100
AcDbEntity
  8
TEXT
100
AcDbLine
 10
1.15969034132139
 20
0.2462532019749146
 30
0.0
 11
1.209525621144537
 21
0.2462532019749146
 31
0.0
  0
LINE
  5
7DE1B343D9E0446
330
7DE1B343D9E04B2
100
AcDbEntity
  8
TEXT
100
AcDbLine
 10
1.15969034132139
 20
0.044056863643169
 30
0.0
 11
1.15969034132139
 21
0.2462532019749146
 31
0.0
  0
LWPOLYLINE
  5
7DE1B343D9E0447
330
7DE1B343D9E04B2
100
AcDbEntity
  8
TEXT
100
AcDbPolyline
 90
        2
 70
     0
 43
0.0
 10
1.209525621144535
 20
0.2462532019749146
 42
-0.4142135623731017
 10
1.217079410310649
 20
0.2386994128088046
 42
-0.9999999999999998
  0
LINE
  5
7DE1B343D9E044B
330
7DE1B343D9E04B2
100
AcDbEntity
  8
TEXT
100
AcDbLine
 10
1.415335621922221
 20
0.2462532019749146
 30
0.0
 11
1.415335621922221
 21
0.171200795900708
 31
0.0
  0
LINE
  5
7DE1B343D9E044C
330
7DE1B343D9E04B2
100
AcDbEntity
  8
TEXT
100
AcDbLine
 10
1.284137457092491
 20
0.2462532019749146
 30
0.0
 11
1.338271054013441
 21
0.2462532019749146
 31
0.0
  0
LINE
  5
7DE1B343D9E044D
330
7DE1B343D9E04B2
100
AcDbEntity
  8
TEXT
100
AcDbLine
 10
1.284137457092491
 20
0.044056863643169
 30
0.0
 11
1.284137457092491
 21
0.2462532019749146
 31
0.0
  0
LWPOLYLINE
  5
7DE1B343D9E044E
330
7DE1B343D9E04B2
100
AcDbEntity
  8
TEXT
100
AcDbPolyline
 90
        2
 70
     0
 43
0.0
 10
1.338271054013439
 20
0.2462532019749146
 42
-0.4142135623731017
 10
1.345824843179553
 20
0.2386994128088046
 42
-0.9999999999999998
  0
LWPOLYLINE
  5
7DE1B343D9E0452
330
7DE1B343D9E04B2
100
AcDbEntity
  8
TEXT
100
AcDbPolyline
 90
        4
 70
     0
 43
0.0
 10
1.345824843179553
 20
0.2386994128088046
 10
1.345824843179553
 20
0.044056863643169
 10
1.414303126467411
 20
0.044056863643169
 10
1.414303126467411
 20
0.0875478085936072
 42
-1.714843617202739
  0
LINE
  5
7DE1B343D9E0458
330
7DE1B343D9E04B2
100
AcDbEntity
  8
TEXT
100
AcDbLine
 10
0.7744389587843088
 20
0.31052989663168
 30
0.0
 11
0.7744389587843088
 21
0.3449178142258182
 31
0.0
  0
LINE
  5
7DE1B343D9E0459
330
7DE1B343D9E04B2
100
AcDbEntity
  8
TEXT
100
AcDbLine
 10
0.8462379249282161
 20
0.31052989663168
 30
0.0
 11
0.7744389587843088
 21
0.31052989663168
 31
0.0
  0
LINE
  5
7DE1B343D9E045A
330
7DE1B343D9E04B2
100
AcDbEntity
  8
TEXT
100
AcDbLine
 10
0.9937387215593957
 20
0.31052989663168
 30
0.0
 11
0.9636168087660195
 21
0.31052989663168
 31
0.0
  0
LINE
  5
7DE1B343D9E045B
330
7DE1B343D9E04B2
100
AcDbEntity
  8
TEXT
100
AcDbLine
 10
0.9937387215593957
 20
0.3785413743704906
 30
0.0
 11
0.9937387215593957
 21
0.31052989663168
 31
0.0
  0
LINE
  5
7DE1B343D9E045C
330
7DE1B343D9E04B2
100
AcDbEntity
  8
TEXT
100
AcDbLine
 10
1.06054743412576
 20
0.3785413743704906
 30
0.0
 11
0.9937387215593957
 21
0.3785413743704906
 31
0.0
  0
LWPOLYLINE
  5
7DE1B343D9E045D
330
7DE1B343D9E04B2
100
AcDbEntity
  8
TEXT
100
AcDbPolyline
 90
        3
 70
     0
 43
0.0
 10
1.380959193723763
 20
0.3105298966316836
 10
1.262659034907718
 20
0.3105298966316836
 10
1.262659034907718
 20
0.2833623998707876
 42
-1.960274751411753
  0
LINE
  5
7DE1B343D9E0462
330
7DE1B343D9E04B2
100
AcDbEntity
  8
TEXT
100
AcDbLine
 10
1.226877344194557
 20
0.31052989663168
 30
0.0
 11
1.09285928826342
 21
0.31052989663168
 31
0.0
  0
LWPOLYLINE
  5
7DE1B343D9E0463
330
7DE1B343D9E04B2
100
AcDbEntity
  8
TEXT
100
AcDbPolyline
 90
        2
 70
     0
 43
0.0
 10
1.226877344194557
 20
0.3105298966316836
 42
-0.3328679258950098
 10
1.262659034907718
 20
0.2833623998707876
 42
6.772930709997214
  0
LINE
  5
7DE1B343D9E0467
330
7DE1B343D9E04B2
100
AcDbEntity
  8
TEXT
100
AcDbLine
 10
1.416740884436929
 20
0.31052989663168
 30
0.0
 11
1.416740884436929
 21
0.2822073508620361
 31
0.0
  0
LWPOLYLINE
  5
7DE1B343D9E0468
330
7DE1B343D9E04B2
100
AcDbEntity
  8
TEXT
100
AcDbPolyline
 90
        2
 70
     0
 43
0.0
 10
1.380959193723763
 20
0.3105298966316836
 42
-0.3277054968067132
 10
1.416740884436928
 20
0.2822073508620397
 42
6.667889725900311
  0
LINE
  5
7DE1B343D9E046C
330
7DE1B343D9E04B2
100
AcDbEntity
  8
TEXT
100
AcDbLine
 10
1.630532732529029
 20
0.2053179180782527
 30
0.0
 11
1.586781961347128
 21
0.2875681940743979
 31
0.0
  0
LINE
  5
7DE1B343D9E046D
330
7DE1B343D9E04B2
100
AcDbEntity
  8
TEXT
100
AcDbLine
 10
1.630532732529029
 20
0.31052989663168
 30
0.0
 11
1.630532732529029
 21
0.2053179180782527
 31
0.0
  0
LINE
  5
7DE1B343D9E046E
330
7DE1B343D9E04B2
100
AcDbEntity
  8
TEXT
100
AcDbLine
 10
1.858216471467398
 20
0.2346645702201419
 30
0.0
 11
1.858216471467398
 21
0.3759941023992807
 31
0.0
  0
LINE
  5
7DE1B343D9E046F
330
7DE1B343D9E04B2
100
AcDbEntity
  8
TEXT
100
AcDbLine
 10
1.905314630023383
 20
0.31052989663168
 30
0.0
 11
1.858216471467398
 21
0.2346645702201419
 31
0.0
  0
LINE
  5
7DE1B343D9E0470
330
7DE1B343D9E04B2
100
AcDbEntity
  8
TEXT
100
AcDbLine
 10
1.915749346787306
 20
0.2006366536907064
 30
0.0
 11
1.980306462753011
 21
0.31052989663168
 31
0.0
  0
LINE
  5
7DE1B343D9E0471
330
7DE1B343D9E04B2
100
AcDbEntity
  8
TEXT
100
AcDbLine
 10
1.794381480244625
 20
0.044056863643169
 30
0.0
 11
1.858759664563246
 21
0.044056863643169
 31
0.0
  0
LWPOLYLINE
  5
7DE1B343D9E0472
330
7DE1B343D9E04B2
100
AcDbEntity
  8
TEXT
100
AcDbPolyline
 90
        2
 70
     0
 43
0.0
 10
1.634472409834067
 20
0.0875478085936072
 42
-0.2901071551932486
 10
1.591396476966423
 20
0.044056863643169
 42
-5.328517124445184
  0
ARC
  5
7DE1B343D9E0476
330
7DE1B343D9E04B2
100
AcDbEntity
  8
TEXT
100
AcDbCircle
 10
1.522541895309508
 20
0.2178938269749173
 30
0.0
 40
0.028359375
100
AcDbArc
 50
25.78218179591245
 51
90.0
  0
LINE
  5
7DE1B343D9E0477
330
7DE1B343D9E04B2
100
AcDbEntity
  8
TEXT
100
AcDbLine
 10
1.558342970613631
 20
0.2089782285127823
 30
0.0
 11
1.548078210200067
 21
0.2302287680854766
 31
0.0
  0
LINE
  5
7DE1B343D9E0478
330
7DE1B343D9E04B2
100
AcDbEntity
  8
TEXT
100
AcDbLine
 10
1.476054980830248
 20
0.2089782285127823
 30
0.0
 11
1.558342970613631
 21
0.2089782285127823
 31
0.0
  0
LWPOLYLINE
  5
7DE1B343D9E0479
330
7DE1B343D9E04B2
100
AcDbEntity
  8
TEXT
100
AcDbPolyline
 90
        4
 70
     1
 43
0.0
 10
1.57127401189653
 20
0.1470208416271943
 10
1.482613693236672
 20
0.1470208416271943
 42
0.9999999999999998
 10
1.482613693236672
 20
0.1046223011233335
 10
1.57127401189653
 20
0.1046223011233335
 42
1.0
  0
LWPOLYLINE
  5
7DE1B343D9E047F
330
7DE1B343D9E04B2
100
AcDbEntity
  8
TEXT
100
AcDbPolyline
 90
        2
 70
     0
 43
0.0
 10
1.457379059335046
 20
0.044056863643169
 10
1.591396476966423
 20
0.044056863643169
 42
0.9999999999999998
  0
LINE
  5
7DE1B343D9E0483
330
7DE1B343D9E04B2
100
AcDbEntity
  8
TEXT
100
AcDbLine
 10
1.717733498952062
 20
0.2462532019749146
 30
0.0
 11
1.79438148024462
 21
0.2462532019749146
 31
0.0
  0
LINE
  5
7DE1B343D9E0484
330
7DE1B343D9E04B2
100
AcDbEntity
  8
TEXT
100
AcDbLine
 10
1.79438148024462
 20
0.2462532019749146
 30
0.0
 11
1.794381480244625
 21
0.044056863643169
 31
0.0
  0
ARC
  5
7DE1B343D9E0485
330
7DE1B343D9E04B2
100
AcDbEntity
  8
TEXT
100
AcDbCircle
 10
1.71773349895206
 20
0.2213473266922518
 30
0.0
 40
0.0249058752826653
100
AcDbArc
 50
89.99971217465335
 51
179.9999999999985
  0
LINE
  5
7DE1B343D9E0486
330
7DE1B343D9E04B2
100
AcDbEntity
  8
TEXT
100
AcDbLine
 10
1.692827623669403
 20
0.044056863643169
 30
0.0
 11
1.692827623669398
 21
0.2213473690746374
 31
0.0
  0
LWPOLYLINE
  5
7DE1B343D9E0487
330
7DE1B343D9E04B2
100
AcDbEntity
  8
TEXT
100
AcDbPolyline
 90
        2
 70
     0
 43
0.0
 10
1.634472409834067
 20
0.044056863643169
 10
1.692827623669401
 20
0.044056863643169
  0
LWPOLYLINE
  5
7DE1B343D9E048B
330
7DE1B343D9E04B2
100
AcDbEntity
  8
TEXT
100
AcDbPolyline
 90
        2
 70
     0
 43
0.0
 10
1.634472409834067
 20
0.0875478085936072
 10
1.634472409834067
 20
0.044056863643169
  0
LINE
  5
7DE1B343D9E048F
330
7DE1B343D9E04B2
100
AcDbEntity
  8
TEXT
100
AcDbLine
 10
2.011241570150916
 20
0.044056863643169
 30
0.0
 11
1.915749346787306
 21
0.2006366536907064
 31
0.0
  0
LINE
  5
7DE1B343D9E0490
330
7DE1B343D9E04B2
100
AcDbEntity
  8
TEXT
100
AcDbLine
 10
1.93466319777471
 20
0.044056863643169
 30
0.0
 11
2.011241570150916
 21
0.044056863643169
 31
0.0
  0
LINE
  5
7DE1B343D9E0491
330
7DE1B343D9E04B2
100
AcDbEntity
  8
TEXT
100
AcDbLine
 10
1.858759664563246
 20
0.1756364321193493
 30
0.0
 11
1.93466319777471
 21
0.044056863643169
 31
0.0
  0
LINE
  5
7DE1B343D9E0492
330
7DE1B343D9E04B2
100
AcDbEntity
  8
TEXT
100
AcDbLine
 10
1.858759664563246
 20
0.044056863643169
 30
0.0
 11
1.858759664563246
 21
0.1756364321193493
 31
0.0
  0
LINE
  5
7DE1B343D9E0493
330
7DE1B343D9E04B2
100
AcDbEntity
  8
TEXT
100
AcDbLine
 10
1.858216471467398
 20
0.3759941023992807
 30
0.0
 11
1.789901592918125
 21
0.3759941023992807
 31
0.0
  0
ARC
  5
7DE1B343D9E0494
330
7DE1B343D9E04B2
100
AcDbEntity
  8
TEXT
100
AcDbCircle
 10
1.549545853876919
 20
0.2689463295107776
 30
0.0
 40
0.0416329381542859
100
AcDbArc
 50
26.56974201007528
 51
87.20939649401342
  0
LINE
  5
7DE1B343D9E0495
330
7DE1B343D9E04B2
100
AcDbEntity
  8
TEXT
100
AcDbLine
 10
1.69442963882853
 20
0.31052989663168
 30
0.0
 11
1.630532732529029
 21
0.31052989663168
 31
0.0
  0
LINE
  5
7DE1B343D9E0496
330
7DE1B343D9E04B2
100
AcDbEntity
  8
TEXT
100
AcDbLine
 10
1.69442963882853
 20
0.2829822467708054
 30
0.0
 11
1.69442963882853
 21
0.31052989663168
 31
0.0
  0
ARC
  5
7DE1B343D9E0497
330
7DE1B343D9E04B2
100
AcDbEntity
  8
TEXT
100
AcDbCircle
 10
1.725622455891638
 20
0.2792841693494152
 30
0.0
 40
0.0314112657011332
100
AcDbArc
 50
95.88484768694724
 51
173.2388340632136
  0
LINE
  5
7DE1B343D9E0498
330
7DE1B343D9E04B2
100
AcDbEntity
  8
TEXT
100
AcDbLine
 10
1.78990159291812
 20
0.31052989663168
 30
0.0
 11
1.722401875268603
 21
0.31052989663168
 31
0.0
  0
LINE
  5
7DE1B343D9E0499
330
7DE1B343D9E04B2
100
AcDbEntity
  8
TEXT
100
AcDbLine
 10
1.789901592918125
 20
0.3759941023992807
 30
0.0
 11
1.78990159291812
 21
0.31052989663168
 31
0.0
  0
LINE
  5
7DE1B343D9E049A
330
7DE1B343D9E04B2
100
AcDbEntity
  8
TEXT
100
AcDbLine
 10
1.980306462753011
 20
0.31052989663168
 30
0.0
 11
1.905314630023385
 21
0.31052989663168
 31
0.0
  0
ENDSEC
  0
SECTION
  2
OBJECTS
  0
DICTIONARY
  5
7DE1B343D9E04A6
330
0
100
AcDbDictionary
  3
ACAD_GROUP
350
7DE1B343D9E04A7
  3
ACAD_LAYOUT
350
7DE1B343D9E04CC
  3
ACAD_MLINESTYLE
350
7DE1B343D9E04A8
  3
ACAD_PLOTSETTINGS
350
7DE1B343D9E04CD
  3
ACAD_PLOTSTYLENAME
350
7DE1B343D9E04CA
  3
ACDBHEADERROUNDTRIPXREC
350
7DE1B343D9E04D7
  3
ACDBVARIABLEDICTIONARY
350
7DE1B343D9E04D4
  0
DICTIONARY
  5
7DE1B343D9E04F9
330
7DE1B343D9E04B2
100
AcDbDictionary
280
     1
  3
ACAD_LAYOUTSELFREF
360
7DE1B343D9E04FA
  0
DICTIONARY
  5
7DE1B343D9E04F7
330
7DE1B343D9E04AF
100
AcDbDictionary
280
     1
  3
ACAD_LAYOUTSELFREF
360
7DE1B343D9E04F8
  0
DICTIONARY
  5
7DE1B343D9E04A7
102
{ACAD_REACTORS
330
7DE1B343D9E04A6
102
}
330
7DE1B343D9E04A6
100
AcDbDictionary
  0
DICTIONARY
  5
7DE1B343D9E04CC
102
{ACAD_REACTORS
330
7DE1B343D9E04A6
102
}
330
7DE1B343D9E04A6
100
AcDbDictionary
  0
DICTIONARY
  5
7DE1B343D9E04A8
102
{ACAD_REACTORS
330
7DE1B343D9E04A6
102
}
330
7DE1B343D9E04A6
100
AcDbDictionary
  3
STANDARD
350
7DE1B343D9E04B5
  0
DICTIONARY
  5
7DE1B343D9E04CD
102
{ACAD_REACTORS
330
7DE1B343D9E04A6
102
}
330
7DE1B343D9E04A6
100
AcDbDictionary
  0
ACDBDICTIONARYWDFLT
  5
7DE1B343D9E04CA
102
{ACAD_REACTORS
330
7DE1B343D9E04A6
102
}
330
7DE1B343D9E04A6
100
AcDbDictionary
281
     1
  3
Normal
350
7DE1B343D9E04CB
100
AcDbDictionaryWithDefault
340
7DE1B343D9E04CB
  0
DICTIONARY
  5
7DE1B343D9E04D7
102
{ACAD_REACTORS
330
7DE1B343D9E04A6
102
}
330
7DE1B343D9E04A6
100
AcDbDictionary
  3
CEPSNTYPE
350
7DE1B343D9E04E1
  3
FINGERPRINTGUID
350
7DE1B343D9E04E2
  3
HYPERLINKBASE
350
7DE1B343D9E04DA
  3
INSUNITS
350
7DE1B343D9E04E0
  3
LAYOUTDICT
350
7DE1B343D9E04DC
  3
LWETCUNION
350
7DE1B343D9E04DF
  3
PLOTSETDICT
350
7DE1B343D9E04DD
  3
PLOTSTYLNAMDICT
350
7DE1B343D9E04DE
  3
PSVPSCALE
350
7DE1B343D9E04E4
  3
PUCSBASE
350
7DE1B343D9E04E7
  3
PUCSORGBACK
350
7DE1B343D9E04ED
  3
PUCSORGBOTTOM
350
7DE1B343D9E04E9
  3
PUCSORGFRONT
350
7DE1B343D9E04EC
  3
PUCSORGLEFT
350
7DE1B343D9E04EA
  3
PUCSORGRIGHT
350
7DE1B343D9E04EB
  3
PUCSORGTOP
350
7DE1B343D9E04E8
  3
PUCSORTHOREF
350
7DE1B343D9E04E5
  3
PUCSORTHOVIEW
350
7DE1B343D9E04E6
  3
STYLESHEET
350
7DE1B343D9E04DB
  3
TSTACKALIGN
350
7DE1B343D9E04D8
  3
TSTACKSIZE
350
7DE1B343D9E04D9
  3
UCSBASE
350
7DE1B343D9E04F0
  3
UCSORGBACK
350
7DE1B343D9E04F6
  3
UCSORGBOTTOM
350
7DE1B343D9E04F2
  3
UCSORGFRONT
350
7DE1B343D9E04F5
  3
UCSORGLEFT
350
7DE1B343D9E04F3
  3
UCSORGRIGHT
350
7DE1B343D9E04F4
  3
UCSORGTOP
350
7DE1B343D9E04F1
  3
UCSORTHOREF
350
7DE1B343D9E04EE
  3
UCSORTHOVIEW
350
7DE1B343D9E04EF
  3
VERSIONGUID
350
7DE1B343D9E04E3
  0
DICTIONARY
  5
7DE1B343D9E04D4
102
{ACAD_REACTORS
330
7DE1B343D9E04A6
102
}
330
7DE1B343D9E04A6
100
AcDbDictionary
  3
DIMASSOC
350
7DE1B343D9E04D5
  0
XRECORD
  5
7DE1B343D9E04FA
102
{ACAD_REACTORS
330
7DE1B343D9E04F9
102
}
330
7DE1B343D9E04F9
100
AcDbXrecord
340
7DE1B343D9E04B2
  0
XRECORD
  5
7DE1B343D9E04F8
102
{ACAD_REACTORS
330
7DE1B343D9E04F7
102
}
330
7DE1B343D9E04F7
100
AcDbXrecord
340
7DE1B343D9E04AF
  0
MLINESTYLE
  5
7DE1B343D9E04B5
102
{ACAD_REACTORS
330
7DE1B343D9E04A8
102
}
330
7DE1B343D9E04A8
100
AcDbMlineStyle
  2
STANDARD
 70
     0
  3

 62
     0
 51
90.0
 52
90.0
 71
     2
 49
0.5
 62
   256
  6
BYLAYER
 49
-0.5
 62
   256
  6
BYLAYER
  0
ACDBPLACEHOLDER
  5
7DE1B343D9E04CB
102
{ACAD_REACTORS
330
7DE1B343D9E04CA
102
}
330
7DE1B343D9E04CA
100
AcDbPlaceHolder
280
     0
  0
XRECORD
  5
7DE1B343D9E04E1
102
{ACAD_REACTORS
330
7DE1B343D9E04D7
102
}
330
7DE1B343D9E04D7
100
AcDbXrecord
 90
        0
  0
XRECORD
  5
7DE1B343D9E04E2
102
{ACAD_REACTORS
330
7DE1B343D9E04D7
102
}
330
7DE1B343D9E04D7
100
AcDbXrecord
  1
{ECEA4370-8DB6-11D6-88E6-0090279574E7}
  0
XRECORD
  5
7DE1B343D9E04DA
102
{ACAD_REACTORS
330
7DE1B343D9E04D7
102
}
330
7DE1B343D9E04D7
100
AcDbXrecord
  1

  0
XRECORD
  5
7DE1B343D9E04E0
102
{ACAD_REACTORS
330
7DE1B343D9E04D7
102
}
330
7DE1B343D9E04D7
100
AcDbXrecord
 90
        0
  0
XRECORD
  5
7DE1B343D9E04DC
102
{ACAD_REACTORS
330
7DE1B343D9E04D7
102
}
330
7DE1B343D9E04D7
100
AcDbXrecord
340
7DE1B343D9E04CC
  0
XRECORD
  5
7DE1B343D9E04DF
102
{ACAD_REACTORS
330
7DE1B343D9E04D7
102
}
330
7DE1B343D9E04D7
100
AcDbXrecord
 90
    14877
  0
XRECORD
  5
7DE1B343D9E04DD
102
{ACAD_REACTORS
330
7DE1B343D9E04D7
102
}
330
7DE1B343D9E04D7
100
AcDbXrecord
340
7DE1B343D9E04CD
  0
XRECORD
  5
7DE1B343D9E04DE
102
{ACAD_REACTORS
330
7DE1B343D9E04D7
102
}
330
7DE1B343D9E04D7
100
AcDbXrecord
340
7DE1B343D9E04CA
  0
XRECORD
  5
7DE1B343D9E04E4
102
{ACAD_REACTORS
330
7DE1B343D9E04D7
102
}
330
7DE1B343D9E04D7
100
AcDbXrecord
 40
0.0
  0
XRECORD
  5
7DE1B343D9E04E7
102
{ACAD_REACTORS
330
7DE1B343D9E04D7
102
}
330
7DE1B343D9E04D7
100
AcDbXrecord
340
0
  0
XRECORD
  5
7DE1B343D9E04ED
102
{ACAD_REACTORS
330
7DE1B343D9E04D7
102
}
330
7DE1B343D9E04D7
100
AcDbXrecord
 10
0.0
 20
0.0
 30
0.0
  0
XRECORD
  5
7DE1B343D9E04E9
102
{ACAD_REACTORS
330
7DE1B343D9E04D7
102
}
330
7DE1B343D9E04D7
100
AcDbXrecord
 10
0.0
 20
0.0
 30
0.0
  0
XRECORD
  5
7DE1B343D9E04EC
102
{ACAD_REACTORS
330
7DE1B343D9E04D7
102
}
330
7DE1B343D9E04D7
100
AcDbXrecord
 10
0.0
 20
0.0
 30
0.0
  0
XRECORD
  5
7DE1B343D9E04EA
102
{ACAD_REACTORS
330
7DE1B343D9E04D7
102
}
330
7DE1B343D9E04D7
100
AcDbXrecord
 10
0.0
 20
0.0
 30
0.0
  0
XRECORD
  5
7DE1B343D9E04EB
102
{ACAD_REACTORS
330
7DE1B343D9E04D7
102
}
330
7DE1B343D9E04D7
100
AcDbXrecord
 10
0.0
 20
0.0
 30
0.0
  0
XRECORD
  5
7DE1B343D9E04E8
102
{ACAD_REACTORS
330
7DE1B343D9E04D7
102
}
330
7DE1B343D9E04D7
100
AcDbXrecord
 10
0.0
 20
0.0
 30
0.0
  0
XRECORD
  5
7DE1B343D9E04E5
102
{ACAD_REACTORS
330
7DE1B343D9E04D7
102
}
330
7DE1B343D9E04D7
100
AcDbXrecord
340
0
  0
XRECORD
  5
7DE1B343D9E04E6
102
{ACAD_REACTORS
330
7DE1B343D9E04D7
102
}
330
7DE1B343D9E04D7
100
AcDbXrecord
 70
     0
  0
XRECORD
  5
7DE1B343D9E04DB
102
{ACAD_REACTORS
330
7DE1B343D9E04D7
102
}
330
7DE1B343D9E04D7
100
AcDbXrecord
  1

  0
XRECORD
  5
7DE1B343D9E04D8
102
{ACAD_REACTORS
330
7DE1B343D9E04D7
102
}
330
7DE1B343D9E04D7
100
AcDbXrecord
 90
        1
  0
XRECORD
  5
7DE1B343D9E04D9
102
{ACAD_REACTORS
330
7DE1B343D9E04D7
102
}
330
7DE1B343D9E04D7
100
AcDbXrecord
 90
       70
  0
XRECORD
  5
7DE1B343D9E04F0
102
{ACAD_REACTORS
330
7DE1B343D9E04D7
102
}
330
7DE1B343D9E04D7
100
AcDbXrecord
340
0
  0
XRECORD
  5
7DE1B343D9E04F6
102
{ACAD_REACTORS
330
7DE1B343D9E04D7
102
}
330
7DE1B343D9E04D7
100
AcDbXrecord
 10
0.0
 20
0.0
 30
0.0
  0
XRECORD
  5
7DE1B343D9E04F2
102
{ACAD_REACTORS
330
7DE1B343D9E04D7
102
}
330
7DE1B343D9E04D7
100
AcDbXrecord
 10
0.0
 20
0.0
 30
0.0
  0
XRECORD
  5
7DE1B343D9E04F5
102
{ACAD_REACTORS
330
7DE1B343D9E04D7
102
}
330
7DE1B343D9E04D7
100
AcDbXrecord
 10
0.0
 20
0.0
 30
0.0
  0
XRECORD
  5
7DE1B343D9E04F3
102
{ACAD_REACTORS
330
7DE1B343D9E04D7
102
}
330
7DE1B343D9E04D7
100
AcDbXrecord
 10
0.0
 20
0.0
 30
0.0
  0
XRECORD
  5
7DE1B343D9E04F4
102
{ACAD_REACTORS
330
7DE1B343D9E04D7
102
}
330
7DE1B343D9E04D7
100
AcDbXrecord
 10
0.0
 20
0.0
 30
0.0
  0
XRECORD
  5
7DE1B343D9E04F1
102
{ACAD_REACTORS
330
7DE1B343D9E04D7
102
}
330
7DE1B343D9E04D7
100
AcDbXrecord
 10
0.0
 20
0.0
 30
0.0
  0
XRECORD
  5
7DE1B343D9E04EE
102
{ACAD_REACTORS
330
7DE1B343D9E04D7
102
}
330
7DE1B343D9E04D7
100
AcDbXrecord
340
0
  0
XRECORD
  5
7DE1B343D9E04EF
102
{ACAD_REACTORS
330
7DE1B343D9E04D7
102
}
330
7DE1B343D9E04D7
100
AcDbXrecord
 70
     0
  0
XRECORD
  5
7DE1B343D9E04E3
102
{ACAD_REACTORS
330
7DE1B343D9E04D7
102
}
330
7DE1B343D9E04D7
100
AcDbXrecord
  1
{ECEA4372-8DB6-11D6-88E6-0090279574E7}
  0
DICTIONARYVAR
  5
7DE1B343D9E04D5
102
{ACAD_REACTORS
330
7DE1B343D9E04D4
102
}
330
7DE1B343D9E04D4
100
DictionaryVariables
280
     0
  1
1
  0
ENDSEC
  0
EOF
