  0
SECTION
  2
HEADER
  9
$ACADVER
  1
AC1014
  9
$ACADMAINTVER
 70
     9
  9
$DWGCODEPAGE
  3
ANSI_1252
  9
$INSBASE
 10
0.0
 20
0.0
 30
0.0
  9
$EXTMIN
 10
19.96913587032078
 20
4.480923122396279
 30
0.0
  9
$EXTMAX
 10
23.45435519206795
 20
6.301565140655728
 30
0.0
  9
$LIMMIN
 10
0.0
 20
0.0
  9
$LIMMAX
 10
8.5
 20
11.0
  9
$ORTHOMODE
 70
     1
  9
$REGENMODE
 70
     1
  9
$FILLMODE
 70
     1
  9
$QTEXTMODE
 70
     0
  9
$MIRRTEXT
 70
     0
  9
$DRAGMODE
 70
     2
  9
$LTSCALE
 40
0.5
  9
$OSMODE
 70
    39
  9
$ATTMODE
 70
     1
  9
$TEXTSIZE
 40
0.125
  9
$TRACEWID
 40
0.05
  9
$TEXTSTYLE
  7
ROMANS
  9
$CLAYER
  8
DIM
  9
$CELTYPE
  6
BYLAYER
  9
$CECOLOR
 62
   256
  9
$CELTSCALE
 40
1.0
  9
$DELOBJ
 70
     1
  9
$DISPSILH
 70
     1
  9
$DIMSCALE
 40
1.0
  9
$DIMASZ
 40
0.125
  9
$DIMEXO
 40
0.125
  9
$DIMDLI
 40
0.375
  9
$DIMRND
 40
0.0
  9
$DIMDLE
 40
0.0
  9
$DIMEXE
 40
0.125
  9
$DIMTP
 40
0.0
  9
$DIMTM
 40
0.0
  9
$DIMTXT
 40
0.125
  9
$DIMCEN
 40
-0.125
  9
$DIMTSZ
 40
0.0
  9
$DIMTOL
 70
     0
  9
$DIMLIM
 70
     0
  9
$DIMTIH
 70
     1
  9
$DIMTOH
 70
     1
  9
$DIMSE1
 70
     0
  9
$DIMSE2
 70
     0
  9
$DIMTAD
 70
     0
  9
$DIMZIN
 70
     4
  9
$DIMBLK
  1

  9
$DIMASO
 70
     1
  9
$DIMSHO
 70
     1
  9
$DIMPOST
  1

  9
$DIMAPOST
  1

  9
$DIMALT
 70
     0
  9
$DIMALTD
 70
     2
  9
$DIMALTF
 40
25.4
  9
$DIMLFAC
 40
0.25
  9
$DIMTOFL
 70
     0
  9
$DIMTVP
 40
0.0
  9
$DIMTIX
 70
     0
  9
$DIMSOXD
 70
     0
  9
$DIMSAH
 70
     0
  9
$DIMBLK1
  1

  9
$DIMBLK2
  1

  9
$DIMSTYLE
  2
STANDARD
  9
$DIMCLRD
 70
     0
  9
$DIMCLRE
 70
     0
  9
$DIMCLRT
 70
     0
  9
$DIMTFAC
 40
1.0
  9
$DIMGAP
 40
0.09
  9
$DIMJUST
 70
     0
  9
$DIMSD1
 70
     0
  9
$DIMSD2
 70
     0
  9
$DIMTOLJ
 70
     1
  9
$DIMTZIN
 70
     4
  9
$DIMALTZ
 70
     0
  9
$DIMALTTZ
 70
     0
  9
$DIMFIT
 70
     3
  9
$DIMUPT
 70
     0
  9
$DIMUNIT
 70
     2
  9
$DIMDEC
 70
     3
  9
$DIMTDEC
 70
     3
  9
$DIMALTU
 70
     2
  9
$DIMALTTD
 70
     2
  9
$DIMTXSTY
  7
ROMANS
  9
$DIMAUNIT
 70
     0
  9
$LUNITS
 70
     2
  9
$LUPREC
 70
     3
  9
$SKETCHINC
 40
0.1
  9
$FILLETRAD
 40
0.25
  9
$AUNITS
 70
     0
  9
$AUPREC
 70
     0
  9
$MENU
  1
AUTOMSTR
  9
$ELEVATION
 40
0.0
  9
$PELEVATION
 40
0.0
  9
$THICKNESS
 40
0.0
  9
$LIMCHECK
 70
     0
  9
$BLIPMODE
 70
     0
  9
$CHAMFERA
 40
0.0
  9
$CHAMFERB
 40
0.0
  9
$CHAMFERC
 40
0.0
  9
$CHAMFERD
 40
0.0
  9
$SKPOLY
 70
     0
  9
$TDCREATE
 40
2448152.630402199
  9
$TDUPDATE
 40
2452458.309957824
  9
$TDINDWG
 40
0.1563522338
  9
$TDUSRTIMER
 40
0.1563522338
  9
$USRTIMER
 70
     1
  9
$ANGBASE
 50
0.0
  9
$ANGDIR
 70
     0
  9
$PDMODE
 70
     0
  9
$PDSIZE
 40
0.0
  9
$PLINEWID
 40
0.0
  9
$COORDS
 70
     2
  9
$SPLFRAME
 70
     0
  9
$SPLINETYPE
 70
     6
  9
$SPLINESEGS
 70
     8
  9
$ATTDIA
 70
     0
  9
$ATTREQ
 70
     1
  9
$HANDLING
 70
 22529
  9
$HANDSEED
  5
934
  9
$SURFTAB1
 70
     6
  9
$SURFTAB2
 70
     6
  9
$SURFTYPE
 70
     6
  9
$SURFU
 70
     6
  9
$SURFV
 70
     6
  9
$UCSNAME
  2

  9
$UCSORG
 10
0.0
 20
0.0
 30
0.0
  9
$UCSXDIR
 10
1.0
 20
0.0
 30
0.0
  9
$UCSYDIR
 10
0.0
 20
1.0
 30
0.0
  9
$PUCSNAME
  2

  9
$PUCSORG
 10
0.0
 20
0.0
 30
0.0
  9
$PUCSXDIR
 10
1.0
 20
0.0
 30
0.0
  9
$PUCSYDIR
 10
0.0
 20
1.0
 30
0.0
  9
$USERI1
 70
     0
  9
$USERI2
 70
     0
  9
$USERI3
 70
     0
  9
$USERI4
 70
     0
  9
$USERI5
 70
     0
  9
$USERR1
 40
0.0
  9
$USERR2
 40
0.0
  9
$USERR3
 40
0.0
  9
$USERR4
 40
0.0
  9
$USERR5
 40
0.0
  9
$WORLDVIEW
 70
     1
  9
$SHADEDGE
 70
     3
  9
$SHADEDIF
 70
    70
  9
$TILEMODE
 70
     1
  9
$MAXACTVP
 70
    16
  9
$PINSBASE
 10
0.0
 20
0.0
 30
0.0
  9
$PLIMCHECK
 70
     0
  9
$PEXTMIN
 10
1.000000000000000E+20
 20
1.000000000000000E+20
 30
1.000000000000000E+20
  9
$PEXTMAX
 10
-1.000000000000000E+20
 20
-1.000000000000000E+20
 30
-1.000000000000000E+20
  9
$PLIMMIN
 10
0.0
 20
0.0
  9
$PLIMMAX
 10
12.0
 20
9.0
  9
$UNITMODE
 70
     0
  9
$VISRETAIN
 70
     0
  9
$PLINEGEN
 70
     1
  9
$PSLTSCALE
 70
     0
  9
$TREEDEPTH
 70
  3020
  9
$PICKSTYLE
 70
     1
  9
$CMLSTYLE
  2
STANDARD
  9
$CMLJUST
 70
     0
  9
$CMLSCALE
 40
1.0
  9
$PROXYGRAPHICS
 70
     1
  9
$MEASUREMENT
 70
     0
  0
ENDSEC
  0
SECTION
  2
CLASSES
  0
CLASS
  1
LWPOLYLINE
  2
AcDbPolyline
  3
AutoCAD 2000
 90
        0
280
     0
281
     1
  0
CLASS
  1
DICTIONARYVAR
  2
AcDbDictionaryVar
  3
AutoCAD 2000
 90
        0
280
     0
281
     0
  0
CLASS
  1
ACDBDICTIONARYWDFLT
  2
AcDbDictionaryWithDefault
  3
AutoCAD 2000
 90
        0
280
     0
281
     0
  0
CLASS
  1
ACDBPLACEHOLDER
  2
AcDbPlaceHolder
  3
AutoCAD 2000
 90
        0
280
     0
281
     0
  0
CLASS
  1
LAYOUT
  2
AcDbLayout
  3
AutoCAD 2000
 90
        0
280
     0
281
     0
  0
CLASS
  1
LONG_TRANSACTION
  2
AcDbLongTransaction
  3
AutoCAD 2000
 90
        0
280
     0
281
     0
  0
CLASS
  1
LWPOLYLINE
  2
AcDbPolyline
  3
AutoCAD 2000
 90
        0
280
     0
281
     1
  0
CLASS
  1
HATCH
  2
AcDbHatch
  3
AutoCAD 2000
 90
        0
280
     0
281
     1
  0
CLASS
  1
XRECORD
  2
AcDbXrecord
  3
AutoCAD 2000
 90
        0
280
     0
281
     0
  0
ENDSEC
  0
SECTION
  2
TABLES
  0
TABLE
  2
VPORT
  5
8
330
0
100
AcDbSymbolTable
 70
     2
  0
VPORT
  5
90F
330
8
100
AcDbSymbolTableRecord
100
AcDbViewportTableRecord
  2
*ACTIVE
 70
     0
 10
0.0
 20
0.0
 11
1.0
 21
1.0
 12
24.63427341850874
 22
5.391227415076862
 13
0.0
 23
0.0
 14
0.25
 24
0.25
 15
0.0
 25
0.0
 16
0.0
 26
0.0
 36
1.0
 17
0.0
 27
0.0
 37
0.0
 40
2.164838749362645
 41
4.320930232558139
 42
50.0
 43
0.0
 44
0.0
 50
0.0
 51
0.0
 71
     0
 72
  2000
 73
     1
 74
     1
 75
     0
 76
     0
 77
     0
 78
     0
  0
ENDTAB
  0
TABLE
  2
LTYPE
  5
5
330
0
100
AcDbSymbolTable
 70
     1
  0
LTYPE
  5
12
330
5
100
AcDbSymbolTableRecord
100
AcDbLinetypeTableRecord
  2
BYBLOCK
 70
     0
  3

 72
    65
 73
     0
 40
0.0
  0
LTYPE
  5
13
330
5
100
AcDbSymbolTableRecord
100
AcDbLinetypeTableRecord
  2
BYLAYER
 70
     0
  3

 72
    65
 73
     0
 40
0.0
  0
LTYPE
  5
14
330
5
100
AcDbSymbolTableRecord
100
AcDbLinetypeTableRecord
  2
CONTINUOUS
 70
     0
  3
Solid line
 72
    65
 73
     0
 40
0.0
  0
ENDTAB
  0
TABLE
  2
LAYER
  5
2
330
0
100
AcDbSymbolTable
 70
     3
  0
LAYER
  5
F
330
2
100
AcDbSymbolTableRecord
100
AcDbLayerTableRecord
  2
0
 70
     0
 62
     7
  6
CONTINUOUS
  0
LAYER
  5
32
330
2
100
AcDbSymbolTableRecord
100
AcDbLayerTableRecord
  2
TEXT
 70
     0
 62
     3
  6
CONTINUOUS
  0
LAYER
  5
43F
330
2
100
AcDbSymbolTableRecord
100
AcDbLayerTableRecord
  2
DIM
 70
     0
 62
     4
  6
CONTINUOUS
  0
ENDTAB
  0
TABLE
  2
STYLE
  5
3
330
0
100
AcDbSymbolTable
 70
     3
  0
STYLE
  5
10
330
3
100
AcDbSymbolTableRecord
100
AcDbTextStyleTableRecord
  2
STANDARD
 70
     0
 40
0.0
 41
1.0
 50
0.0
 71
     0
 42
0.125
  3
txt
  4

  0
STYLE
  5
43B
330
3
100
AcDbSymbolTableRecord
100
AcDbTextStyleTableRecord
  2
ROMANS
 70
     0
 40
0.0
 41
1.0
 50
0.0
 71
     0
 42
0.125
  3
romans.shx
  4

  0
STYLE
  5
7FE
330
3
100
AcDbSymbolTableRecord
100
AcDbTextStyleTableRecord
  2
ITALICC
 70
     0
 40
0.0
 41
1.0
 50
0.0
 71
     0
 42
0.125
  3
italicc
  4

  0
ENDTAB
  0
TABLE
  2
VIEW
  5
6
330
0
100
AcDbSymbolTable
 70
     0
  0
ENDTAB
  0
TABLE
  2
UCS
  5
7
330
0
100
AcDbSymbolTable
 70
     0
  0
ENDTAB
  0
TABLE
  2
APPID
  5
9
330
0
100
AcDbSymbolTable
 70
     1
  0
APPID
  5
11
330
9
100
AcDbSymbolTableRecord
100
AcDbRegAppTableRecord
  2
ACAD
 70
     0
  0
ENDTAB
  0
TABLE
  2
DIMSTYLE
  5
A
330
0
100
AcDbSymbolTable
 70
     1
  0
DIMSTYLE
105
430
330
A
100
AcDbSymbolTableRecord
100
AcDbDimStyleTableRecord
  2
STANDARD
 70
     0
  3

  4

  5

  6

  7

 40
1.0
 41
0.125
 42
0.125
 43
0.375
 44
0.125
 45
0.0
 46
0.0
 47
0.0
 48
0.0
140
0.125
141
-0.125
142
0.0
143
25.4
144
0.25
145
0.0
146
1.0
147
0.09
 71
     0
 72
     0
 73
     1
 74
     1
 75
     0
 76
     0
 77
     0
 78
     4
170
     0
171
     2
172
     0
173
     0
174
     0
175
     0
176
     0
177
     0
178
     0
270
     2
271
     3
272
     3
273
     2
274
     2
340
43B
275
     0
280
     0
281
     0
282
     0
283
     1
284
     4
285
     0
286
     0
287
     3
288
     0
  0
ENDTAB
  0
TABLE
  2
BLOCK_RECORD
  5
1
330
0
100
AcDbSymbolTable
 70
     0
  0
BLOCK_RECORD
  5
18
102
{ACAD_XDICTIONARY
360
932
102
}
330
1
100
AcDbSymbolTableRecord
100
AcDbBlockTableRecord
  2
*MODEL_SPACE
  0
BLOCK_RECORD
  5
15
102
{ACAD_XDICTIONARY
360
930
102
}
330
1
100
AcDbSymbolTableRecord
100
AcDbBlockTableRecord
  2
*PAPER_SPACE
  0
ENDTAB
  0
ENDSEC
  0
SECTION
  2
BLOCKS
  0
BLOCK
  5
3B
330
18
100
AcDbEntity
  8
0
100
AcDbBlockBegin
  2
*MODEL_SPACE
 70
     0
 10
0.0
 20
0.0
 30
0.0
  3
*MODEL_SPACE
  1

  0
ENDBLK
  5
3C
330
18
100
AcDbEntity
  8
0
100
AcDbBlockEnd
  0
BLOCK
  5
39
330
15
100
AcDbEntity
 67
     1
  8
0
100
AcDbBlockBegin
  2
*PAPER_SPACE
 70
     0
 10
0.0
 20
0.0
 30
0.0
  3
*PAPER_SPACE
  1

  0
ENDBLK
  5
3A
330
15
100
AcDbEntity
 67
     1
  8
0
100
AcDbBlockEnd
  0
ENDSEC
  0
SECTION
  2
ENTITIES
  0
LWPOLYLINE
  5
3EC
330
18
100
AcDbEntity
  8
0
100
AcDbPolyline
 90
       25
 70
     0
 43
0.0
 10
21.66812870112321
 20
5.765606025601297
 10
21.55399239872731
 20
5.718329221189799
 10
21.61982822723103
 20
5.559387471126065
 10
21.76482822723103
 20
5.704387471126064
 10
21.9238862351823
 20
6.088387471126067
 10
21.9238862351823
 20
6.236387471126068
 42
-0.4142135623730951
 10
21.9338862351823
 20
6.246387471126064
 10
22.1138862351823
 20
6.246387471126064
 42
-0.4142135623730951
 10
22.1238862351823
 20
6.236387471126066
 10
22.1238862351823
 20
5.984387471126064
 10
22.1738862351823
 20
5.984387471126064
 10
22.1738862351823
 20
6.271387471126065
 42
0.4142135623730951
 10
22.1488862351823
 20
6.296387471126065
 10
21.7738862351823
 20
6.296387471126063
 42
0.4142135623730951
 10
21.7488862351823
 20
6.271387471126063
 10
21.7488862351823
 20
6.138881390047449
 10
21.81293149448734
 20
6.112352975037596
 10
21.83695101792895
 20
6.170341234292065
 10
21.86991639814955
 20
6.088749055090188
 10
21.80199008890475
 20
5.924760438069434
 10
21.80740204990621
 20
5.911694808420669
 10
21.79433642025745
 20
5.906282847419211
 10
21.72641011101264
 20
5.742294230398455
 10
21.64481793181077
 20
5.709328850177854
 10
21.66824913168118
 20
5.765896770687691
  0
LINE
  5
883
330
18
100
AcDbEntity
  8
TEXT
100
AcDbLine
 10
21.82033392101533
 20
4.682999408704255
 30
0.0
 11
21.82033392101533
 21
4.824328940883393
 31
0.0
  0
LINE
  5
884
330
18
100
AcDbEntity
  8
TEXT
100
AcDbLine
 10
21.86743207957131
 20
4.758864735115793
 30
0.0
 11
21.82033392101533
 21
4.682999408704255
 31
0.0
  0
LINE
  5
885
330
18
100
AcDbEntity
  8
TEXT
100
AcDbLine
 10
21.87786679633523
 20
4.648971492174819
 30
0.0
 11
21.94242391230094
 21
4.758864735115793
 31
0.0
  0
TEXT
  5
886
330
18
100
AcDbEntity
  8
TEXT
100
AcDbText
 10
22.12542260779824
 20
4.67853593773907
 30
0.0
 40
0.0522247191011236
  1
6536 Main St. N.E. * P.O. Box 32008
 41
0.8388932496075367
 72
     5
 11
23.45435519206791
 21
4.67853593773907
 31
0.0
100
AcDbText
  0
ARC
  5
887
330
18
100
AcDbEntity
  8
TEXT
100
AcDbCircle
 10
21.67985094849999
 20
4.669682165176364
 30
0.0
 40
0.0249058752826653
100
AcDbArc
 50
89.99971217465335
 51
179.9999999999985
  0
LINE
  5
888
330
18
100
AcDbEntity
  8
TEXT
100
AcDbLine
 10
21.59265018207695
 20
4.653652756562365
 30
0.0
 11
21.54889941089505
 21
4.73590303255851
 31
0.0
  0
LINE
  5
889
330
18
100
AcDbEntity
  8
TEXT
100
AcDbLine
 10
21.59265018207695
 20
4.758864735115793
 30
0.0
 11
21.59265018207695
 21
4.653652756562365
 31
0.0
  0
ARC
  5
88A
330
18
100
AcDbEntity
  8
TEXT
100
AcDbCircle
 10
21.48465934485744
 20
4.66622866545903
 30
0.0
 40
0.028359375
100
AcDbArc
 50
25.78218179591245
 51
90.0
  0
LINE
  5
88B
330
18
100
AcDbEntity
  8
TEXT
100
AcDbLine
 10
21.02266488367369
 20
4.574779540230281
 30
0.0
 11
21.02266488367369
 21
4.826876212854603
 31
0.0
  0
LINE
  5
88C
330
18
100
AcDbEntity
  8
TEXT
100
AcDbLine
 10
21.05497673781135
 20
4.758864735115793
 30
0.0
 11
21.05497673781135
 21
4.558000528383384
 31
0.0
  0
LINE
  5
88D
330
18
100
AcDbEntity
  8
TEXT
100
AcDbLine
 10
20.92573425831394
 20
4.758864735115793
 30
0.0
 11
20.86698569550808
 21
4.657992739002672
 31
0.0
  0
LINE
  5
88E
330
18
100
AcDbEntity
  8
TEXT
100
AcDbLine
 10
20.86698569550808
 20
4.657992739002672
 30
0.0
 11
20.80835537447614
 21
4.758864735115793
 31
0.0
  0
ARC
  5
88F
330
18
100
AcDbEntity
  8
TEXT
100
AcDbCircle
 10
20.50078205058972
 20
4.676777275669291
 30
0.0
 40
0.0820874594465043
100
AcDbArc
 50
90.0
 51
270.0
  0
LWPOLYLINE
  5
890
330
18
100
AcDbEntity
  8
TEXT
100
AcDbPolyline
 90
        2
 70
     0
 43
0.0001332181640625
 10
20.09269571748875
 20
4.685594744881417
 10
20.08270435518406
 20
4.758864735115796
  0
LWPOLYLINE
  5
891
330
18
100
AcDbEntity
  8
TEXT
100
AcDbPolyline
 90
        2
 70
     0
 43
0.0001332181640625
 10
20.08270435518406
 20
4.732221102303295
 10
20.09269571748875
 20
4.67227292847517
  0
LWPOLYLINE
  5
892
330
18
100
AcDbEntity
  8
TEXT
100
AcDbPolyline
 90
        2
 70
     0
 43
0.0001332181640625
 10
20.12266980440281
 20
4.732221102303295
 10
20.11267844209812
 20
4.67227292847517
  0
LWPOLYLINE
  5
893
330
18
100
AcDbEntity
  8
TEXT
100
AcDbPolyline
 90
        2
 70
     0
 43
0.0001332181640625
 10
20.12266980440281
 20
4.758864735115796
 10
20.11267844209812
 20
4.685594744881417
  0
LWPOLYLINE
  5
894
330
18
100
AcDbEntity
  8
TEXT
100
AcDbPolyline
 90
        3
 70
     0
 43
0.0006660908203125
 10
20.23590524385594
 20
4.645629295662669
 10
20.23590524385594
 20
4.758864735115796
 10
20.12266980440281
 20
4.758864735115796
  0
LWPOLYLINE
  5
895
330
18
100
AcDbEntity
  8
TEXT
100
AcDbPolyline
 90
        3
 70
     0
 43
0.0006660908203125
 10
20.20926161104344
 20
4.645629295662669
 10
20.20926161104344
 20
4.732221102303295
 10
20.12266980440281
 20
4.732221102303295
  0
LWPOLYLINE
  5
896
330
18
100
AcDbEntity
  8
TEXT
100
AcDbPolyline
 90
        2
 70
     0
 43
0.0001332181640625
 10
20.20926161104344
 20
4.732221102303295
 10
20.14931343721531
 20
4.67227292847517
  0
LWPOLYLINE
  5
897
330
18
100
AcDbEntity
  8
TEXT
100
AcDbPolyline
 90
        2
 70
     0
 43
0.0001332181640625
 10
19.99611254854344
 20
4.732221102303295
 10
20.05606072237156
 20
4.67227292847517
  0
LWPOLYLINE
  5
898
330
18
100
AcDbEntity
  8
TEXT
100
AcDbPolyline
 90
        3
 70
     0
 43
0.0006660908203125
 10
20.08270435518406
 20
4.758864735115796
 10
19.96946891573094
 20
4.758864735115796
 10
19.96946891573094
 20
4.645629295662669
  0
LWPOLYLINE
  5
899
330
18
100
AcDbEntity
  8
TEXT
100
AcDbPolyline
 90
        3
 70
     0
 43
0.0006660908203125
 10
20.08270435518406
 20
4.732221102303295
 10
19.99611254854344
 20
4.732221102303295
 10
19.99611254854344
 20
4.645629295662669
  0
LINE
  5
89A
330
18
100
AcDbEntity
  8
TEXT
100
AcDbLine
 10
20.57161951694826
 20
4.658783318848399
 30
0.0
 11
20.50601938070396
 21
4.658783318848399
 31
0.0
  0
LINE
  5
89B
330
18
100
AcDbEntity
  8
TEXT
100
AcDbLine
 10
20.50078205058972
 20
4.594689816222786
 30
0.0
 11
20.57655989085454
 21
4.594689816222786
 31
0.0
  0
LINE
  5
89C
330
18
100
AcDbEntity
  8
TEXT
100
AcDbLine
 10
20.41869459114321
 20
4.492391702127282
 30
0.0
 11
20.57161951694826
 21
4.492391702127282
 31
0.0
  0
LINE
  5
89D
330
18
100
AcDbEntity
  8
TEXT
100
AcDbLine
 10
20.57655989085454
 20
4.560748708460721
 30
0.0
 11
20.41869459114321
 21
4.560748708460721
 31
0.0
  0
LINE
  5
89E
330
18
100
AcDbEntity
  8
TEXT
100
AcDbLine
 10
20.50601938070396
 20
4.694588040459027
 30
0.0
 11
20.67292503473293
 21
4.694588040459027
 31
0.0
  0
LWPOLYLINE
  5
89F
330
18
100
AcDbEntity
  8
TEXT
100
AcDbPolyline
 90
        2
 70
     0
 43
0.0006660908203125
 10
20.20926161104344
 20
4.645629295662669
 10
20.23590524385594
 20
4.645629295662669
  0
LWPOLYLINE
  5
8A0
330
18
100
AcDbEntity
  8
TEXT
100
AcDbPolyline
 90
        2
 70
     0
 43
0.0001332181640625
 10
20.16263525362156
 20
4.63563793335798
 10
20.23590524385594
 20
4.645629295662669
  0
LWPOLYLINE
  5
8A1
330
18
100
AcDbEntity
  8
TEXT
100
AcDbPolyline
 90
        2
 70
     0
 43
0.0006660908203125
 10
20.20926161104344
 20
4.605663846443921
 10
20.23590524385594
 20
4.605663846443921
  0
LWPOLYLINE
  5
8A2
330
18
100
AcDbEntity
  8
TEXT
100
AcDbPolyline
 90
        3
 70
     0
 43
0.0006660908203125
 10
20.12266980440281
 20
4.492428406990793
 10
20.23590524385594
 20
4.492428406990793
 10
20.23590524385594
 20
4.605663846443921
  0
LWPOLYLINE
  5
8A3
330
18
100
AcDbEntity
  8
TEXT
100
AcDbPolyline
 90
        2
 70
     0
 43
0.0001332181640625
 10
20.23590524385594
 20
4.605663846443921
 10
20.16263525362156
 20
4.615655208748606
  0
LWPOLYLINE
  5
8A4
330
18
100
AcDbEntity
  8
TEXT
100
AcDbPolyline
 90
        3
 70
     0
 43
0.0006660908203125
 10
19.96946891573094
 20
4.605663846443921
 10
19.96946891573094
 20
4.492428406990793
 10
20.08270435518406
 20
4.492428406990793
  0
LWPOLYLINE
  5
8A5
330
18
100
AcDbEntity
  8
TEXT
100
AcDbPolyline
 90
        3
 70
     0
 43
0.0006660908203125
 10
19.99611254854344
 20
4.605663846443921
 10
19.99611254854344
 20
4.519072039803294
 10
20.08270435518406
 20
4.519072039803294
  0
LWPOLYLINE
  5
8A6
330
18
100
AcDbEntity
  8
TEXT
100
AcDbPolyline
 90
        5
 70
     0
 43
0.0001332181640625
 10
20.09269571748875
 20
4.565698397225169
 10
20.09269571748875
 20
4.579020213631419
 10
20.05606072237156
 20
4.579020213631419
 10
20.05606072237156
 20
4.615655208748606
 10
20.04273890596531
 20
4.615655208748606
  0
LWPOLYLINE
  5
8A7
330
18
100
AcDbEntity
  8
TEXT
100
AcDbPolyline
 90
        5
 70
     0
 43
0.0001332181640625
 10
20.04273890596531
 20
4.63563793335798
 10
20.05606072237156
 20
4.63563793335798
 10
20.05606072237156
 20
4.67227292847517
 10
20.09269571748875
 20
4.67227292847517
 10
20.09269571748875
 20
4.685594744881417
  0
LWPOLYLINE
  5
8A8
330
18
100
AcDbEntity
  8
TEXT
100
AcDbPolyline
 90
        2
 70
     0
 43
0.0001332181640625
 10
19.99611254854344
 20
4.645629295662669
 10
20.05606072237156
 20
4.63563793335798
  0
LWPOLYLINE
  5
8A9
330
18
100
AcDbEntity
  8
TEXT
100
AcDbPolyline
 90
        2
 70
     0
 43
0.0001332181640625
 10
19.96946891573094
 20
4.645629295662669
 10
20.04273890596531
 20
4.63563793335798
  0
LWPOLYLINE
  5
8AA
330
18
100
AcDbEntity
  8
TEXT
100
AcDbPolyline
 90
        2
 70
     0
 43
0.0006660908203125
 10
19.99611254854344
 20
4.645629295662669
 10
19.96946891573094
 20
4.645629295662669
  0
LWPOLYLINE
  5
8AB
330
18
100
AcDbEntity
  8
TEXT
100
AcDbPolyline
 90
        2
 70
     0
 43
0.0001332181640625
 10
19.99611254854344
 20
4.519072039803294
 10
20.05606072237156
 20
4.579020213631419
  0
LWPOLYLINE
  5
8AC
330
18
100
AcDbEntity
  8
TEXT
100
AcDbPolyline
 90
        2
 70
     0
 43
0.0006660908203125
 10
19.99611254854344
 20
4.605663846443921
 10
19.96946891573094
 20
4.605663846443921
  0
LWPOLYLINE
  5
8AD
330
18
100
AcDbEntity
  8
TEXT
100
AcDbPolyline
 90
        2
 70
     0
 43
0.0001332181640625
 10
20.04273890596531
 20
4.615655208748606
 10
19.96946891573094
 20
4.605663846443921
  0
LWPOLYLINE
  5
8AE
330
18
100
AcDbEntity
  8
TEXT
100
AcDbPolyline
 90
        2
 70
     0
 43
0.0001332181640625
 10
19.99611254854344
 20
4.605663846443921
 10
20.05606072237156
 20
4.615655208748606
  0
LWPOLYLINE
  5
8AF
330
18
100
AcDbEntity
  8
TEXT
100
AcDbPolyline
 90
        5
 70
     0
 43
0.0001332181640625
 10
20.11267844209812
 20
4.685594744881417
 10
20.11267844209812
 20
4.67227292847517
 10
20.14931343721531
 20
4.67227292847517
 10
20.14931343721531
 20
4.63563793335798
 10
20.16263525362156
 20
4.63563793335798
  0
LWPOLYLINE
  5
8B0
330
18
100
AcDbEntity
  8
TEXT
100
AcDbPolyline
 90
        2
 70
     0
 43
0.0001332181640625
 10
20.20926161104344
 20
4.645629295662669
 10
20.14931343721531
 20
4.63563793335798
  0
LWPOLYLINE
  5
8B1
330
18
100
AcDbEntity
  8
TEXT
100
AcDbPolyline
 90
        2
 70
     0
 43
0.0006660908203125
 10
20.08270435518406
 20
4.519072039803294
 10
20.08270435518406
 20
4.492428406990793
  0
LWPOLYLINE
  5
8B2
330
18
100
AcDbEntity
  8
TEXT
100
AcDbPolyline
 90
        2
 70
     0
 43
0.0001332181640625
 10
20.08270435518406
 20
4.519072039803294
 10
20.09269571748875
 20
4.579020213631419
  0
LWPOLYLINE
  5
8B3
330
18
100
AcDbEntity
  8
TEXT
100
AcDbPolyline
 90
        2
 70
     0
 43
0.0001332181640625
 10
20.08270435518406
 20
4.492428406990793
 10
20.09269571748875
 20
4.565698397225169
  0
LWPOLYLINE
  5
8B4
330
18
100
AcDbEntity
  8
TEXT
100
AcDbPolyline
 90
        2
 70
     0
 43
0.0001332181640625
 10
20.12266980440281
 20
4.519072039803294
 10
20.11267844209812
 20
4.579020213631419
  0
LWPOLYLINE
  5
8B5
330
18
100
AcDbEntity
  8
TEXT
100
AcDbPolyline
 90
        2
 70
     0
 43
0.0001332181640625
 10
20.11267844209812
 20
4.565698397225169
 10
20.12266980440281
 20
4.492428406990793
  0
LWPOLYLINE
  5
8B6
330
18
100
AcDbEntity
  8
TEXT
100
AcDbPolyline
 90
        2
 70
     0
 43
0.0006660908203125
 10
20.12266980440281
 20
4.519072039803294
 10
20.12266980440281
 20
4.492428406990793
  0
LWPOLYLINE
  5
8B7
330
18
100
AcDbEntity
  8
TEXT
100
AcDbPolyline
 90
        2
 70
     0
 43
0.0001332181640625
 10
20.20926161104344
 20
4.519072039803294
 10
20.14931343721531
 20
4.579020213631419
  0
LWPOLYLINE
  5
8B8
330
18
100
AcDbEntity
  8
TEXT
100
AcDbPolyline
 90
        3
 70
     0
 43
0.0006660908203125
 10
20.12266980440281
 20
4.519072039803294
 10
20.20926161104344
 20
4.519072039803294
 10
20.20926161104344
 20
4.605663846443921
  0
LWPOLYLINE
  5
8B9
330
18
100
AcDbEntity
  8
TEXT
100
AcDbPolyline
 90
        2
 70
     0
 43
0.0001332181640625
 10
20.20926161104344
 20
4.605663846443921
 10
20.14931343721531
 20
4.615655208748606
  0
LWPOLYLINE
  5
8BA
330
18
100
AcDbEntity
  8
TEXT
100
AcDbPolyline
 90
        5
 70
     0
 43
0.0001332181640625
 10
20.16263525362156
 20
4.615655208748606
 10
20.14931343721531
 20
4.615655208748606
 10
20.14931343721531
 20
4.579020213631419
 10
20.11267844209812
 20
4.579020213631419
 10
20.11267844209812
 20
4.565698397225169
  0
ARC
  5
8BB
330
18
100
AcDbEntity
  8
TEXT
100
AcDbCircle
 10
20.50601938070396
 20
4.676685679653715
 30
0.0
 40
0.017902360805315
100
AcDbArc
 50
90.0
 51
270.0
  0
LINE
  5
8BC
330
18
100
AcDbEntity
  8
TEXT
100
AcDbLine
 10
20.41869459114321
 20
4.560748708460721
 30
0.0
 11
20.41869459114321
 21
4.492391702127282
 31
0.0
  0
TEXT
  5
8BD
330
18
100
AcDbEntity
  8
TEXT
100
AcDbText
 10
22.12542260779824
 20
4.492019083806486
 30
0.0
 40
0.0522247191011236
  1
Phone  1-800-328-2495
 41
1.272321428571431
 72
     5
 11
23.45435519206791
 21
4.492019083806486
 31
0.0
100
AcDbText
  0
TEXT
  5
8BE
330
18
100
AcDbEntity
  8
TEXT
100
AcDbText
 10
22.12542260779824
 20
4.585277510772778
 30
0.0
 40
0.0522247191011236
  1
Minneapolis, MN 55432-0008
 41
1.114442127215852
 72
     5
 11
23.45435519206791
 21
4.585277510772778
 31
0.0
100
AcDbText
  0
LINE
  5
8BF
330
18
100
AcDbEntity
  8
TEXT
100
AcDbLine
 10
21.67985094849999
 20
4.694588040459027
 30
0.0
 11
21.75649892979254
 21
4.694588040459027
 31
0.0
  0
LINE
  5
8C0
330
18
100
AcDbEntity
  8
TEXT
100
AcDbLine
 10
21.12180779086931
 20
4.694588040459027
 30
0.0
 11
21.17164307069246
 21
4.694588040459027
 31
0.0
  0
ARC
  5
8C1
330
18
100
AcDbEntity
  8
TEXT
100
AcDbCircle
 10
20.82334189859891
 20
4.531939424400977
 30
0.0
 40
0.0392772371940762
100
AcDbArc
 50
270.1604552698595
 51
330.0831797321295
  0
ARC
  5
8C2
330
18
100
AcDbEntity
  8
TEXT
100
AcDbCircle
 10
20.73304105270668
 20
4.552184093465331
 30
0.0
 40
0.0601160179737537
100
AcDbArc
 50
180.0000000000003
 51
264.0521544866073
  0
LINE
  5
8C3
330
18
100
AcDbEntity
  8
TEXT
100
AcDbLine
 10
20.67292503473293
 20
4.694588040459027
 30
0.0
 11
20.67292503473293
 21
4.552184093465331
 31
0.0
  0
ARC
  5
8C4
330
18
100
AcDbEntity
  8
TEXT
100
AcDbCircle
 10
20.57655989085454
 20
4.577719262341755
 30
0.0
 40
0.0169705538810321
100
AcDbArc
 50
270.0
 51
90.0
  0
ARC
  5
8C5
330
18
100
AcDbEntity
  8
TEXT
100
AcDbCircle
 10
20.57161951694826
 20
4.575587510487839
 30
0.0
 40
0.0831958083605586
100
AcDbArc
 50
270.0
 51
90.0
  0
LWPOLYLINE
  5
8C6
330
18
100
AcDbEntity
  8
TEXT
100
AcDbPolyline
 90
        6
 70
     1
 43
0.0
 10
20.76933544578819
 20
4.694588040459027
 10
20.73901885156798
 20
4.694588040459027
 10
20.73901885156798
 20
4.571477042404133
 42
0.407328721240804
 10
20.75056250272946
 20
4.559658127727747
 10
20.81118420177419
 20
4.559658127727747
 10
20.8286495421815
 20
4.592470356771226
  0
LINE
  5
8C7
330
18
100
AcDbEntity
  8
TEXT
100
AcDbLine
 10
20.72681164221304
 20
4.492391702127282
 30
0.0
 11
20.82345189328803
 21
4.492662341225564
 31
0.0
  0
LWPOLYLINE
  5
8C8
330
18
100
AcDbEntity
  8
TEXT
100
AcDbPolyline
 90
        2
 70
     0
 43
0.0
 10
20.95468516460457
 20
4.54394304434221
 42
0.3318488747599744
 10
21.02380445716988
 20
4.492391702127282
 42
-6.868794160588311
  0
LINE
  5
8C9
330
18
100
AcDbEntity
  8
TEXT
100
AcDbLine
 10
20.95468516460457
 20
4.676700419167563
 30
0.0
 11
20.95468516460457
 21
4.543943044342206
 31
0.0
  0
LINE
  5
8CA
330
18
100
AcDbEntity
  8
TEXT
100
AcDbLine
 10
20.85738545851112
 20
4.512350208232295
 30
0.0
 11
20.95468516460457
 21
4.676700419167563
 31
0.0
  0
ARC
  5
8CB
330
18
100
AcDbEntity
  8
TEXT
100
AcDbCircle
 10
21.03798310092674
 20
4.57338233462681
 30
0.0
 40
0.0153818062434269
100
AcDbArc
 50
174.7883570302258
 51
270.0
  0
LINE
  5
8CC
330
18
100
AcDbEntity
  8
TEXT
100
AcDbLine
 10
21.05497673781135
 20
4.558000528383384
 30
0.0
 11
21.03798310092674
 21
4.558000528383384
 31
0.0
  0
LINE
  5
8CD
330
18
100
AcDbEntity
  8
TEXT
100
AcDbLine
 10
21.02380445716988
 20
4.492391702127282
 30
0.0
 11
21.12180779086931
 21
4.492391702127282
 31
0.0
  0
LINE
  5
8CE
330
18
100
AcDbEntity
  8
TEXT
100
AcDbLine
 10
21.12180779086931
 20
4.492391702127282
 30
0.0
 11
21.12180779086931
 21
4.694588040459027
 31
0.0
  0
LINE
  5
8CF
330
18
100
AcDbEntity
  8
TEXT
100
AcDbLine
 10
21.48465934485744
 20
4.694588040459027
 30
0.0
 11
21.37745307147015
 21
4.694588040459027
 31
0.0
  0
LINE
  5
8D0
330
18
100
AcDbEntity
  8
TEXT
100
AcDbLine
 10
21.43817243037817
 20
4.657313066996895
 30
0.0
 11
21.52046042016156
 21
4.657313066996895
 31
0.0
  0
LWPOLYLINE
  5
8D1
330
18
100
AcDbEntity
  8
TEXT
100
AcDbPolyline
 90
        4
 70
     1
 43
0.0
 10
21.53339146144446
 20
4.595355680111307
 10
21.4447311427846
 20
4.595355680111307
 42
0.9999999999999998
 10
21.4447311427846
 20
4.552957139607446
 10
21.53339146144446
 20
4.552957139607446
 42
1.0
  0
LWPOLYLINE
  5
8D2
330
18
100
AcDbEntity
  8
TEXT
100
AcDbPolyline
 90
        2
 70
     0
 43
0.0
 10
21.41949650888297
 20
4.492391702127282
 10
21.55351392651435
 20
4.492391702127282
 42
0.9999999999999998
  0
LINE
  5
8D3
330
18
100
AcDbEntity
  8
TEXT
100
AcDbLine
 10
21.24625490664042
 20
4.694588040459027
 30
0.0
 11
21.30038850356137
 21
4.694588040459027
 31
0.0
  0
LINE
  5
8D4
330
18
100
AcDbEntity
  8
TEXT
100
AcDbLine
 10
21.17919685985858
 20
4.492391702127282
 30
0.0
 11
21.24625490664042
 21
4.492391702127282
 31
0.0
  0
LINE
  5
8D5
330
18
100
AcDbEntity
  8
TEXT
100
AcDbLine
 10
21.24625490664042
 20
4.492391702127282
 30
0.0
 11
21.24625490664042
 21
4.694588040459027
 31
0.0
  0
LINE
  5
8D6
330
18
100
AcDbEntity
  8
TEXT
100
AcDbLine
 10
21.17919685985858
 20
4.687034251292917
 30
0.0
 11
21.17919685985858
 21
4.492391702127282
 31
0.0
  0
LWPOLYLINE
  5
8D7
330
18
100
AcDbEntity
  8
TEXT
100
AcDbPolyline
 90
        2
 70
     0
 43
0.0
 10
21.17164307069246
 20
4.694588040459027
 42
-0.4142135623731017
 10
21.17919685985858
 20
4.687034251292917
 42
-0.9999999999999998
  0
LINE
  5
8D8
330
18
100
AcDbEntity
  8
TEXT
100
AcDbLine
 10
21.37745307147015
 20
4.694588040459027
 30
0.0
 11
21.37745307147015
 21
4.619535634384821
 31
0.0
  0
ARC
  5
8D9
330
18
100
AcDbEntity
  8
TEXT
100
AcDbCircle
 10
21.43817243037817
 20
4.589627485852776
 30
0.0
 40
0.0676855811441166
100
AcDbArc
 50
90.0
 51
153.7768192527749
  0
LWPOLYLINE
  5
8DA
330
18
100
AcDbEntity
  8
TEXT
100
AcDbPolyline
 90
        2
 70
     0
 43
0.0
 10
21.37642057601534
 20
4.53588264707772
 42
0.2901071551932823
 10
21.41949650888297
 20
4.492391702127282
 42
5.328517124445801
  0
LWPOLYLINE
  5
8DB
330
18
100
AcDbEntity
  8
TEXT
100
AcDbPolyline
 90
        2
 70
     0
 43
0.0
 10
21.30038850356137
 20
4.694588040459027
 42
-0.4142135623731017
 10
21.30794229272748
 20
4.687034251292917
 42
-0.9999999999999998
  0
LWPOLYLINE
  5
8DC
330
18
100
AcDbEntity
  8
TEXT
100
AcDbPolyline
 90
        4
 70
     0
 43
0.0
 10
21.30794229272748
 20
4.687034251292917
 10
21.30794229272748
 20
4.492391702127282
 10
21.37642057601534
 20
4.492391702127282
 10
21.37642057601534
 20
4.53588264707772
 42
-1.714843617202739
  0
LWPOLYLINE
  5
8DD
330
18
100
AcDbEntity
  8
TEXT
100
AcDbPolyline
 90
        2
 70
     0
 43
0.0
 10
21.596589859382
 20
4.53588264707772
 42
-0.2901071551932486
 10
21.55351392651435
 20
4.492391702127282
 42
-5.328517124445184
  0
LWPOLYLINE
  5
8DE
330
18
100
AcDbEntity
  8
TEXT
100
AcDbPolyline
 90
        2
 70
     0
 43
0.0
 10
21.596589859382
 20
4.492391702127282
 10
21.65494507321733
 20
4.492391702127282
  0
LWPOLYLINE
  5
8DF
330
18
100
AcDbEntity
  8
TEXT
100
AcDbPolyline
 90
        2
 70
     0
 43
0.0
 10
21.596589859382
 20
4.53588264707772
 10
21.596589859382
 20
4.492391702127282
  0
LINE
  5
8E0
330
18
100
AcDbEntity
  8
TEXT
100
AcDbLine
 10
21.52046042016156
 20
4.657313066996895
 30
0.0
 11
21.51019565974799
 21
4.678563606569589
 31
0.0
  0
LINE
  5
8E1
330
18
100
AcDbEntity
  8
TEXT
100
AcDbLine
 10
21.65494507321733
 20
4.492391702127282
 30
0.0
 11
21.65494507321732
 21
4.66968220755875
 31
0.0
  0
LINE
  5
8E2
330
18
100
AcDbEntity
  8
TEXT
100
AcDbLine
 10
21.97335901969884
 20
4.492391702127282
 30
0.0
 11
21.87786679633523
 21
4.648971492174819
 31
0.0
  0
LINE
  5
8E3
330
18
100
AcDbEntity
  8
TEXT
100
AcDbLine
 10
21.89678064732264
 20
4.492391702127282
 30
0.0
 11
21.97335901969884
 21
4.492391702127282
 31
0.0
  0
LINE
  5
8E4
330
18
100
AcDbEntity
  8
TEXT
100
AcDbLine
 10
21.75649892979255
 20
4.492391702127282
 30
0.0
 11
21.82087711411117
 21
4.492391702127282
 31
0.0
  0
LINE
  5
8E5
330
18
100
AcDbEntity
  8
TEXT
100
AcDbLine
 10
21.75649892979254
 20
4.694588040459027
 30
0.0
 11
21.75649892979255
 21
4.492391702127282
 31
0.0
  0
LINE
  5
8E6
330
18
100
AcDbEntity
  8
TEXT
100
AcDbLine
 10
21.82087711411117
 20
4.623971270603462
 30
0.0
 11
21.89678064732264
 21
4.492391702127282
 31
0.0
  0
LINE
  5
8E7
330
18
100
AcDbEntity
  8
TEXT
100
AcDbLine
 10
21.82087711411117
 20
4.492391702127282
 30
0.0
 11
21.82087711411117
 21
4.623971270603462
 31
0.0
  0
LINE
  5
8E8
330
18
100
AcDbEntity
  8
TEXT
100
AcDbLine
 10
20.67651380348823
 20
4.758864735115793
 30
0.0
 11
20.50078205058972
 21
4.758864735115793
 31
0.0
  0
LWPOLYLINE
  5
8E9
330
18
100
AcDbEntity
  8
TEXT
100
AcDbPolyline
 90
        2
 70
     0
 43
0.0006660908203125
 10
20.08270435518406
 20
4.732221102303295
 10
20.08270435518406
 20
4.758864735115796
  0
LWPOLYLINE
  5
8EA
330
18
100
AcDbEntity
  8
TEXT
100
AcDbPolyline
 90
        2
 70
     0
 43
0.0006660908203125
 10
20.12266980440281
 20
4.732221102303295
 10
20.12266980440281
 20
4.758864735115796
  0
TEXT
  5
8EB
330
18
100
AcDbEntity
  8
TEXT
100
AcDbText
 10
22.12542260779824
 20
4.771794364705362
 30
0.0
 40
0.0522247191011236
  1
Stylmark  Incorporated
 41
1.221428571428572
 72
     5
 11
23.45435519206791
 21
4.771794364705362
 31
0.0
100
AcDbText
  0
LINE
  5
8EC
330
18
100
AcDbEntity
  8
TEXT
100
AcDbLine
 10
21.75201904246605
 20
4.758864735115793
 30
0.0
 11
21.68451932481653
 21
4.758864735115793
 31
0.0
  0
TEXT
  5
8ED
330
18
100
AcDbEntity
  8
TEXT
100
AcDbText
 10
20.95914125907174
 20
4.938941726478861
 30
0.0
 40
0.125
  1
PART #110393
  7
ITALICC
 72
     1
 11
21.71211744954792
 21
4.938941726478861
 31
0.0
100
AcDbText
  0
LINE
  5
8EE
330
18
100
AcDbEntity
  8
TEXT
100
AcDbLine
 10
21.18899479374249
 20
4.758864735115793
 30
0.0
 11
21.05497673781135
 21
4.758864735115793
 31
0.0
  0
LINE
  5
8EF
330
18
100
AcDbEntity
  8
TEXT
100
AcDbLine
 10
20.73655640833223
 20
4.793252652709931
 30
0.0
 11
20.67651380348823
 21
4.793252652709931
 31
0.0
  0
LINE
  5
8F0
330
18
100
AcDbEntity
  8
TEXT
100
AcDbLine
 10
20.67651380348823
 20
4.793252652709931
 30
0.0
 11
20.67651380348823
 21
4.758864735115793
 31
0.0
  0
LINE
  5
8F1
330
18
100
AcDbEntity
  8
TEXT
100
AcDbLine
 10
20.80835537447614
 20
4.758864735115793
 30
0.0
 11
20.73655640833223
 21
4.758864735115793
 31
0.0
  0
LINE
  5
8F2
330
18
100
AcDbEntity
  8
TEXT
100
AcDbLine
 10
20.73655640833223
 20
4.758864735115793
 30
0.0
 11
20.73655640833223
 21
4.793252652709931
 31
0.0
  0
LINE
  5
8F3
330
18
100
AcDbEntity
  8
TEXT
100
AcDbLine
 10
21.02266488367369
 20
4.826876212854603
 30
0.0
 11
20.95585617110732
 21
4.826876212854603
 31
0.0
  0
LINE
  5
8F4
330
18
100
AcDbEntity
  8
TEXT
100
AcDbLine
 10
20.95585617110732
 20
4.758864735115793
 30
0.0
 11
20.92573425831394
 21
4.758864735115793
 31
0.0
  0
LINE
  5
8F5
330
18
100
AcDbEntity
  8
TEXT
100
AcDbLine
 10
20.95585617110732
 20
4.826876212854603
 30
0.0
 11
20.95585617110732
 21
4.758864735115793
 31
0.0
  0
LINE
  5
8F6
330
18
100
AcDbEntity
  8
TEXT
100
AcDbLine
 10
21.51369024320191
 20
4.758864735115793
 30
0.0
 11
21.37885833398486
 21
4.758864735115793
 31
0.0
  0
LWPOLYLINE
  5
8F7
330
18
100
AcDbEntity
  8
TEXT
100
AcDbPolyline
 90
        3
 70
     0
 43
0.0
 10
21.34307664327169
 20
4.758864735115796
 10
21.22477648445565
 20
4.758864735115796
 10
21.22477648445565
 20
4.7316972383549
 42
-1.960274751411753
  0
LWPOLYLINE
  5
8F8
330
18
100
AcDbEntity
  8
TEXT
100
AcDbPolyline
 90
        2
 70
     0
 43
0.0
 10
21.18899479374249
 20
4.758864735115796
 42
-0.3328679258950098
 10
21.22477648445565
 20
4.7316972383549
 42
6.772930709997214
  0
LINE
  5
8F9
330
18
100
AcDbEntity
  8
TEXT
100
AcDbLine
 10
21.37885833398486
 20
4.758864735115793
 30
0.0
 11
21.37885833398486
 21
4.730542189346149
 31
0.0
  0
LWPOLYLINE
  5
8FA
330
18
100
AcDbEntity
  8
TEXT
100
AcDbPolyline
 90
        2
 70
     0
 43
0.0
 10
21.34307664327169
 20
4.758864735115796
 42
-0.3277054968067132
 10
21.37885833398486
 20
4.730542189346152
 42
6.667889725900311
  0
LINE
  5
8FB
330
18
100
AcDbEntity
  8
TEXT
100
AcDbLine
 10
21.65654708837645
 20
4.758864735115793
 30
0.0
 11
21.59265018207695
 21
4.758864735115793
 31
0.0
  0
ARC
  5
8FC
330
18
100
AcDbEntity
  8
TEXT
100
AcDbCircle
 10
21.51166330342485
 20
4.71728116799489
 30
0.0
 40
0.0416329381542859
100
AcDbArc
 50
26.56974201007528
 51
87.20939649401342
  0
LINE
  5
8FD
330
18
100
AcDbEntity
  8
TEXT
100
AcDbLine
 10
21.65654708837645
 20
4.731317085254918
 30
0.0
 11
21.65654708837645
 21
4.758864735115793
 31
0.0
  0
ARC
  5
8FE
330
18
100
AcDbEntity
  8
TEXT
100
AcDbCircle
 10
21.68773990543957
 20
4.727619007833528
 30
0.0
 40
0.0314112657011332
100
AcDbArc
 50
95.88484768694724
 51
173.2388340632136
  0
LINE
  5
8FF
330
18
100
AcDbEntity
  8
TEXT
100
AcDbLine
 10
21.94242391230094
 20
4.758864735115793
 30
0.0
 11
21.86743207957131
 21
4.758864735115793
 31
0.0
  0
LINE
  5
900
330
18
100
AcDbEntity
  8
TEXT
100
AcDbLine
 10
21.75201904246605
 20
4.824328940883393
 30
0.0
 11
21.75201904246605
 21
4.758864735115793
 31
0.0
  0
LINE
  5
901
330
18
100
AcDbEntity
  8
TEXT
100
AcDbLine
 10
21.82033392101533
 20
4.824328940883393
 30
0.0
 11
21.75201904246605
 21
4.824328940883393
 31
0.0
  0
ENDSEC
  0
SECTION
  2
OBJECTS
  0
DICTIONARY
  5
C
330
0
100
AcDbDictionary
  3
ACAD_GROUP
350
D
  3
ACAD_LAYOUT
350
906
  3
ACAD_MLINESTYLE
350
E
  3
ACAD_PLOTSETTINGS
350
907
  3
ACAD_PLOTSTYLENAME
350
904
  3
ACDBHEADERROUNDTRIPXREC
350
910
  3
ACDBVARIABLEDICTIONARY
350
43D
  0
DICTIONARY
  5
932
330
18
100
AcDbDictionary
280
     1
  3
ACAD_LAYOUTSELFREF
360
933
  0
DICTIONARY
  5
930
330
15
100
AcDbDictionary
280
     1
  3
ACAD_LAYOUTSELFREF
360
931
  0
DICTIONARY
  5
D
102
{ACAD_REACTORS
330
C
102
}
330
C
100
AcDbDictionary
  0
DICTIONARY
  5
906
102
{ACAD_REACTORS
330
C
102
}
330
C
100
AcDbDictionary
  0
DICTIONARY
  5
E
102
{ACAD_REACTORS
330
C
102
}
330
C
100
AcDbDictionary
  3
STANDARD
350
1B
  0
DICTIONARY
  5
907
102
{ACAD_REACTORS
330
C
102
}
330
C
100
AcDbDictionary
  0
ACDBDICTIONARYWDFLT
  5
904
102
{ACAD_REACTORS
330
C
102
}
330
C
100
AcDbDictionary
281
     1
  3
Normal
350
905
100
AcDbDictionaryWithDefault
340
905
  0
DICTIONARY
  5
910
102
{ACAD_REACTORS
330
C
102
}
330
C
100
AcDbDictionary
  3
CEPSNTYPE
350
91A
  3
FINGERPRINTGUID
350
91B
  3
HYPERLINKBASE
350
913
  3
INSUNITS
350
919
  3
LAYOUTDICT
350
915
  3
LWETCUNION
350
918
  3
PLOTSETDICT
350
916
  3
PLOTSTYLNAMDICT
350
917
  3
PSVPSCALE
350
91D
  3
PUCSBASE
350
920
  3
PUCSORGBACK
350
926
  3
PUCSORGBOTTOM
350
922
  3
PUCSORGFRONT
350
925
  3
PUCSORGLEFT
350
923
  3
PUCSORGRIGHT
350
924
  3
PUCSORGTOP
350
921
  3
PUCSORTHOREF
350
91E
  3
PUCSORTHOVIEW
350
91F
  3
STYLESHEET
350
914
  3
TSTACKALIGN
350
911
  3
TSTACKSIZE
350
912
  3
UCSBASE
350
929
  3
UCSORGBACK
350
92F
  3
UCSORGBOTTOM
350
92B
  3
UCSORGFRONT
350
92E
  3
UCSORGLEFT
350
92C
  3
UCSORGRIGHT
350
92D
  3
UCSORGTOP
350
92A
  3
UCSORTHOREF
350
927
  3
UCSORTHOVIEW
350
928
  3
VERSIONGUID
350
91C
  0
DICTIONARY
  5
43D
102
{ACAD_REACTORS
330
C
102
}
330
C
100
AcDbDictionary
  3
DIMASSOC
350
90E
  3
SORTENTS
350
43E
  0
XRECORD
  5
933
102
{ACAD_REACTORS
330
932
102
}
330
932
100
AcDbXrecord
340
18
  0
XRECORD
  5
931
102
{ACAD_REACTORS
330
930
102
}
330
930
100
AcDbXrecord
340
15
  0
MLINESTYLE
  5
1B
102
{ACAD_REACTORS
330
E
102
}
330
E
100
AcDbMlineStyle
  2
STANDARD
 70
     0
  3

 62
     0
 51
90.0
 52
90.0
 71
     2
 49
0.5
 62
   256
  6
BYLAYER
 49
-0.5
 62
   256
  6
BYLAYER
  0
ACDBPLACEHOLDER
  5
905
102
{ACAD_REACTORS
330
904
102
}
330
904
100
AcDbPlaceHolder
280
     0
  0
XRECORD
  5
91A
102
{ACAD_REACTORS
330
910
102
}
330
910
100
AcDbXrecord
 90
        0
  0
XRECORD
  5
91B
102
{ACAD_REACTORS
330
910
102
}
330
910
100
AcDbXrecord
  1
{E8658280-8DB6-11D6-88E6-0090279574E7}
  0
XRECORD
  5
913
102
{ACAD_REACTORS
330
910
102
}
330
910
100
AcDbXrecord
  1

  0
XRECORD
  5
919
102
{ACAD_REACTORS
330
910
102
}
330
910
100
AcDbXrecord
 90
        0
  0
XRECORD
  5
915
102
{ACAD_REACTORS
330
910
102
}
330
910
100
AcDbXrecord
340
906
  0
XRECORD
  5
918
102
{ACAD_REACTORS
330
910
102
}
330
910
100
AcDbXrecord
 90
    14877
  0
XRECORD
  5
916
102
{ACAD_REACTORS
330
910
102
}
330
910
100
AcDbXrecord
340
907
  0
XRECORD
  5
917
102
{ACAD_REACTORS
330
910
102
}
330
910
100
AcDbXrecord
340
904
  0
XRECORD
  5
91D
102
{ACAD_REACTORS
330
910
102
}
330
910
100
AcDbXrecord
 40
0.0
  0
XRECORD
  5
920
102
{ACAD_REACTORS
330
910
102
}
330
910
100
AcDbXrecord
340
0
  0
XRECORD
  5
926
102
{ACAD_REACTORS
330
910
102
}
330
910
100
AcDbXrecord
 10
0.0
 20
0.0
 30
0.0
  0
XRECORD
  5
922
102
{ACAD_REACTORS
330
910
102
}
330
910
100
AcDbXrecord
 10
0.0
 20
0.0
 30
0.0
  0
XRECORD
  5
925
102
{ACAD_REACTORS
330
910
102
}
330
910
100
AcDbXrecord
 10
0.0
 20
0.0
 30
0.0
  0
XRECORD
  5
923
102
{ACAD_REACTORS
330
910
102
}
330
910
100
AcDbXrecord
 10
0.0
 20
0.0
 30
0.0
  0
XRECORD
  5
924
102
{ACAD_REACTORS
330
910
102
}
330
910
100
AcDbXrecord
 10
0.0
 20
0.0
 30
0.0
  0
XRECORD
  5
921
102
{ACAD_REACTORS
330
910
102
}
330
910
100
AcDbXrecord
 10
0.0
 20
0.0
 30
0.0
  0
XRECORD
  5
91E
102
{ACAD_REACTORS
330
910
102
}
330
910
100
AcDbXrecord
340
0
  0
XRECORD
  5
91F
102
{ACAD_REACTORS
330
910
102
}
330
910
100
AcDbXrecord
 70
     0
  0
XRECORD
  5
914
102
{ACAD_REACTORS
330
910
102
}
330
910
100
AcDbXrecord
  1

  0
XRECORD
  5
911
102
{ACAD_REACTORS
330
910
102
}
330
910
100
AcDbXrecord
 90
        1
  0
XRECORD
  5
912
102
{ACAD_REACTORS
330
910
102
}
330
910
100
AcDbXrecord
 90
       70
  0
XRECORD
  5
929
102
{ACAD_REACTORS
330
910
102
}
330
910
100
AcDbXrecord
340
0
  0
XRECORD
  5
92F
102
{ACAD_REACTORS
330
910
102
}
330
910
100
AcDbXrecord
 10
0.0
 20
0.0
 30
0.0
  0
XRECORD
  5
92B
102
{ACAD_REACTORS
330
910
102
}
330
910
100
AcDbXrecord
 10
0.0
 20
0.0
 30
0.0
  0
XRECORD
  5
92E
102
{ACAD_REACTORS
330
910
102
}
330
910
100
AcDbXrecord
 10
0.0
 20
0.0
 30
0.0
  0
XRECORD
  5
92C
102
{ACAD_REACTORS
330
910
102
}
330
910
100
AcDbXrecord
 10
0.0
 20
0.0
 30
0.0
  0
XRECORD
  5
92D
102
{ACAD_REACTORS
330
910
102
}
330
910
100
AcDbXrecord
 10
0.0
 20
0.0
 30
0.0
  0
XRECORD
  5
92A
102
{ACAD_REACTORS
330
910
102
}
330
910
100
AcDbXrecord
 10
0.0
 20
0.0
 30
0.0
  0
XRECORD
  5
927
102
{ACAD_REACTORS
330
910
102
}
330
910
100
AcDbXrecord
340
0
  0
XRECORD
  5
928
102
{ACAD_REACTORS
330
910
102
}
330
910
100
AcDbXrecord
 70
     0
  0
XRECORD
  5
91C
102
{ACAD_REACTORS
330
910
102
}
330
910
100
AcDbXrecord
  1
{E8658282-8DB6-11D6-88E6-0090279574E7}
  0
DICTIONARYVAR
  5
90E
102
{ACAD_REACTORS
330
43D
102
}
330
43D
100
DictionaryVariables
280
     0
  1
1
  0
DICTIONARYVAR
  5
43E
102
{ACAD_REACTORS
330
43D
102
}
330
43D
100
DictionaryVariables
280
     0
  1
97
  0
ENDSEC
  0
EOF
