  0
SECTION
  2
HEADER
  9
$ACADVER
  1
AC1014
  9
$ACADMAINTVER
 70
     9
  9
$DWGCODEPAGE
  3
ANSI_1252
  9
$INSBASE
 10
2.786768650033787
 20
2.296708814963505
 30
0.0
  9
$EXTMIN
 10
1.019845858666847
 20
1.359897606104805
 30
0.0
  9
$EXTMAX
 10
4.505065180413978
 20
2.523940027171637
 30
0.0
  9
$LIMMIN
 10
0.0
 20
0.0
  9
$LIMMAX
 10
18.0
 20
12.0
  9
$ORTHOMODE
 70
     1
  9
$REGENMODE
 70
     1
  9
$FILLMODE
 70
     1
  9
$QTEXTMODE
 70
     0
  9
$MIRRTEXT
 70
     0
  9
$DRAGMODE
 70
     2
  9
$LTSCALE
 40
1.0
  9
$OSMODE
 70
    39
  9
$ATTMODE
 70
     1
  9
$TEXTSIZE
 40
0.125
  9
$TRACEWID
 40
0.05
  9
$TEXTSTYLE
  7
ROMANS
  9
$CLAYER
  8
0
  9
$CELTYPE
  6
BYLAYER
  9
$CECOLOR
 62
   256
  9
$CELTSCALE
 40
1.0
  9
$DELOBJ
 70
     1
  9
$DISPSILH
 70
     1
  9
$DIMSCALE
 40
1.0
  9
$DIMASZ
 40
0.125
  9
$DIMEXO
 40
0.125
  9
$DIMDLI
 40
0.375
  9
$DIMRND
 40
0.0
  9
$DIMDLE
 40
0.0
  9
$DIMEXE
 40
0.125
  9
$DIMTP
 40
0.0
  9
$DIMTM
 40
0.0
  9
$DIMTXT
 40
0.125
  9
$DIMCEN
 40
-0.125
  9
$DIMTSZ
 40
0.0
  9
$DIMTOL
 70
     0
  9
$DIMLIM
 70
     0
  9
$DIMTIH
 70
     1
  9
$DIMTOH
 70
     1
  9
$DIMSE1
 70
     0
  9
$DIMSE2
 70
     0
  9
$DIMTAD
 70
     0
  9
$DIMZIN
 70
     4
  9
$DIMBLK
  1

  9
$DIMASO
 70
     1
  9
$DIMSHO
 70
     1
  9
$DIMPOST
  1

  9
$DIMAPOST
  1

  9
$DIMALT
 70
     0
  9
$DIMALTD
 70
     2
  9
$DIMALTF
 40
25.4
  9
$DIMLFAC
 40
1.0
  9
$DIMTOFL
 70
     0
  9
$DIMTVP
 40
0.0
  9
$DIMTIX
 70
     1
  9
$DIMSOXD
 70
     0
  9
$DIMSAH
 70
     0
  9
$DIMBLK1
  1

  9
$DIMBLK2
  1

  9
$DIMSTYLE
  2
STANDARD
  9
$DIMCLRD
 70
     0
  9
$DIMCLRE
 70
     0
  9
$DIMCLRT
 70
     0
  9
$DIMTFAC
 40
1.0
  9
$DIMGAP
 40
0.09
  9
$DIMJUST
 70
     0
  9
$DIMSD1
 70
     0
  9
$DIMSD2
 70
     0
  9
$DIMTOLJ
 70
     1
  9
$DIMTZIN
 70
     4
  9
$DIMALTZ
 70
     0
  9
$DIMALTTZ
 70
     0
  9
$DIMFIT
 70
     3
  9
$DIMUPT
 70
     0
  9
$DIMUNIT
 70
     2
  9
$DIMDEC
 70
     3
  9
$DIMTDEC
 70
     3
  9
$DIMALTU
 70
     2
  9
$DIMALTTD
 70
     2
  9
$DIMTXSTY
  7
ROMANS
  9
$DIMAUNIT
 70
     0
  9
$LUNITS
 70
     2
  9
$LUPREC
 70
     3
  9
$SKETCHINC
 40
0.1
  9
$FILLETRAD
 40
0.03125
  9
$AUNITS
 70
     0
  9
$AUPREC
 70
     0
  9
$MENU
  1
ACAD
  9
$ELEVATION
 40
0.0
  9
$PELEVATION
 40
0.0
  9
$THICKNESS
 40
0.0
  9
$LIMCHECK
 70
     0
  9
$BLIPMODE
 70
     0
  9
$CHAMFERA
 40
0.0
  9
$CHAMFERB
 40
0.0
  9
$CHAMFERC
 40
0.0
  9
$CHAMFERD
 40
0.0
  9
$SKPOLY
 70
     0
  9
$TDCREATE
 40
2448994.616322453
  9
$TDUPDATE
 40
2452458.309870428
  9
$TDINDWG
 40
0.0006256597
  9
$TDUSRTIMER
 40
0.0006256597
  9
$USRTIMER
 70
     1
  9
$ANGBASE
 50
0.0
  9
$ANGDIR
 70
     0
  9
$PDMODE
 70
     0
  9
$PDSIZE
 40
0.0
  9
$PLINEWID
 40
0.0
  9
$COORDS
 70
     2
  9
$SPLFRAME
 70
     0
  9
$SPLINETYPE
 70
     6
  9
$SPLINESEGS
 70
     8
  9
$ATTDIA
 70
     0
  9
$ATTREQ
 70
     1
  9
$HANDLING
 70
 22529
  9
$HANDSEED
  5
7DE1B343D9DF96D
  9
$SURFTAB1
 70
     6
  9
$SURFTAB2
 70
     6
  9
$SURFTYPE
 70
     6
  9
$SURFU
 70
     6
  9
$SURFV
 70
     6
  9
$UCSNAME
  2

  9
$UCSORG
 10
0.0
 20
0.0
 30
0.0
  9
$UCSXDIR
 10
1.0
 20
0.0
 30
0.0
  9
$UCSYDIR
 10
0.0
 20
1.0
 30
0.0
  9
$PUCSNAME
  2

  9
$PUCSORG
 10
0.0
 20
0.0
 30
0.0
  9
$PUCSXDIR
 10
1.0
 20
0.0
 30
0.0
  9
$PUCSYDIR
 10
0.0
 20
1.0
 30
0.0
  9
$USERI1
 70
     0
  9
$USERI2
 70
     0
  9
$USERI3
 70
     0
  9
$USERI4
 70
     0
  9
$USERI5
 70
     0
  9
$USERR1
 40
0.0
  9
$USERR2
 40
0.0
  9
$USERR3
 40
0.0
  9
$USERR4
 40
0.0
  9
$USERR5
 40
0.0
  9
$WORLDVIEW
 70
     1
  9
$SHADEDGE
 70
     3
  9
$SHADEDIF
 70
    70
  9
$TILEMODE
 70
     1
  9
$MAXACTVP
 70
    16
  9
$PINSBASE
 10
0.0
 20
0.0
 30
0.0
  9
$PLIMCHECK
 70
     0
  9
$PEXTMIN
 10
1.000000000000000E+20
 20
1.000000000000000E+20
 30
1.000000000000000E+20
  9
$PEXTMAX
 10
-1.000000000000000E+20
 20
-1.000000000000000E+20
 30
-1.000000000000000E+20
  9
$PLIMMIN
 10
0.0
 20
0.0
  9
$PLIMMAX
 10
12.0
 20
9.0
  9
$UNITMODE
 70
     0
  9
$VISRETAIN
 70
     0
  9
$PLINEGEN
 70
     1
  9
$PSLTSCALE
 70
     0
  9
$TREEDEPTH
 70
  3020
  9
$PICKSTYLE
 70
     1
  9
$CMLSTYLE
  2
STANDARD
  9
$CMLJUST
 70
     0
  9
$CMLSCALE
 40
1.0
  9
$PROXYGRAPHICS
 70
     1
  9
$MEASUREMENT
 70
     0
  0
ENDSEC
  0
SECTION
  2
CLASSES
  0
CLASS
  1
LWPOLYLINE
  2
AcDbPolyline
  3
AutoCAD 2000
 90
        0
280
     0
281
     1
  0
CLASS
  1
ACDBDICTIONARYWDFLT
  2
AcDbDictionaryWithDefault
  3
AutoCAD 2000
 90
        0
280
     0
281
     0
  0
CLASS
  1
ACDBPLACEHOLDER
  2
AcDbPlaceHolder
  3
AutoCAD 2000
 90
        0
280
     0
281
     0
  0
CLASS
  1
LAYOUT
  2
AcDbLayout
  3
AutoCAD 2000
 90
        0
280
     0
281
     0
  0
CLASS
  1
DICTIONARYVAR
  2
AcDbDictionaryVar
  3
AutoCAD 2000
 90
        0
280
     0
281
     0
  0
CLASS
  1
LONG_TRANSACTION
  2
AcDbLongTransaction
  3
AutoCAD 2000
 90
        0
280
     0
281
     0
  0
CLASS
  1
LWPOLYLINE
  2
AcDbPolyline
  3
AutoCAD 2000
 90
        0
280
     0
281
     1
  0
CLASS
  1
HATCH
  2
AcDbHatch
  3
AutoCAD 2000
 90
        0
280
     0
281
     1
  0
CLASS
  1
XRECORD
  2
AcDbXrecord
  3
AutoCAD 2000
 90
        0
280
     0
281
     0
  0
ENDSEC
  0
SECTION
  2
TABLES
  0
TABLE
  2
VPORT
  5
7DE1B343D9DF914
330
0
100
AcDbSymbolTable
 70
     2
  0
VPORT
  5
7DE1B343D9DF948
330
7DE1B343D9DF914
100
AcDbSymbolTableRecord
100
AcDbViewportTableRecord
  2
*ACTIVE
 70
     0
 10
0.0
 20
0.0
 11
1.0
 21
1.0
 12
5.737676283255623
 22
1.94192507204358
 13
0.0
 23
0.0
 14
0.015625
 24
0.015625
 15
0.0
 25
0.0
 16
0.0
 26
0.0
 36
1.0
 17
0.0
 27
0.0
 37
0.0
 40
2.281748181188984
 41
4.320930232558139
 42
50.0
 43
0.0
 44
0.0
 50
0.0
 51
0.0
 71
     0
 72
  2000
 73
     1
 74
     0
 75
     0
 76
     0
 77
     0
 78
     0
  0
ENDTAB
  0
TABLE
  2
LTYPE
  5
7DE1B343D9DF911
330
0
100
AcDbSymbolTable
 70
     1
  0
LTYPE
  5
7DE1B343D9DF91E
330
7DE1B343D9DF911
100
AcDbSymbolTableRecord
100
AcDbLinetypeTableRecord
  2
BYBLOCK
 70
     0
  3

 72
    65
 73
     0
 40
0.0
  0
LTYPE
  5
7DE1B343D9DF91F
330
7DE1B343D9DF911
100
AcDbSymbolTableRecord
100
AcDbLinetypeTableRecord
  2
BYLAYER
 70
     0
  3

 72
    65
 73
     0
 40
0.0
  0
LTYPE
  5
7DE1B343D9DF920
330
7DE1B343D9DF911
100
AcDbSymbolTableRecord
100
AcDbLinetypeTableRecord
  2
CONTINUOUS
 70
     0
  3
Solid line
 72
    65
 73
     0
 40
0.0
  0
ENDTAB
  0
TABLE
  2
LAYER
  5
7DE1B343D9DF90E
330
0
100
AcDbSymbolTable
 70
     2
  0
LAYER
  5
7DE1B343D9DF91B
330
7DE1B343D9DF90E
100
AcDbSymbolTableRecord
100
AcDbLayerTableRecord
  2
0
 70
     0
 62
     7
  6
CONTINUOUS
  0
LAYER
  5
7DE1B343D9DF92B
330
7DE1B343D9DF90E
100
AcDbSymbolTableRecord
100
AcDbLayerTableRecord
  2
TEXT
 70
     0
 62
     3
  6
CONTINUOUS
  0
ENDTAB
  0
TABLE
  2
STYLE
  5
7DE1B343D9DF90F
330
0
100
AcDbSymbolTable
 70
     3
  0
STYLE
  5
7DE1B343D9DF91C
330
7DE1B343D9DF90F
100
AcDbSymbolTableRecord
100
AcDbTextStyleTableRecord
  2
STANDARD
 70
     0
 40
0.0
 41
1.0
 50
0.0
 71
     0
 42
0.3125
  3
txt
  4

  0
STYLE
  5
7DE1B343D9DF928
330
7DE1B343D9DF90F
100
AcDbSymbolTableRecord
100
AcDbTextStyleTableRecord
  2
ITALICC
 70
     0
 40
0.0
 41
1.0
 50
0.0
 71
     0
 42
0.125
  3
italicc
  4

  0
STYLE
  5
7DE1B343D9DF938
330
7DE1B343D9DF90F
100
AcDbSymbolTableRecord
100
AcDbTextStyleTableRecord
  2
ROMANS
 70
     0
 40
0.0
 41
1.0
 50
0.0
 71
     0
 42
0.125
  3
romans.shx
  4

  0
ENDTAB
  0
TABLE
  2
VIEW
  5
7DE1B343D9DF912
330
0
100
AcDbSymbolTable
 70
     0
  0
ENDTAB
  0
TABLE
  2
UCS
  5
7DE1B343D9DF913
330
0
100
AcDbSymbolTable
 70
     0
  0
ENDTAB
  0
TABLE
  2
APPID
  5
7DE1B343D9DF915
330
0
100
AcDbSymbolTable
 70
     1
  0
APPID
  5
7DE1B343D9DF91D
330
7DE1B343D9DF915
100
AcDbSymbolTableRecord
100
AcDbRegAppTableRecord
  2
ACAD
 70
     0
  0
ENDTAB
  0
TABLE
  2
DIMSTYLE
  5
7DE1B343D9DF916
330
0
100
AcDbSymbolTable
 70
     1
  0
DIMSTYLE
105
7DE1B343D9DF930
330
7DE1B343D9DF916
100
AcDbSymbolTableRecord
100
AcDbDimStyleTableRecord
  2
STANDARD
 70
     0
  3

  4

  5

  6

  7

 40
1.0
 41
0.125
 42
0.125
 43
0.375
 44
0.125
 45
0.0
 46
0.0
 47
0.0
 48
0.0
140
0.125
141
-0.125
142
0.0
143
25.4
144
1.0
145
0.0
146
1.0
147
0.09
 71
     0
 72
     0
 73
     1
 74
     1
 75
     0
 76
     0
 77
     0
 78
     4
170
     0
171
     2
172
     0
173
     0
174
     1
175
     0
176
     0
177
     0
178
     0
270
     2
271
     3
272
     3
273
     2
274
     2
340
7DE1B343D9DF938
275
     0
280
     0
281
     0
282
     0
283
     1
284
     4
285
     0
286
     0
287
     3
288
     0
  0
ENDTAB
  0
TABLE
  2
BLOCK_RECORD
  5
7DE1B343D9DF90D
330
0
100
AcDbSymbolTable
 70
     0
  0
BLOCK_RECORD
  5
7DE1B343D9DF924
102
{ACAD_XDICTIONARY
360
7DE1B343D9DF96B
102
}
330
7DE1B343D9DF90D
100
AcDbSymbolTableRecord
100
AcDbBlockTableRecord
  2
*MODEL_SPACE
  0
BLOCK_RECORD
  5
7DE1B343D9DF921
102
{ACAD_XDICTIONARY
360
7DE1B343D9DF969
102
}
330
7DE1B343D9DF90D
100
AcDbSymbolTableRecord
100
AcDbBlockTableRecord
  2
*PAPER_SPACE
  0
ENDTAB
  0
ENDSEC
  0
SECTION
  2
BLOCKS
  0
BLOCK
  5
7DE1B343D9DF92E
330
7DE1B343D9DF924
100
AcDbEntity
  8
0
100
AcDbBlockBegin
  2
*MODEL_SPACE
 70
     0
 10
0.0
 20
0.0
 30
0.0
  3
*MODEL_SPACE
  1

  0
ENDBLK
  5
7DE1B343D9DF92F
330
7DE1B343D9DF924
100
AcDbEntity
  8
0
100
AcDbBlockEnd
  0
BLOCK
  5
7DE1B343D9DF92C
330
7DE1B343D9DF921
100
AcDbEntity
 67
     1
  8
0
100
AcDbBlockBegin
  2
*PAPER_SPACE
 70
     0
 10
0.0
 20
0.0
 30
0.0
  3
*PAPER_SPACE
  1

  0
ENDBLK
  5
7DE1B343D9DF92D
330
7DE1B343D9DF921
100
AcDbEntity
 67
     1
  8
0
100
AcDbBlockEnd
  0
ENDSEC
  0
SECTION
  2
ENTITIES
  0
LWPOLYLINE
  5
7DE1B343D9DE52D
330
7DE1B343D9DF924
100
AcDbEntity
  8
0
100
AcDbPolyline
 90
        4
 70
     1
 43
0.0
 10
2.70032743789399
 20
2.461440027171637
 42
-1.0
 10
2.82532743789399
 20
2.461440027171637
 10
2.82532743789399
 20
2.164565027171637
 42
-1.0
 10
2.70032743789399
 20
2.164565027171637
  0
TEXT
  5
7DE1B343D9DF7CF
330
7DE1B343D9DF924
100
AcDbEntity
  8
TEXT
100
AcDbText
 10
2.021756009322562
 20
1.817916210187386
 30
0.0
 40
0.125
  1
PART #110391
  7
ITALICC
 72
     1
 11
2.76282743789399
 21
1.817916210187386
 31
0.0
100
AcDbText
  0
TEXT
  5
7DE1B343D9DF7D0
330
7DE1B343D9DF924
100
AcDbEntity
  8
TEXT
100
AcDbText
 10
3.176132596144311
 20
1.370993567515011
 30
0.0
 40
0.0522247191011236
  1
Phone  1-800-328-2495
 41
1.272321428571429
 72
     5
 11
4.505065180413975
 21
1.370993567515011
 31
0.0
100
AcDbText
  0
TEXT
  5
7DE1B343D9DF7D1
330
7DE1B343D9DF924
100
AcDbEntity
  8
TEXT
100
AcDbText
 10
3.176132596144311
 20
1.650768848413888
 30
0.0
 40
0.0522247191011236
  1
Stylmark  Incorporated
 41
1.221428571428573
 72
     5
 11
4.505065180413975
 21
1.650768848413888
 31
0.0
100
AcDbText
  0
TEXT
  5
7DE1B343D9DF7D2
330
7DE1B343D9DF924
100
AcDbEntity
  8
TEXT
100
AcDbText
 10
3.176132596144311
 20
1.557510421447596
 30
0.0
 40
0.0522247191011236
  1
6536 Main St. N.E. * P.O. Box 32008
 41
0.8388932496075366
 72
     5
 11
4.505065180413975
 21
1.557510421447596
 31
0.0
100
AcDbText
  0
TEXT
  5
7DE1B343D9DF7D3
330
7DE1B343D9DF924
100
AcDbEntity
  8
TEXT
100
AcDbText
 10
3.176132596144311
 20
1.464251994481303
 30
0.0
 40
0.0522247191011236
  1
Minneapolis, MN 55432-0008
 41
1.11444212721585
 72
     5
 11
4.505065180413975
 21
1.464251994481303
 31
0.0
100
AcDbText
  0
LWPOLYLINE
  5
7DE1B343D9DF7D4
330
7DE1B343D9DF924
100
AcDbEntity
  8
TEXT
100
AcDbPolyline
 90
        3
 70
     0
 43
0.0006660908203125
 10
1.020178904077003
 20
1.484638330152446
 10
1.020178904077003
 20
1.371402890699318
 10
1.133414343530126
 20
1.371402890699318
  0
LWPOLYLINE
  5
7DE1B343D9DF7D9
330
7DE1B343D9DF924
100
AcDbEntity
  8
TEXT
100
AcDbPolyline
 90
        3
 70
     0
 43
0.0006660908203125
 10
1.046822536889501
 20
1.484638330152446
 10
1.046822536889501
 20
1.39804652351182
 10
1.133414343530126
 20
1.39804652351182
  0
LWPOLYLINE
  5
7DE1B343D9DF7DE
330
7DE1B343D9DF924
100
AcDbEntity
  8
TEXT
100
AcDbPolyline
 90
        2
 70
     0
 43
0.0001332181640625
 10
1.093448894311378
 20
1.494629692457131
 10
1.020178904077003
 20
1.484638330152446
  0
LWPOLYLINE
  5
7DE1B343D9DF7E2
330
7DE1B343D9DF924
100
AcDbEntity
  8
TEXT
100
AcDbPolyline
 90
        2
 70
     0
 43
0.0001332181640625
 10
1.046822536889501
 20
1.484638330152446
 10
1.106770710717628
 20
1.494629692457131
  0
LWPOLYLINE
  5
7DE1B343D9DF7E6
330
7DE1B343D9DF924
100
AcDbEntity
  8
TEXT
100
AcDbPolyline
 90
        2
 70
     0
 43
0.0001332181640625
 10
1.046822536889501
 20
1.39804652351182
 10
1.106770710717628
 20
1.457994697339945
  0
LWPOLYLINE
  5
7DE1B343D9DF7EA
330
7DE1B343D9DF924
100
AcDbEntity
  8
TEXT
100
AcDbPolyline
 90
        3
 70
     0
 43
0.0006660908203125
 10
1.133414343530126
 20
1.637839218824322
 10
1.020178904077003
 20
1.637839218824322
 10
1.020178904077003
 20
1.524603779371194
  0
LWPOLYLINE
  5
7DE1B343D9DF7EF
330
7DE1B343D9DF924
100
AcDbEntity
  8
TEXT
100
AcDbPolyline
 90
        3
 70
     0
 43
0.0006660908203125
 10
1.133414343530126
 20
1.611195586011821
 10
1.046822536889501
 20
1.611195586011821
 10
1.046822536889501
 20
1.524603779371194
  0
LWPOLYLINE
  5
7DE1B343D9DF7F4
330
7DE1B343D9DF924
100
AcDbEntity
  8
TEXT
100
AcDbPolyline
 90
        2
 70
     0
 43
0.0001332181640625
 10
1.046822536889501
 20
1.611195586011821
 10
1.106770710717627
 20
1.551247412183695
  0
LWPOLYLINE
  5
7DE1B343D9DF7F8
330
7DE1B343D9DF924
100
AcDbEntity
  8
TEXT
100
AcDbPolyline
 90
        2
 70
     0
 43
0.0001332181640625
 10
1.046822536889501
 20
1.524603779371194
 10
1.106770710717627
 20
1.514612417066505
  0
LWPOLYLINE
  5
7DE1B343D9DF7FC
330
7DE1B343D9DF924
100
AcDbEntity
  8
TEXT
100
AcDbPolyline
 90
        2
 70
     0
 43
0.0001332181640625
 10
1.020178904077003
 20
1.524603779371194
 10
1.093448894311378
 20
1.514612417066505
  0
LWPOLYLINE
  5
7DE1B343D9DF800
330
7DE1B343D9DF924
100
AcDbEntity
  8
TEXT
100
AcDbPolyline
 90
        2
 70
     0
 43
0.0006660908203125
 10
1.046822536889501
 20
1.484638330152446
 10
1.020178904077003
 20
1.484638330152446
  0
LWPOLYLINE
  5
7DE1B343D9DF804
330
7DE1B343D9DF924
100
AcDbEntity
  8
TEXT
100
AcDbPolyline
 90
        2
 70
     0
 43
0.0006660908203125
 10
1.046822536889501
 20
1.524603779371194
 10
1.020178904077003
 20
1.524603779371194
  0
LINE
  5
7DE1B343D9DF808
330
7DE1B343D9DF924
100
AcDbEntity
  8
TEXT
100
AcDbLine
 10
2.535369333203501
 20
1.573562524167553
 30
0.0
 11
2.428163059816212
 21
1.573562524167553
 31
0.0
  0
LINE
  5
7DE1B343D9DF809
330
7DE1B343D9DF924
100
AcDbEntity
  8
TEXT
100
AcDbLine
 10
2.564400231547979
 20
1.637839218824318
 30
0.0
 11
2.42956832233092
 21
1.637839218824318
 31
0.0
  0
ARC
  5
7DE1B343D9DF80A
330
7DE1B343D9DF924
100
AcDbEntity
  8
TEXT
100
AcDbCircle
 10
2.488882418724237
 20
1.468601969561302
 30
0.0
 40
0.0676855811441166
100
AcDbArc
 50
90.0
 51
153.7768192527749
  0
LWPOLYLINE
  5
7DE1B343D9DF80B
330
7DE1B343D9DF924
100
AcDbEntity
  8
TEXT
100
AcDbPolyline
 90
        2
 70
     0
 43
0.0
 10
2.427130564361402
 20
1.414857130786245
 42
0.2901071551932823
 10
2.470206497229037
 20
1.371366185835807
 42
5.328517124445801
  0
ARC
  5
7DE1B343D9DF80F
330
7DE1B343D9DF924
100
AcDbEntity
  8
TEXT
100
AcDbCircle
 10
1.783751041052751
 20
1.431158577173857
 30
0.0
 40
0.0601160179737537
100
AcDbArc
 50
180.0000000000003
 51
264.0521544866073
  0
LINE
  5
7DE1B343D9DF810
330
7DE1B343D9DF924
100
AcDbEntity
  8
TEXT
100
AcDbLine
 10
1.787266396678299
 20
1.672227136418456
 30
0.0
 11
1.727223791834292
 21
1.672227136418456
 31
0.0
  0
ARC
  5
7DE1B343D9DF811
330
7DE1B343D9DF924
100
AcDbEntity
  8
TEXT
100
AcDbCircle
 10
1.551492038935781
 20
1.555751759377816
 30
0.0
 40
0.0820874594465043
100
AcDbArc
 50
90.0
 51
270.0
  0
LWPOLYLINE
  5
7DE1B343D9DF812
330
7DE1B343D9DF924
100
AcDbEntity
  8
TEXT
100
AcDbPolyline
 90
        2
 70
     0
 43
0.0001332181640625
 10
1.143405705834816
 20
1.564569228589942
 10
1.133414343530126
 20
1.637839218824322
  0
LWPOLYLINE
  5
7DE1B343D9DF816
330
7DE1B343D9DF924
100
AcDbEntity
  8
TEXT
100
AcDbPolyline
 90
        2
 70
     0
 43
0.0001332181640625
 10
1.133414343530126
 20
1.611195586011821
 10
1.143405705834816
 20
1.551247412183695
  0
LWPOLYLINE
  5
7DE1B343D9DF81A
330
7DE1B343D9DF924
100
AcDbEntity
  8
TEXT
100
AcDbPolyline
 90
        3
 70
     0
 43
0.0006660908203125
 10
1.286615232202003
 20
1.524603779371194
 10
1.286615232202003
 20
1.637839218824322
 10
1.173379792748877
 20
1.637839218824322
  0
LWPOLYLINE
  5
7DE1B343D9DF81F
330
7DE1B343D9DF924
100
AcDbEntity
  8
TEXT
100
AcDbPolyline
 90
        3
 70
     0
 43
0.0006660908203125
 10
1.259971599389502
 20
1.524603779371194
 10
1.259971599389502
 20
1.611195586011821
 10
1.173379792748877
 20
1.611195586011821
  0
LWPOLYLINE
  5
7DE1B343D9DF824
330
7DE1B343D9DF924
100
AcDbEntity
  8
TEXT
100
AcDbPolyline
 90
        2
 70
     0
 43
0.0001332181640625
 10
1.259971599389502
 20
1.611195586011821
 10
1.200023425561378
 20
1.551247412183695
  0
LWPOLYLINE
  5
7DE1B343D9DF828
330
7DE1B343D9DF924
100
AcDbEntity
  8
TEXT
100
AcDbPolyline
 90
        2
 70
     0
 43
0.0001332181640625
 10
1.173379792748877
 20
1.611195586011821
 10
1.163388430444189
 20
1.551247412183695
  0
LWPOLYLINE
  5
7DE1B343D9DF82C
330
7DE1B343D9DF924
100
AcDbEntity
  8
TEXT
100
AcDbPolyline
 90
        2
 70
     0
 43
0.0001332181640625
 10
1.173379792748877
 20
1.637839218824322
 10
1.163388430444189
 20
1.564569228589942
  0
LWPOLYLINE
  5
7DE1B343D9DF830
330
7DE1B343D9DF924
100
AcDbEntity
  8
TEXT
100
AcDbPolyline
 90
        2
 70
     0
 43
0.0001332181640625
 10
1.213345241967627
 20
1.514612417066505
 10
1.286615232202003
 20
1.524603779371194
  0
LWPOLYLINE
  5
7DE1B343D9DF834
330
7DE1B343D9DF924
100
AcDbEntity
  8
TEXT
100
AcDbPolyline
 90
        2
 70
     0
 43
0.0001332181640625
 10
1.259971599389502
 20
1.524603779371194
 10
1.200023425561378
 20
1.514612417066505
  0
LWPOLYLINE
  5
7DE1B343D9DF838
330
7DE1B343D9DF924
100
AcDbEntity
  8
TEXT
100
AcDbPolyline
 90
        2
 70
     0
 43
0.0001332181640625
 10
1.286615232202003
 20
1.484638330152446
 10
1.213345241967627
 20
1.494629692457131
  0
LWPOLYLINE
  5
7DE1B343D9DF83C
330
7DE1B343D9DF924
100
AcDbEntity
  8
TEXT
100
AcDbPolyline
 90
        2
 70
     0
 43
0.0001332181640625
 10
1.259971599389502
 20
1.484638330152446
 10
1.200023425561378
 20
1.494629692457131
  0
LWPOLYLINE
  5
7DE1B343D9DF840
330
7DE1B343D9DF924
100
AcDbEntity
  8
TEXT
100
AcDbPolyline
 90
        2
 70
     0
 43
0.0001332181640625
 10
1.259971599389502
 20
1.39804652351182
 10
1.200023425561378
 20
1.457994697339945
  0
LWPOLYLINE
  5
7DE1B343D9DF844
330
7DE1B343D9DF924
100
AcDbEntity
  8
TEXT
100
AcDbPolyline
 90
        3
 70
     0
 43
0.0006660908203125
 10
1.173379792748877
 20
1.39804652351182
 10
1.259971599389502
 20
1.39804652351182
 10
1.259971599389502
 20
1.484638330152446
  0
LWPOLYLINE
  5
7DE1B343D9DF849
330
7DE1B343D9DF924
100
AcDbEntity
  8
TEXT
100
AcDbPolyline
 90
        3
 70
     0
 43
0.0006660908203125
 10
1.173379792748877
 20
1.371402890699318
 10
1.286615232202003
 20
1.371402890699318
 10
1.286615232202003
 20
1.484638330152446
  0
LWPOLYLINE
  5
7DE1B343D9DF84E
330
7DE1B343D9DF924
100
AcDbEntity
  8
TEXT
100
AcDbPolyline
 90
        5
 70
     0
 43
0.0001332181640625
 10
1.143405705834816
 20
1.444672880933695
 10
1.143405705834816
 20
1.457994697339945
 10
1.106770710717628
 20
1.457994697339945
 10
1.106770710717628
 20
1.494629692457131
 10
1.093448894311378
 20
1.494629692457131
  0
LWPOLYLINE
  5
7DE1B343D9DF855
330
7DE1B343D9DF924
100
AcDbEntity
  8
TEXT
100
AcDbPolyline
 90
        2
 70
     0
 43
0.0006660908203125
 10
1.133414343530126
 20
1.39804652351182
 10
1.133414343530126
 20
1.371402890699318
  0
LWPOLYLINE
  5
7DE1B343D9DF859
330
7DE1B343D9DF924
100
AcDbEntity
  8
TEXT
100
AcDbPolyline
 90
        2
 70
     0
 43
0.0001332181640625
 10
1.133414343530126
 20
1.39804652351182
 10
1.143405705834816
 20
1.457994697339945
  0
LWPOLYLINE
  5
7DE1B343D9DF85D
330
7DE1B343D9DF924
100
AcDbEntity
  8
TEXT
100
AcDbPolyline
 90
        2
 70
     0
 43
0.0001332181640625
 10
1.133414343530126
 20
1.371402890699318
 10
1.143405705834816
 20
1.444672880933695
  0
LWPOLYLINE
  5
7DE1B343D9DF861
330
7DE1B343D9DF924
100
AcDbEntity
  8
TEXT
100
AcDbPolyline
 90
        5
 70
     0
 43
0.0001332181640625
 10
1.093448894311378
 20
1.514612417066505
 10
1.106770710717627
 20
1.514612417066505
 10
1.106770710717627
 20
1.551247412183695
 10
1.143405705834816
 20
1.551247412183695
 10
1.143405705834816
 20
1.564569228589942
  0
LWPOLYLINE
  5
7DE1B343D9DF868
330
7DE1B343D9DF924
100
AcDbEntity
  8
TEXT
100
AcDbPolyline
 90
        5
 70
     0
 43
0.0001332181640625
 10
1.163388430444189
 20
1.564569228589942
 10
1.163388430444189
 20
1.551247412183695
 10
1.200023425561378
 20
1.551247412183695
 10
1.200023425561378
 20
1.514612417066505
 10
1.213345241967627
 20
1.514612417066505
  0
LWPOLYLINE
  5
7DE1B343D9DF86F
330
7DE1B343D9DF924
100
AcDbEntity
  8
TEXT
100
AcDbPolyline
 90
        2
 70
     0
 43
0.0001332181640625
 10
1.173379792748877
 20
1.39804652351182
 10
1.163388430444189
 20
1.457994697339945
  0
LWPOLYLINE
  5
7DE1B343D9DF873
330
7DE1B343D9DF924
100
AcDbEntity
  8
TEXT
100
AcDbPolyline
 90
        2
 70
     0
 43
0.0001332181640625
 10
1.163388430444189
 20
1.444672880933695
 10
1.173379792748877
 20
1.371402890699318
  0
LWPOLYLINE
  5
7DE1B343D9DF877
330
7DE1B343D9DF924
100
AcDbEntity
  8
TEXT
100
AcDbPolyline
 90
        2
 70
     0
 43
0.0006660908203125
 10
1.173379792748877
 20
1.39804652351182
 10
1.173379792748877
 20
1.371402890699318
  0
LWPOLYLINE
  5
7DE1B343D9DF87B
330
7DE1B343D9DF924
100
AcDbEntity
  8
TEXT
100
AcDbPolyline
 90
        5
 70
     0
 43
0.0001332181640625
 10
1.213345241967627
 20
1.494629692457131
 10
1.200023425561378
 20
1.494629692457131
 10
1.200023425561378
 20
1.457994697339945
 10
1.163388430444189
 20
1.457994697339945
 10
1.163388430444189
 20
1.444672880933695
  0
LWPOLYLINE
  5
7DE1B343D9DF882
330
7DE1B343D9DF924
100
AcDbEntity
  8
TEXT
100
AcDbPolyline
 90
        2
 70
     0
 43
0.0006660908203125
 10
1.259971599389502
 20
1.524603779371194
 10
1.286615232202003
 20
1.524603779371194
  0
LWPOLYLINE
  5
7DE1B343D9DF886
330
7DE1B343D9DF924
100
AcDbEntity
  8
TEXT
100
AcDbPolyline
 90
        2
 70
     0
 43
0.0006660908203125
 10
1.259971599389502
 20
1.484638330152446
 10
1.286615232202003
 20
1.484638330152446
  0
LINE
  5
7DE1B343D9DF88A
330
7DE1B343D9DF924
100
AcDbEntity
  8
TEXT
100
AcDbLine
 10
1.556729369050028
 20
1.573562524167553
 30
0.0
 11
1.723635023078999
 21
1.573562524167553
 31
0.0
  0
LINE
  5
7DE1B343D9DF88B
330
7DE1B343D9DF924
100
AcDbEntity
  8
TEXT
100
AcDbLine
 10
1.622329505294329
 20
1.537757802556925
 30
0.0
 11
1.556729369050028
 21
1.537757802556925
 31
0.0
  0
LINE
  5
7DE1B343D9DF88C
330
7DE1B343D9DF924
100
AcDbEntity
  8
TEXT
100
AcDbLine
 10
1.469404579489276
 20
1.371366185835807
 30
0.0
 11
1.622329505294329
 21
1.371366185835807
 31
0.0
  0
LINE
  5
7DE1B343D9DF88D
330
7DE1B343D9DF924
100
AcDbEntity
  8
TEXT
100
AcDbLine
 10
1.627269879200609
 20
1.439723192169247
 30
0.0
 11
1.469404579489275
 21
1.439723192169247
 31
0.0
  0
LINE
  5
7DE1B343D9DF88E
330
7DE1B343D9DF924
100
AcDbEntity
  8
TEXT
100
AcDbLine
 10
1.55149203893578
 20
1.473664299931311
 30
0.0
 11
1.627269879200609
 21
1.473664299931311
 31
0.0
  0
ARC
  5
7DE1B343D9DF88F
330
7DE1B343D9DF924
100
AcDbEntity
  8
TEXT
100
AcDbCircle
 10
1.556729369050029
 20
1.555660163362241
 30
0.0
 40
0.017902360805315
100
AcDbArc
 50
90.0
 51
270.0
  0
LINE
  5
7DE1B343D9DF890
330
7DE1B343D9DF924
100
AcDbEntity
  8
TEXT
100
AcDbLine
 10
1.469404579489275
 20
1.439723192169247
 30
0.0
 11
1.469404579489276
 21
1.371366185835807
 31
0.0
  0
LINE
  5
7DE1B343D9DF891
330
7DE1B343D9DF924
100
AcDbEntity
  8
TEXT
100
AcDbLine
 10
1.723635023078999
 20
1.573562524167553
 30
0.0
 11
1.723635023078999
 21
1.431158577173857
 31
0.0
  0
ARC
  5
7DE1B343D9DF892
330
7DE1B343D9DF924
100
AcDbEntity
  8
TEXT
100
AcDbCircle
 10
1.62232950529433
 20
1.454561994196364
 30
0.0
 40
0.0831958083605586
100
AcDbArc
 50
270.0
 51
90.0
  0
ARC
  5
7DE1B343D9DF893
330
7DE1B343D9DF924
100
AcDbEntity
  8
TEXT
100
AcDbCircle
 10
1.62726987920061
 20
1.456693746050281
 30
0.0
 40
0.0169705538810321
100
AcDbArc
 50
270.0
 51
90.0
  0
LWPOLYLINE
  5
7DE1B343D9DF894
330
7DE1B343D9DF924
100
AcDbEntity
  8
TEXT
100
AcDbPolyline
 90
        2
 70
     0
 43
0.0006660908203125
 10
1.133414343530126
 20
1.611195586011821
 10
1.133414343530126
 20
1.637839218824322
  0
LWPOLYLINE
  5
7DE1B343D9DF898
330
7DE1B343D9DF924
100
AcDbEntity
  8
TEXT
100
AcDbPolyline
 90
        2
 70
     0
 43
0.0006660908203125
 10
1.173379792748877
 20
1.611195586011821
 10
1.173379792748877
 20
1.637839218824322
  0
LINE
  5
7DE1B343D9DF89C
330
7DE1B343D9DF924
100
AcDbEntity
  8
TEXT
100
AcDbLine
 10
1.727223791834292
 20
1.637839218824318
 30
0.0
 11
1.55149203893578
 21
1.637839218824318
 31
0.0
  0
LINE
  5
7DE1B343D9DF89D
330
7DE1B343D9DF924
100
AcDbEntity
  8
TEXT
100
AcDbLine
 10
1.727223791834292
 20
1.672227136418456
 30
0.0
 11
1.727223791834292
 21
1.637839218824318
 31
0.0
  0
LINE
  5
7DE1B343D9DF89E
330
7DE1B343D9DF924
100
AcDbEntity
  8
TEXT
100
AcDbLine
 10
1.917695683854145
 20
1.536967222711198
 30
0.0
 11
1.859065362822207
 21
1.637839218824318
 31
0.0
  0
LINE
  5
7DE1B343D9DF89F
330
7DE1B343D9DF924
100
AcDbEntity
  8
TEXT
100
AcDbLine
 10
1.97644424666001
 20
1.637839218824318
 30
0.0
 11
1.917695683854145
 21
1.536967222711198
 31
0.0
  0
LINE
  5
7DE1B343D9DF8A0
330
7DE1B343D9DF924
100
AcDbEntity
  8
TEXT
100
AcDbLine
 10
2.073374872019751
 20
1.453754023938806
 30
0.0
 11
2.073374872019751
 21
1.705850696563129
 31
0.0
  0
LINE
  5
7DE1B343D9DF8A1
330
7DE1B343D9DF924
100
AcDbEntity
  8
TEXT
100
AcDbLine
 10
2.105686726157411
 20
1.637839218824318
 30
0.0
 11
2.105686726157411
 21
1.43697501209191
 31
0.0
  0
LINE
  5
7DE1B343D9DF8A2
330
7DE1B343D9DF924
100
AcDbEntity
  8
TEXT
100
AcDbLine
 10
2.105686726157411
 20
1.43697501209191
 30
0.0
 11
2.08869308927281
 21
1.43697501209191
 31
0.0
  0
LINE
  5
7DE1B343D9DF8A3
330
7DE1B343D9DF924
100
AcDbEntity
  8
TEXT
100
AcDbLine
 10
2.074514445515946
 20
1.371366185835807
 30
0.0
 11
2.172517779215381
 21
1.371366185835807
 31
0.0
  0
LINE
  5
7DE1B343D9DF8A4
330
7DE1B343D9DF924
100
AcDbEntity
  8
TEXT
100
AcDbLine
 10
1.90809544685719
 20
1.39132469194082
 30
0.0
 11
2.005395152950635
 21
1.555674902876088
 31
0.0
  0
ARC
  5
7DE1B343D9DF8A5
330
7DE1B343D9DF924
100
AcDbEntity
  8
TEXT
100
AcDbCircle
 10
1.874051886944976
 20
1.410913908109503
 30
0.0
 40
0.0392772371940762
100
AcDbArc
 50
270.1604552698595
 51
330.0831797321295
  0
LINE
  5
7DE1B343D9DF8A6
330
7DE1B343D9DF924
100
AcDbEntity
  8
TEXT
100
AcDbLine
 10
1.777521630559105
 20
1.371366185835807
 30
0.0
 11
1.874161881634099
 21
1.37163682493409
 31
0.0
  0
LWPOLYLINE
  5
7DE1B343D9DF8A7
330
7DE1B343D9DF924
100
AcDbEntity
  8
TEXT
100
AcDbPolyline
 90
        6
 70
     1
 43
0.0
 10
1.820045434134255
 20
1.573562524167553
 10
1.789728839914046
 20
1.573562524167553
 10
1.789728839914046
 20
1.450451526112658
 42
0.407328721240804
 10
1.801272491075523
 20
1.438632611436272
 10
1.861894190120254
 20
1.438632611436272
 10
1.879359530527572
 20
1.471444840479751
  0
LINE
  5
7DE1B343D9DF8AF
330
7DE1B343D9DF924
100
AcDbEntity
  8
TEXT
100
AcDbLine
 10
2.005395152950635
 20
1.555674902876088
 30
0.0
 11
2.005395152950635
 21
1.422917528050732
 31
0.0
  0
ARC
  5
7DE1B343D9DF8B0
330
7DE1B343D9DF924
100
AcDbEntity
  8
TEXT
100
AcDbCircle
 10
2.088693089272808
 20
1.452356818335335
 30
0.0
 40
0.0153818062434269
100
AcDbArc
 50
174.7883570302258
 51
270.0
  0
LWPOLYLINE
  5
7DE1B343D9DF8B1
330
7DE1B343D9DF924
100
AcDbEntity
  8
TEXT
100
AcDbPolyline
 90
        2
 70
     0
 43
0.0
 10
2.005395152950633
 20
1.422917528050736
 42
0.3318488747599744
 10
2.074514445515946
 20
1.371366185835807
 42
-6.868794160588311
  0
LINE
  5
7DE1B343D9DF8B5
330
7DE1B343D9DF924
100
AcDbEntity
  8
TEXT
100
AcDbLine
 10
2.229906848204642
 20
1.371366185835807
 30
0.0
 11
2.296964894986482
 21
1.371366185835807
 31
0.0
  0
LINE
  5
7DE1B343D9DF8B6
330
7DE1B343D9DF924
100
AcDbEntity
  8
TEXT
100
AcDbLine
 10
2.229906848204642
 20
1.566008735001443
 30
0.0
 11
2.229906848204642
 21
1.371366185835807
 31
0.0
  0
LINE
  5
7DE1B343D9DF8B7
330
7DE1B343D9DF924
100
AcDbEntity
  8
TEXT
100
AcDbLine
 10
2.172517779215381
 20
1.573562524167553
 30
0.0
 11
2.222353059038528
 21
1.573562524167553
 31
0.0
  0
LINE
  5
7DE1B343D9DF8B8
330
7DE1B343D9DF924
100
AcDbEntity
  8
TEXT
100
AcDbLine
 10
2.172517779215381
 20
1.371366185835807
 30
0.0
 11
2.172517779215381
 21
1.573562524167553
 31
0.0
  0
LWPOLYLINE
  5
7DE1B343D9DF8B9
330
7DE1B343D9DF924
100
AcDbEntity
  8
TEXT
100
AcDbPolyline
 90
        2
 70
     0
 43
0.0
 10
2.222353059038526
 20
1.573562524167553
 42
-0.4142135623731017
 10
2.22990684820464
 20
1.566008735001443
 42
-0.9999999999999998
  0
LINE
  5
7DE1B343D9DF8BD
330
7DE1B343D9DF924
100
AcDbEntity
  8
TEXT
100
AcDbLine
 10
2.428163059816212
 20
1.573562524167553
 30
0.0
 11
2.428163059816212
 21
1.498510118093346
 31
0.0
  0
LINE
  5
7DE1B343D9DF8BE
330
7DE1B343D9DF924
100
AcDbEntity
  8
TEXT
100
AcDbLine
 10
2.296964894986482
 20
1.573562524167553
 30
0.0
 11
2.351098491907432
 21
1.573562524167553
 31
0.0
  0
LINE
  5
7DE1B343D9DF8BF
330
7DE1B343D9DF924
100
AcDbEntity
  8
TEXT
100
AcDbLine
 10
2.296964894986482
 20
1.371366185835807
 30
0.0
 11
2.296964894986482
 21
1.573562524167553
 31
0.0
  0
LWPOLYLINE
  5
7DE1B343D9DF8C0
330
7DE1B343D9DF924
100
AcDbEntity
  8
TEXT
100
AcDbPolyline
 90
        2
 70
     0
 43
0.0
 10
2.35109849190743
 20
1.573562524167553
 42
-0.4142135623731017
 10
2.358652281073544
 20
1.566008735001443
 42
-0.9999999999999998
  0
LWPOLYLINE
  5
7DE1B343D9DF8C4
330
7DE1B343D9DF924
100
AcDbEntity
  8
TEXT
100
AcDbPolyline
 90
        4
 70
     0
 43
0.0
 10
2.358652281073544
 20
1.566008735001443
 10
2.358652281073544
 20
1.371366185835807
 10
2.427130564361402
 20
1.371366185835807
 10
2.427130564361402
 20
1.414857130786245
 42
-1.714843617202739
  0
LINE
  5
7DE1B343D9DF8CA
330
7DE1B343D9DF924
100
AcDbEntity
  8
TEXT
100
AcDbLine
 10
1.787266396678299
 20
1.637839218824318
 30
0.0
 11
1.787266396678299
 21
1.672227136418456
 31
0.0
  0
LINE
  5
7DE1B343D9DF8CB
330
7DE1B343D9DF924
100
AcDbEntity
  8
TEXT
100
AcDbLine
 10
1.859065362822207
 20
1.637839218824318
 30
0.0
 11
1.787266396678299
 21
1.637839218824318
 31
0.0
  0
LINE
  5
7DE1B343D9DF8CC
330
7DE1B343D9DF924
100
AcDbEntity
  8
TEXT
100
AcDbLine
 10
2.006566159453386
 20
1.637839218824318
 30
0.0
 11
1.97644424666001
 21
1.637839218824318
 31
0.0
  0
LINE
  5
7DE1B343D9DF8CD
330
7DE1B343D9DF924
100
AcDbEntity
  8
TEXT
100
AcDbLine
 10
2.006566159453386
 20
1.705850696563129
 30
0.0
 11
2.006566159453386
 21
1.637839218824318
 31
0.0
  0
LINE
  5
7DE1B343D9DF8CE
330
7DE1B343D9DF924
100
AcDbEntity
  8
TEXT
100
AcDbLine
 10
2.073374872019751
 20
1.705850696563129
 30
0.0
 11
2.006566159453386
 21
1.705850696563129
 31
0.0
  0
LWPOLYLINE
  5
7DE1B343D9DF8CF
330
7DE1B343D9DF924
100
AcDbEntity
  8
TEXT
100
AcDbPolyline
 90
        3
 70
     0
 43
0.0
 10
2.393786631617754
 20
1.637839218824322
 10
2.275486472801709
 20
1.637839218824322
 10
2.275486472801709
 20
1.610671722063426
 42
-1.960274751411753
  0
LINE
  5
7DE1B343D9DF8D4
330
7DE1B343D9DF924
100
AcDbEntity
  8
TEXT
100
AcDbLine
 10
2.239704782088548
 20
1.637839218824318
 30
0.0
 11
2.105686726157411
 21
1.637839218824318
 31
0.0
  0
LWPOLYLINE
  5
7DE1B343D9DF8D5
330
7DE1B343D9DF924
100
AcDbEntity
  8
TEXT
100
AcDbPolyline
 90
        2
 70
     0
 43
0.0
 10
2.239704782088548
 20
1.637839218824322
 42
-0.3328679258950098
 10
2.275486472801709
 20
1.610671722063426
 42
6.772930709997214
  0
LINE
  5
7DE1B343D9DF8D9
330
7DE1B343D9DF924
100
AcDbEntity
  8
TEXT
100
AcDbLine
 10
2.42956832233092
 20
1.637839218824318
 30
0.0
 11
2.42956832233092
 21
1.609516673054674
 31
0.0
  0
LWPOLYLINE
  5
7DE1B343D9DF8DA
330
7DE1B343D9DF924
100
AcDbEntity
  8
TEXT
100
AcDbPolyline
 90
        2
 70
     0
 43
0.0
 10
2.393786631617754
 20
1.637839218824322
 42
-0.3277054968067132
 10
2.429568322330919
 20
1.609516673054678
 42
6.667889725900311
  0
LINE
  5
7DE1B343D9DF8DE
330
7DE1B343D9DF924
100
AcDbEntity
  8
TEXT
100
AcDbLine
 10
2.64336017042302
 20
1.532627240270891
 30
0.0
 11
2.599609399241119
 21
1.614877516267036
 31
0.0
  0
LINE
  5
7DE1B343D9DF8DF
330
7DE1B343D9DF924
100
AcDbEntity
  8
TEXT
100
AcDbLine
 10
2.64336017042302
 20
1.637839218824318
 30
0.0
 11
2.64336017042302
 21
1.532627240270891
 31
0.0
  0
LINE
  5
7DE1B343D9DF8E0
330
7DE1B343D9DF924
100
AcDbEntity
  8
TEXT
100
AcDbLine
 10
2.871043909361389
 20
1.56197389241278
 30
0.0
 11
2.871043909361389
 21
1.703303424591919
 31
0.0
  0
LINE
  5
7DE1B343D9DF8E1
330
7DE1B343D9DF924
100
AcDbEntity
  8
TEXT
100
AcDbLine
 10
2.918142067917374
 20
1.637839218824318
 30
0.0
 11
2.871043909361389
 21
1.56197389241278
 31
0.0
  0
LINE
  5
7DE1B343D9DF8E2
330
7DE1B343D9DF924
100
AcDbEntity
  8
TEXT
100
AcDbLine
 10
2.928576784681297
 20
1.527945975883345
 30
0.0
 11
2.993133900647002
 21
1.637839218824318
 31
0.0
  0
LINE
  5
7DE1B343D9DF8E3
330
7DE1B343D9DF924
100
AcDbEntity
  8
TEXT
100
AcDbLine
 10
2.807208918138616
 20
1.371366185835807
 30
0.0
 11
2.871587102457237
 21
1.371366185835807
 31
0.0
  0
LWPOLYLINE
  5
7DE1B343D9DF8E4
330
7DE1B343D9DF924
100
AcDbEntity
  8
TEXT
100
AcDbPolyline
 90
        2
 70
     0
 43
0.0
 10
2.647299847728058
 20
1.414857130786245
 42
-0.2901071551932486
 10
2.604223914860414
 20
1.371366185835807
 42
-5.328517124445184
  0
ARC
  5
7DE1B343D9DF8E8
330
7DE1B343D9DF924
100
AcDbEntity
  8
TEXT
100
AcDbCircle
 10
2.535369333203499
 20
1.545203149167555
 30
0.0
 40
0.028359375
100
AcDbArc
 50
25.78218179591245
 51
90.0
  0
LINE
  5
7DE1B343D9DF8E9
330
7DE1B343D9DF924
100
AcDbEntity
  8
TEXT
100
AcDbLine
 10
2.571170408507622
 20
1.536287550705421
 30
0.0
 11
2.560905648094058
 21
1.557538090278115
 31
0.0
  0
LINE
  5
7DE1B343D9DF8EA
330
7DE1B343D9DF924
100
AcDbEntity
  8
TEXT
100
AcDbLine
 10
2.488882418724239
 20
1.536287550705421
 30
0.0
 11
2.571170408507622
 21
1.536287550705421
 31
0.0
  0
LWPOLYLINE
  5
7DE1B343D9DF8EB
330
7DE1B343D9DF924
100
AcDbEntity
  8
TEXT
100
AcDbPolyline
 90
        4
 70
     1
 43
0.0
 10
2.584101449790521
 20
1.474330163819832
 10
2.495441131130663
 20
1.474330163819832
 42
0.9999999999999998
 10
2.495441131130663
 20
1.431931623315972
 10
2.584101449790521
 20
1.431931623315972
 42
1.0
  0
LWPOLYLINE
  5
7DE1B343D9DF8F1
330
7DE1B343D9DF924
100
AcDbEntity
  8
TEXT
100
AcDbPolyline
 90
        2
 70
     0
 43
0.0
 10
2.470206497229037
 20
1.371366185835807
 10
2.604223914860414
 20
1.371366185835807
 42
0.9999999999999998
  0
LINE
  5
7DE1B343D9DF8F5
330
7DE1B343D9DF924
100
AcDbEntity
  8
TEXT
100
AcDbLine
 10
2.730560936846053
 20
1.573562524167553
 30
0.0
 11
2.807208918138611
 21
1.573562524167553
 31
0.0
  0
LINE
  5
7DE1B343D9DF8F6
330
7DE1B343D9DF924
100
AcDbEntity
  8
TEXT
100
AcDbLine
 10
2.807208918138611
 20
1.573562524167553
 30
0.0
 11
2.807208918138616
 21
1.371366185835807
 31
0.0
  0
ARC
  5
7DE1B343D9DF8F7
330
7DE1B343D9DF924
100
AcDbEntity
  8
TEXT
100
AcDbCircle
 10
2.730560936846051
 20
1.54865664888489
 30
0.0
 40
0.0249058752826653
100
AcDbArc
 50
89.99971217465335
 51
179.9999999999985
  0
LINE
  5
7DE1B343D9DF8F8
330
7DE1B343D9DF924
100
AcDbEntity
  8
TEXT
100
AcDbLine
 10
2.705655061563394
 20
1.371366185835807
 30
0.0
 11
2.705655061563389
 21
1.548656691267276
 31
0.0
  0
LWPOLYLINE
  5
7DE1B343D9DF8F9
330
7DE1B343D9DF924
100
AcDbEntity
  8
TEXT
100
AcDbPolyline
 90
        2
 70
     0
 43
0.0
 10
2.647299847728058
 20
1.371366185835807
 10
2.705655061563392
 20
1.371366185835807
  0
LWPOLYLINE
  5
7DE1B343D9DF8FD
330
7DE1B343D9DF924
100
AcDbEntity
  8
TEXT
100
AcDbPolyline
 90
        2
 70
     0
 43
0.0
 10
2.647299847728058
 20
1.414857130786245
 10
2.647299847728058
 20
1.371366185835807
  0
LINE
  5
7DE1B343D9DF901
330
7DE1B343D9DF924
100
AcDbEntity
  8
TEXT
100
AcDbLine
 10
3.024069008044907
 20
1.371366185835807
 30
0.0
 11
2.928576784681297
 21
1.527945975883345
 31
0.0
  0
LINE
  5
7DE1B343D9DF902
330
7DE1B343D9DF924
100
AcDbEntity
  8
TEXT
100
AcDbLine
 10
2.947490635668701
 20
1.371366185835807
 30
0.0
 11
3.024069008044907
 21
1.371366185835807
 31
0.0
  0
LINE
  5
7DE1B343D9DF903
330
7DE1B343D9DF924
100
AcDbEntity
  8
TEXT
100
AcDbLine
 10
2.871587102457237
 20
1.502945754311987
 30
0.0
 11
2.947490635668701
 21
1.371366185835807
 31
0.0
  0
LINE
  5
7DE1B343D9DF904
330
7DE1B343D9DF924
100
AcDbEntity
  8
TEXT
100
AcDbLine
 10
2.871587102457237
 20
1.371366185835807
 30
0.0
 11
2.871587102457237
 21
1.502945754311987
 31
0.0
  0
LINE
  5
7DE1B343D9DF905
330
7DE1B343D9DF924
100
AcDbEntity
  8
TEXT
100
AcDbLine
 10
2.871043909361389
 20
1.703303424591919
 30
0.0
 11
2.802729030812116
 21
1.703303424591919
 31
0.0
  0
ARC
  5
7DE1B343D9DF906
330
7DE1B343D9DF924
100
AcDbEntity
  8
TEXT
100
AcDbCircle
 10
2.56237329177091
 20
1.596255651703416
 30
0.0
 40
0.0416329381542859
100
AcDbArc
 50
26.56974201007528
 51
87.20939649401342
  0
LINE
  5
7DE1B343D9DF907
330
7DE1B343D9DF924
100
AcDbEntity
  8
TEXT
100
AcDbLine
 10
2.707257076722521
 20
1.637839218824318
 30
0.0
 11
2.64336017042302
 21
1.637839218824318
 31
0.0
  0
LINE
  5
7DE1B343D9DF908
330
7DE1B343D9DF924
100
AcDbEntity
  8
TEXT
100
AcDbLine
 10
2.707257076722521
 20
1.610291568963444
 30
0.0
 11
2.707257076722521
 21
1.637839218824318
 31
0.0
  0
ARC
  5
7DE1B343D9DF909
330
7DE1B343D9DF924
100
AcDbEntity
  8
TEXT
100
AcDbCircle
 10
2.738449893785629
 20
1.606593491542053
 30
0.0
 40
0.0314112657011332
100
AcDbArc
 50
95.88484768694724
 51
173.2388340632136
  0
LINE
  5
7DE1B343D9DF90A
330
7DE1B343D9DF924
100
AcDbEntity
  8
TEXT
100
AcDbLine
 10
2.802729030812111
 20
1.637839218824318
 30
0.0
 11
2.735229313162594
 21
1.637839218824318
 31
0.0
  0
LINE
  5
7DE1B343D9DF90B
330
7DE1B343D9DF924
100
AcDbEntity
  8
TEXT
100
AcDbLine
 10
2.802729030812116
 20
1.703303424591919
 30
0.0
 11
2.802729030812111
 21
1.637839218824318
 31
0.0
  0
LINE
  5
7DE1B343D9DF90C
330
7DE1B343D9DF924
100
AcDbEntity
  8
TEXT
100
AcDbLine
 10
2.993133900647002
 20
1.637839218824318
 30
0.0
 11
2.918142067917376
 21
1.637839218824318
 31
0.0
  0
ENDSEC
  0
SECTION
  2
OBJECTS
  0
DICTIONARY
  5
7DE1B343D9DF918
330
0
100
AcDbDictionary
  3
ACAD_GROUP
350
7DE1B343D9DF919
  3
ACAD_LAYOUT
350
7DE1B343D9DF93E
  3
ACAD_MLINESTYLE
350
7DE1B343D9DF91A
  3
ACAD_PLOTSETTINGS
350
7DE1B343D9DF93F
  3
ACAD_PLOTSTYLENAME
350
7DE1B343D9DF93C
  3
ACDBHEADERROUNDTRIPXREC
350
7DE1B343D9DF949
  3
ACDBVARIABLEDICTIONARY
350
7DE1B343D9DF946
  0
DICTIONARY
  5
7DE1B343D9DF96B
330
7DE1B343D9DF924
100
AcDbDictionary
280
     1
  3
ACAD_LAYOUTSELFREF
360
7DE1B343D9DF96C
  0
DICTIONARY
  5
7DE1B343D9DF969
330
7DE1B343D9DF921
100
AcDbDictionary
280
     1
  3
ACAD_LAYOUTSELFREF
360
7DE1B343D9DF96A
  0
DICTIONARY
  5
7DE1B343D9DF919
102
{ACAD_REACTORS
330
7DE1B343D9DF918
102
}
330
7DE1B343D9DF918
100
AcDbDictionary
  0
DICTIONARY
  5
7DE1B343D9DF93E
102
{ACAD_REACTORS
330
7DE1B343D9DF918
102
}
330
7DE1B343D9DF918
100
AcDbDictionary
  0
DICTIONARY
  5
7DE1B343D9DF91A
102
{ACAD_REACTORS
330
7DE1B343D9DF918
102
}
330
7DE1B343D9DF918
100
AcDbDictionary
  3
STANDARD
350
7DE1B343D9DF927
  0
DICTIONARY
  5
7DE1B343D9DF93F
102
{ACAD_REACTORS
330
7DE1B343D9DF918
102
}
330
7DE1B343D9DF918
100
AcDbDictionary
  0
ACDBDICTIONARYWDFLT
  5
7DE1B343D9DF93C
102
{ACAD_REACTORS
330
7DE1B343D9DF918
102
}
330
7DE1B343D9DF918
100
AcDbDictionary
281
     1
  3
Normal
350
7DE1B343D9DF93D
100
AcDbDictionaryWithDefault
340
7DE1B343D9DF93D
  0
DICTIONARY
  5
7DE1B343D9DF949
102
{ACAD_REACTORS
330
7DE1B343D9DF918
102
}
330
7DE1B343D9DF918
100
AcDbDictionary
  3
CEPSNTYPE
350
7DE1B343D9DF953
  3
FINGERPRINTGUID
350
7DE1B343D9DF954
  3
HYPERLINKBASE
350
7DE1B343D9DF94C
  3
INSUNITS
350
7DE1B343D9DF952
  3
LAYOUTDICT
350
7DE1B343D9DF94E
  3
LWETCUNION
350
7DE1B343D9DF951
  3
PLOTSETDICT
350
7DE1B343D9DF94F
  3
PLOTSTYLNAMDICT
350
7DE1B343D9DF950
  3
PSVPSCALE
350
7DE1B343D9DF956
  3
PUCSBASE
350
7DE1B343D9DF959
  3
PUCSORGBACK
350
7DE1B343D9DF95F
  3
PUCSORGBOTTOM
350
7DE1B343D9DF95B
  3
PUCSORGFRONT
350
7DE1B343D9DF95E
  3
PUCSORGLEFT
350
7DE1B343D9DF95C
  3
PUCSORGRIGHT
350
7DE1B343D9DF95D
  3
PUCSORGTOP
350
7DE1B343D9DF95A
  3
PUCSORTHOREF
350
7DE1B343D9DF957
  3
PUCSORTHOVIEW
350
7DE1B343D9DF958
  3
STYLESHEET
350
7DE1B343D9DF94D
  3
TSTACKALIGN
350
7DE1B343D9DF94A
  3
TSTACKSIZE
350
7DE1B343D9DF94B
  3
UCSBASE
350
7DE1B343D9DF962
  3
UCSORGBACK
350
7DE1B343D9DF968
  3
UCSORGBOTTOM
350
7DE1B343D9DF964
  3
UCSORGFRONT
350
7DE1B343D9DF967
  3
UCSORGLEFT
350
7DE1B343D9DF965
  3
UCSORGRIGHT
350
7DE1B343D9DF966
  3
UCSORGTOP
350
7DE1B343D9DF963
  3
UCSORTHOREF
350
7DE1B343D9DF960
  3
UCSORTHOVIEW
350
7DE1B343D9DF961
  3
VERSIONGUID
350
7DE1B343D9DF955
  0
DICTIONARY
  5
7DE1B343D9DF946
102
{ACAD_REACTORS
330
7DE1B343D9DF918
102
}
330
7DE1B343D9DF918
100
AcDbDictionary
  3
DIMASSOC
350
7DE1B343D9DF947
  0
XRECORD
  5
7DE1B343D9DF96C
102
{ACAD_REACTORS
330
7DE1B343D9DF96B
102
}
330
7DE1B343D9DF96B
100
AcDbXrecord
340
7DE1B343D9DF924
  0
XRECORD
  5
7DE1B343D9DF96A
102
{ACAD_REACTORS
330
7DE1B343D9DF969
102
}
330
7DE1B343D9DF969
100
AcDbXrecord
340
7DE1B343D9DF921
  0
MLINESTYLE
  5
7DE1B343D9DF927
102
{ACAD_REACTORS
330
7DE1B343D9DF91A
102
}
330
7DE1B343D9DF91A
100
AcDbMlineStyle
  2
STANDARD
 70
     0
  3

 62
     0
 51
90.0
 52
90.0
 71
     2
 49
0.5
 62
   256
  6
BYLAYER
 49
-0.5
 62
   256
  6
BYLAYER
  0
ACDBPLACEHOLDER
  5
7DE1B343D9DF93D
102
{ACAD_REACTORS
330
7DE1B343D9DF93C
102
}
330
7DE1B343D9DF93C
100
AcDbPlaceHolder
280
     0
  0
XRECORD
  5
7DE1B343D9DF953
102
{ACAD_REACTORS
330
7DE1B343D9DF949
102
}
330
7DE1B343D9DF949
100
AcDbXrecord
 90
        0
  0
XRECORD
  5
7DE1B343D9DF954
102
{ACAD_REACTORS
330
7DE1B343D9DF949
102
}
330
7DE1B343D9DF949
100
AcDbXrecord
  1
{E3EE8240-8DB6-11D6-88E6-0090279574E7}
  0
XRECORD
  5
7DE1B343D9DF94C
102
{ACAD_REACTORS
330
7DE1B343D9DF949
102
}
330
7DE1B343D9DF949
100
AcDbXrecord
  1

  0
XRECORD
  5
7DE1B343D9DF952
102
{ACAD_REACTORS
330
7DE1B343D9DF949
102
}
330
7DE1B343D9DF949
100
AcDbXrecord
 90
        0
  0
XRECORD
  5
7DE1B343D9DF94E
102
{ACAD_REACTORS
330
7DE1B343D9DF949
102
}
330
7DE1B343D9DF949
100
AcDbXrecord
340
7DE1B343D9DF93E
  0
XRECORD
  5
7DE1B343D9DF951
102
{ACAD_REACTORS
330
7DE1B343D9DF949
102
}
330
7DE1B343D9DF949
100
AcDbXrecord
 90
    14877
  0
XRECORD
  5
7DE1B343D9DF94F
102
{ACAD_REACTORS
330
7DE1B343D9DF949
102
}
330
7DE1B343D9DF949
100
AcDbXrecord
340
7DE1B343D9DF93F
  0
XRECORD
  5
7DE1B343D9DF950
102
{ACAD_REACTORS
330
7DE1B343D9DF949
102
}
330
7DE1B343D9DF949
100
AcDbXrecord
340
7DE1B343D9DF93C
  0
XRECORD
  5
7DE1B343D9DF956
102
{ACAD_REACTORS
330
7DE1B343D9DF949
102
}
330
7DE1B343D9DF949
100
AcDbXrecord
 40
0.0
  0
XRECORD
  5
7DE1B343D9DF959
102
{ACAD_REACTORS
330
7DE1B343D9DF949
102
}
330
7DE1B343D9DF949
100
AcDbXrecord
340
0
  0
XRECORD
  5
7DE1B343D9DF95F
102
{ACAD_REACTORS
330
7DE1B343D9DF949
102
}
330
7DE1B343D9DF949
100
AcDbXrecord
 10
0.0
 20
0.0
 30
0.0
  0
XRECORD
  5
7DE1B343D9DF95B
102
{ACAD_REACTORS
330
7DE1B343D9DF949
102
}
330
7DE1B343D9DF949
100
AcDbXrecord
 10
0.0
 20
0.0
 30
0.0
  0
XRECORD
  5
7DE1B343D9DF95E
102
{ACAD_REACTORS
330
7DE1B343D9DF949
102
}
330
7DE1B343D9DF949
100
AcDbXrecord
 10
0.0
 20
0.0
 30
0.0
  0
XRECORD
  5
7DE1B343D9DF95C
102
{ACAD_REACTORS
330
7DE1B343D9DF949
102
}
330
7DE1B343D9DF949
100
AcDbXrecord
 10
0.0
 20
0.0
 30
0.0
  0
XRECORD
  5
7DE1B343D9DF95D
102
{ACAD_REACTORS
330
7DE1B343D9DF949
102
}
330
7DE1B343D9DF949
100
AcDbXrecord
 10
0.0
 20
0.0
 30
0.0
  0
XRECORD
  5
7DE1B343D9DF95A
102
{ACAD_REACTORS
330
7DE1B343D9DF949
102
}
330
7DE1B343D9DF949
100
AcDbXrecord
 10
0.0
 20
0.0
 30
0.0
  0
XRECORD
  5
7DE1B343D9DF957
102
{ACAD_REACTORS
330
7DE1B343D9DF949
102
}
330
7DE1B343D9DF949
100
AcDbXrecord
340
0
  0
XRECORD
  5
7DE1B343D9DF958
102
{ACAD_REACTORS
330
7DE1B343D9DF949
102
}
330
7DE1B343D9DF949
100
AcDbXrecord
 70
     0
  0
XRECORD
  5
7DE1B343D9DF94D
102
{ACAD_REACTORS
330
7DE1B343D9DF949
102
}
330
7DE1B343D9DF949
100
AcDbXrecord
  1

  0
XRECORD
  5
7DE1B343D9DF94A
102
{ACAD_REACTORS
330
7DE1B343D9DF949
102
}
330
7DE1B343D9DF949
100
AcDbXrecord
 90
        1
  0
XRECORD
  5
7DE1B343D9DF94B
102
{ACAD_REACTORS
330
7DE1B343D9DF949
102
}
330
7DE1B343D9DF949
100
AcDbXrecord
 90
       70
  0
XRECORD
  5
7DE1B343D9DF962
102
{ACAD_REACTORS
330
7DE1B343D9DF949
102
}
330
7DE1B343D9DF949
100
AcDbXrecord
340
0
  0
XRECORD
  5
7DE1B343D9DF968
102
{ACAD_REACTORS
330
7DE1B343D9DF949
102
}
330
7DE1B343D9DF949
100
AcDbXrecord
 10
0.0
 20
0.0
 30
0.0
  0
XRECORD
  5
7DE1B343D9DF964
102
{ACAD_REACTORS
330
7DE1B343D9DF949
102
}
330
7DE1B343D9DF949
100
AcDbXrecord
 10
0.0
 20
0.0
 30
0.0
  0
XRECORD
  5
7DE1B343D9DF967
102
{ACAD_REACTORS
330
7DE1B343D9DF949
102
}
330
7DE1B343D9DF949
100
AcDbXrecord
 10
0.0
 20
0.0
 30
0.0
  0
XRECORD
  5
7DE1B343D9DF965
102
{ACAD_REACTORS
330
7DE1B343D9DF949
102
}
330
7DE1B343D9DF949
100
AcDbXrecord
 10
0.0
 20
0.0
 30
0.0
  0
XRECORD
  5
7DE1B343D9DF966
102
{ACAD_REACTORS
330
7DE1B343D9DF949
102
}
330
7DE1B343D9DF949
100
AcDbXrecord
 10
0.0
 20
0.0
 30
0.0
  0
XRECORD
  5
7DE1B343D9DF963
102
{ACAD_REACTORS
330
7DE1B343D9DF949
102
}
330
7DE1B343D9DF949
100
AcDbXrecord
 10
0.0
 20
0.0
 30
0.0
  0
XRECORD
  5
7DE1B343D9DF960
102
{ACAD_REACTORS
330
7DE1B343D9DF949
102
}
330
7DE1B343D9DF949
100
AcDbXrecord
340
0
  0
XRECORD
  5
7DE1B343D9DF961
102
{ACAD_REACTORS
330
7DE1B343D9DF949
102
}
330
7DE1B343D9DF949
100
AcDbXrecord
 70
     0
  0
XRECORD
  5
7DE1B343D9DF955
102
{ACAD_REACTORS
330
7DE1B343D9DF949
102
}
330
7DE1B343D9DF949
100
AcDbXrecord
  1
{E3EE8242-8DB6-11D6-88E6-0090279574E7}
  0
DICTIONARYVAR
  5
7DE1B343D9DF947
102
{ACAD_REACTORS
330
7DE1B343D9DF946
102
}
330
7DE1B343D9DF946
100
DictionaryVariables
280
     0
  1
1
  0
ENDSEC
  0
EOF
