  0
SECTION
  2
HEADER
  9
$ACADVER
  1
AC1014
  9
$ACADMAINTVER
 70
     9
  9
$DWGCODEPAGE
  3
ANSI_1252
  9
$INSBASE
 10
0.0
 20
0.0
 30
0.0
  9
$EXTMIN
 10
-0.0709808150237817
 20
0.5507484557443789
 30
0.0
  9
$EXTMAX
 10
3.414238506723346
 20
1.671874999999997
 30
0.0
  9
$LIMMIN
 10
0.0
 20
0.0
  9
$LIMMAX
 10
8.5
 20
11.0
  9
$ORTHOMODE
 70
     1
  9
$REGENMODE
 70
     1
  9
$FILLMODE
 70
     1
  9
$QTEXTMODE
 70
     0
  9
$MIRRTEXT
 70
     0
  9
$DRAGMODE
 70
     2
  9
$LTSCALE
 40
1.0
  9
$OSMODE
 70
    39
  9
$ATTMODE
 70
     1
  9
$TEXTSIZE
 40
0.125
  9
$TRACEWID
 40
0.05
  9
$TEXTSTYLE
  7
ROMANS
  9
$CLAYER
  8
TEXT
  9
$CELTYPE
  6
BYLAYER
  9
$CECOLOR
 62
   256
  9
$CELTSCALE
 40
1.0
  9
$DELOBJ
 70
     1
  9
$DISPSILH
 70
     1
  9
$DIMSCALE
 40
1.0
  9
$DIMASZ
 40
0.125
  9
$DIMEXO
 40
0.125
  9
$DIMDLI
 40
0.375
  9
$DIMRND
 40
0.0
  9
$DIMDLE
 40
0.0
  9
$DIMEXE
 40
0.125
  9
$DIMTP
 40
0.02
  9
$DIMTM
 40
0.0
  9
$DIMTXT
 40
0.125
  9
$DIMCEN
 40
-0.125
  9
$DIMTSZ
 40
0.0
  9
$DIMTOL
 70
     0
  9
$DIMLIM
 70
     0
  9
$DIMTIH
 70
     1
  9
$DIMTOH
 70
     1
  9
$DIMSE1
 70
     0
  9
$DIMSE2
 70
     0
  9
$DIMTAD
 70
     0
  9
$DIMZIN
 70
     4
  9
$DIMBLK
  1

  9
$DIMASO
 70
     1
  9
$DIMSHO
 70
     1
  9
$DIMPOST
  1

  9
$DIMAPOST
  1

  9
$DIMALT
 70
     0
  9
$DIMALTD
 70
     2
  9
$DIMALTF
 40
25.4
  9
$DIMLFAC
 40
0.5
  9
$DIMTOFL
 70
     0
  9
$DIMTVP
 40
0.0
  9
$DIMTIX
 70
     0
  9
$DIMSOXD
 70
     0
  9
$DIMSAH
 70
     0
  9
$DIMBLK1
  1

  9
$DIMBLK2
  1

  9
$DIMSTYLE
  2
STANDARD
  9
$DIMCLRD
 70
     0
  9
$DIMCLRE
 70
     0
  9
$DIMCLRT
 70
     0
  9
$DIMTFAC
 40
1.0
  9
$DIMGAP
 40
0.09
  9
$DIMJUST
 70
     0
  9
$DIMSD1
 70
     0
  9
$DIMSD2
 70
     0
  9
$DIMTOLJ
 70
     1
  9
$DIMTZIN
 70
     0
  9
$DIMALTZ
 70
     0
  9
$DIMALTTZ
 70
     0
  9
$DIMFIT
 70
     3
  9
$DIMUPT
 70
     0
  9
$DIMUNIT
 70
     2
  9
$DIMDEC
 70
     3
  9
$DIMTDEC
 70
     4
  9
$DIMALTU
 70
     2
  9
$DIMALTTD
 70
     2
  9
$DIMTXSTY
  7
ROMANS
  9
$DIMAUNIT
 70
     0
  9
$LUNITS
 70
     2
  9
$LUPREC
 70
     3
  9
$SKETCHINC
 40
0.1
  9
$FILLETRAD
 40
0.0
  9
$AUNITS
 70
     0
  9
$AUPREC
 70
     0
  9
$MENU
  1
AUTOMSTR
  9
$ELEVATION
 40
0.0
  9
$PELEVATION
 40
0.0
  9
$THICKNESS
 40
0.0
  9
$LIMCHECK
 70
     0
  9
$BLIPMODE
 70
     0
  9
$CHAMFERA
 40
0.0
  9
$CHAMFERB
 40
0.0
  9
$CHAMFERC
 40
0.0
  9
$CHAMFERD
 40
0.0
  9
$SKPOLY
 70
     0
  9
$TDCREATE
 40
2448152.658270486
  9
$TDUPDATE
 40
2452458.309697616
  9
$TDINDWG
 40
0.0361030208
  9
$TDUSRTIMER
 40
0.0361030208
  9
$USRTIMER
 70
     1
  9
$ANGBASE
 50
0.0
  9
$ANGDIR
 70
     0
  9
$PDMODE
 70
     0
  9
$PDSIZE
 40
0.0
  9
$PLINEWID
 40
0.0
  9
$COORDS
 70
     2
  9
$SPLFRAME
 70
     0
  9
$SPLINETYPE
 70
     6
  9
$SPLINESEGS
 70
     8
  9
$ATTDIA
 70
     0
  9
$ATTREQ
 70
     1
  9
$HANDLING
 70
 22529
  9
$HANDSEED
  5
393
  9
$SURFTAB1
 70
     6
  9
$SURFTAB2
 70
     6
  9
$SURFTYPE
 70
     6
  9
$SURFU
 70
     6
  9
$SURFV
 70
     6
  9
$UCSNAME
  2

  9
$UCSORG
 10
0.0
 20
0.0
 30
0.0
  9
$UCSXDIR
 10
1.0
 20
0.0
 30
0.0
  9
$UCSYDIR
 10
0.0
 20
1.0
 30
0.0
  9
$PUCSNAME
  2

  9
$PUCSORG
 10
0.0
 20
0.0
 30
0.0
  9
$PUCSXDIR
 10
1.0
 20
0.0
 30
0.0
  9
$PUCSYDIR
 10
0.0
 20
1.0
 30
0.0
  9
$USERI1
 70
     0
  9
$USERI2
 70
     0
  9
$USERI3
 70
     0
  9
$USERI4
 70
     0
  9
$USERI5
 70
     0
  9
$USERR1
 40
0.0
  9
$USERR2
 40
0.0
  9
$USERR3
 40
0.0
  9
$USERR4
 40
0.0
  9
$USERR5
 40
0.0
  9
$WORLDVIEW
 70
     1
  9
$SHADEDGE
 70
     3
  9
$SHADEDIF
 70
    70
  9
$TILEMODE
 70
     1
  9
$MAXACTVP
 70
    16
  9
$PINSBASE
 10
0.0
 20
0.0
 30
0.0
  9
$PLIMCHECK
 70
     0
  9
$PEXTMIN
 10
1.000000000000000E+20
 20
1.000000000000000E+20
 30
1.000000000000000E+20
  9
$PEXTMAX
 10
-1.000000000000000E+20
 20
-1.000000000000000E+20
 30
-1.000000000000000E+20
  9
$PLIMMIN
 10
0.0
 20
0.0
  9
$PLIMMAX
 10
12.0
 20
9.0
  9
$UNITMODE
 70
     0
  9
$VISRETAIN
 70
     0
  9
$PLINEGEN
 70
     1
  9
$PSLTSCALE
 70
     0
  9
$TREEDEPTH
 70
  3020
  9
$PICKSTYLE
 70
     1
  9
$CMLSTYLE
  2
STANDARD
  9
$CMLJUST
 70
     0
  9
$CMLSCALE
 40
1.0
  9
$PROXYGRAPHICS
 70
     1
  9
$MEASUREMENT
 70
     0
  0
ENDSEC
  0
SECTION
  2
CLASSES
  0
CLASS
  1
LWPOLYLINE
  2
AcDbPolyline
  3
AutoCAD 2000
 90
        0
280
     0
281
     1
  0
CLASS
  1
ACDBDICTIONARYWDFLT
  2
AcDbDictionaryWithDefault
  3
AutoCAD 2000
 90
        0
280
     0
281
     0
  0
CLASS
  1
ACDBPLACEHOLDER
  2
AcDbPlaceHolder
  3
AutoCAD 2000
 90
        0
280
     0
281
     0
  0
CLASS
  1
LAYOUT
  2
AcDbLayout
  3
AutoCAD 2000
 90
        0
280
     0
281
     0
  0
CLASS
  1
DICTIONARYVAR
  2
AcDbDictionaryVar
  3
AutoCAD 2000
 90
        0
280
     0
281
     0
  0
CLASS
  1
LONG_TRANSACTION
  2
AcDbLongTransaction
  3
AutoCAD 2000
 90
        0
280
     0
281
     0
  0
CLASS
  1
LWPOLYLINE
  2
AcDbPolyline
  3
AutoCAD 2000
 90
        0
280
     0
281
     1
  0
CLASS
  1
HATCH
  2
AcDbHatch
  3
AutoCAD 2000
 90
        0
280
     0
281
     1
  0
CLASS
  1
XRECORD
  2
AcDbXrecord
  3
AutoCAD 2000
 90
        0
280
     0
281
     0
  0
ENDSEC
  0
SECTION
  2
TABLES
  0
TABLE
  2
VPORT
  5
8
330
0
100
AcDbSymbolTable
 70
     2
  0
VPORT
  5
36E
330
8
100
AcDbSymbolTableRecord
100
AcDbViewportTableRecord
  2
*ACTIVE
 70
     0
 10
0.0
 20
0.0
 11
1.0
 21
1.0
 12
4.593630645143214
 22
1.111467629958893
 13
0.0
 23
0.0
 14
0.015625
 24
0.015625
 15
0.0
 25
0.0
 16
0.0
 26
0.0
 36
1.0
 17
0.0
 27
0.0
 37
0.0
 40
2.163783105556754
 41
4.320930232558139
 42
50.0
 43
0.0
 44
0.0
 50
0.0
 51
0.0
 71
     0
 72
  2000
 73
     1
 74
     1
 75
     0
 76
     0
 77
     0
 78
     0
  0
ENDTAB
  0
TABLE
  2
LTYPE
  5
5
330
0
100
AcDbSymbolTable
 70
     1
  0
LTYPE
  5
12
330
5
100
AcDbSymbolTableRecord
100
AcDbLinetypeTableRecord
  2
BYBLOCK
 70
     0
  3

 72
    65
 73
     0
 40
0.0
  0
LTYPE
  5
13
330
5
100
AcDbSymbolTableRecord
100
AcDbLinetypeTableRecord
  2
BYLAYER
 70
     0
  3

 72
    65
 73
     0
 40
0.0
  0
LTYPE
  5
14
330
5
100
AcDbSymbolTableRecord
100
AcDbLinetypeTableRecord
  2
CONTINUOUS
 70
     0
  3
Solid line
 72
    65
 73
     0
 40
0.0
  0
ENDTAB
  0
TABLE
  2
LAYER
  5
2
330
0
100
AcDbSymbolTable
 70
     2
  0
LAYER
  5
F
330
2
100
AcDbSymbolTableRecord
100
AcDbLayerTableRecord
  2
0
 70
     0
 62
     7
  6
CONTINUOUS
  0
LAYER
  5
2F
330
2
100
AcDbSymbolTableRecord
100
AcDbLayerTableRecord
  2
TEXT
 70
     0
 62
     3
  6
CONTINUOUS
  0
ENDTAB
  0
TABLE
  2
STYLE
  5
3
330
0
100
AcDbSymbolTable
 70
     3
  0
STYLE
  5
10
330
3
100
AcDbSymbolTableRecord
100
AcDbTextStyleTableRecord
  2
STANDARD
 70
     0
 40
0.0
 41
1.0
 50
0.0
 71
     0
 42
0.25
  3
txt
  4

  0
STYLE
  5
25A
330
3
100
AcDbSymbolTableRecord
100
AcDbTextStyleTableRecord
  2
ITALICC
 70
     0
 40
0.0
 41
1.0
 50
0.0
 71
     0
 42
0.125
  3
italicc
  4

  0
STYLE
  5
36A
330
3
100
AcDbSymbolTableRecord
100
AcDbTextStyleTableRecord
  2
ROMANS
 70
     0
 40
0.0
 41
1.0
 50
0.0
 71
     0
 42
0.125
  3
romans.shx
  4

  0
ENDTAB
  0
TABLE
  2
VIEW
  5
6
330
0
100
AcDbSymbolTable
 70
     0
  0
ENDTAB
  0
TABLE
  2
UCS
  5
7
330
0
100
AcDbSymbolTable
 70
     0
  0
ENDTAB
  0
TABLE
  2
APPID
  5
9
330
0
100
AcDbSymbolTable
 70
     1
  0
APPID
  5
11
330
9
100
AcDbSymbolTableRecord
100
AcDbRegAppTableRecord
  2
ACAD
 70
     0
  0
ENDTAB
  0
TABLE
  2
DIMSTYLE
  5
A
330
0
100
AcDbSymbolTable
 70
     1
  0
DIMSTYLE
105
24D
330
A
100
AcDbSymbolTableRecord
100
AcDbDimStyleTableRecord
  2
STANDARD
 70
     0
  3

  4

  5

  6

  7

 40
1.0
 41
0.18
 42
0.0625
 43
0.38
 44
0.18
 45
0.0
 46
0.0
 47
0.0
 48
0.0
140
0.18
141
0.09
142
0.0
143
25.4
144
1.0
145
0.0
146
1.0
147
0.09
 71
     0
 72
     0
 73
     1
 74
     1
 75
     0
 76
     0
 77
     0
 78
     0
170
     0
171
     2
172
     0
173
     0
174
     0
175
     0
176
     0
177
     0
178
     0
270
     2
271
     4
272
     4
273
     2
274
     2
340
10
275
     0
280
     0
281
     0
282
     0
283
     1
284
     0
285
     0
286
     0
287
     3
288
     0
  0
ENDTAB
  0
TABLE
  2
BLOCK_RECORD
  5
1
330
0
100
AcDbSymbolTable
 70
     0
  0
BLOCK_RECORD
  5
18
102
{ACAD_XDICTIONARY
360
391
102
}
330
1
100
AcDbSymbolTableRecord
100
AcDbBlockTableRecord
  2
*MODEL_SPACE
  0
BLOCK_RECORD
  5
15
102
{ACAD_XDICTIONARY
360
38F
102
}
330
1
100
AcDbSymbolTableRecord
100
AcDbBlockTableRecord
  2
*PAPER_SPACE
  0
ENDTAB
  0
ENDSEC
  0
SECTION
  2
BLOCKS
  0
BLOCK
  5
38
330
18
100
AcDbEntity
  8
0
100
AcDbBlockBegin
  2
*MODEL_SPACE
 70
     0
 10
0.0
 20
0.0
 30
0.0
  3
*MODEL_SPACE
  1

  0
ENDBLK
  5
39
330
18
100
AcDbEntity
  8
0
100
AcDbBlockEnd
  0
BLOCK
  5
36
330
15
100
AcDbEntity
 67
     1
  8
0
100
AcDbBlockBegin
  2
*PAPER_SPACE
 70
     0
 10
0.0
 20
0.0
 30
0.0
  3
*PAPER_SPACE
  1

  0
ENDBLK
  5
37
330
15
100
AcDbEntity
 67
     1
  8
0
100
AcDbBlockEnd
  0
ENDSEC
  0
SECTION
  2
ENTITIES
  0
LWPOLYLINE
  5
218
330
18
100
AcDbEntity
  8
0
100
AcDbPolyline
 90
       20
 70
     1
 43
0.0
 10
2.249999999999999
 20
1.484374999999997
 10
2.25
 20
1.609374999999997
 10
1.697499999999999
 20
1.609374999999997
 10
1.6875
 20
1.619374999999996
 10
1.6775
 20
1.609374999999997
 10
1.125
 20
1.609374999999997
 10
1.125
 20
1.484374999999997
 10
1.265
 20
1.484374999999997
 10
1.265
 20
1.359374999999997
 10
1.2025
 20
1.359374999999997
 10
1.2025
 20
1.421874999999997
 10
1.0625
 20
1.421874999999997
 10
1.0625
 20
1.671874999999997
 10
2.3125
 20
1.671874999999997
 10
2.3125
 20
1.421874999999997
 10
2.172499999999999
 20
1.421874999999997
 10
2.172499999999999
 20
1.359374999999997
 10
2.109999999999999
 20
1.359374999999997
 10
2.109999999999999
 20
1.484374999999997
 10
2.172499999999999
 20
1.484374999999997
  0
LINE
  5
2E0
330
18
100
AcDbEntity
  8
TEXT
100
AcDbLine
 10
1.780217235670761
 20
0.7528247420523542
 30
0.0
 11
1.780217235670761
 21
0.8941542742314929
 31
0.0
  0
LINE
  5
2E1
330
18
100
AcDbEntity
  8
TEXT
100
AcDbLine
 10
1.827315394226744
 20
0.8286900684638922
 30
0.0
 11
1.780217235670761
 21
0.7528247420523542
 31
0.0
  0
LINE
  5
2E2
330
18
100
AcDbEntity
  8
TEXT
100
AcDbLine
 10
1.837750110990668
 20
0.7187968255229187
 30
0.0
 11
1.902307226956374
 21
0.8286900684638922
 31
0.0
  0
TEXT
  5
2E3
330
18
100
AcDbEntity
  8
TEXT
100
AcDbText
 10
2.085305922453683
 20
0.7483612710871697
 30
0.0
 40
0.0522247191011236
  1
6536 Main St. N.E. * P.O. Box 32008
 41
0.8388932496075355
 72
     5
 11
3.414238506723346
 21
0.7483612710871697
 31
0.0
100
AcDbText
  0
ARC
  5
2E4
330
18
100
AcDbEntity
  8
TEXT
100
AcDbCircle
 10
1.639734263155423
 20
0.7395074985244641
 30
0.0
 40
0.0249058752826653
100
AcDbArc
 50
89.99971217465335
 51
179.9999999999985
  0
LINE
  5
2E5
330
18
100
AcDbEntity
  8
TEXT
100
AcDbLine
 10
1.55253349673239
 20
0.723478089910465
 30
0.0
 11
1.508782725550489
 21
0.8057283659066101
 31
0.0
  0
LINE
  5
2E6
330
18
100
AcDbEntity
  8
TEXT
100
AcDbLine
 10
1.55253349673239
 20
0.8286900684638922
 30
0.0
 11
1.55253349673239
 21
0.723478089910465
 31
0.0
  0
ARC
  5
2E7
330
18
100
AcDbEntity
  8
TEXT
100
AcDbCircle
 10
1.444542659512871
 20
0.7360539988071296
 30
0.0
 40
0.028359375
100
AcDbArc
 50
25.78218179591245
 51
90.0
  0
LINE
  5
2E8
330
18
100
AcDbEntity
  8
TEXT
100
AcDbLine
 10
0.9825481983291233
 20
0.6446048735783805
 30
0.0
 11
0.9825481983291233
 21
0.8967015462027028
 31
0.0
  0
LINE
  5
2E9
330
18
100
AcDbEntity
  8
TEXT
100
AcDbLine
 10
1.014860052466783
 20
0.8286900684638922
 30
0.0
 11
1.014860052466783
 21
0.6278258617314841
 31
0.0
  0
LINE
  5
2EA
330
18
100
AcDbEntity
  8
TEXT
100
AcDbLine
 10
0.8856175729693802
 20
0.8286900684638922
 30
0.0
 11
0.8268690101635165
 21
0.7278180723507717
 31
0.0
  0
LINE
  5
2EB
330
18
100
AcDbEntity
  8
TEXT
100
AcDbLine
 10
0.8268690101635165
 20
0.7278180723507717
 30
0.0
 11
0.7682386891315787
 21
0.8286900684638922
 31
0.0
  0
ARC
  5
2EC
330
18
100
AcDbEntity
  8
TEXT
100
AcDbCircle
 10
0.460665365245152
 20
0.7466026090173905
 30
0.0
 40
0.0820874594465043
100
AcDbArc
 50
90.0
 51
270.0
  0
LWPOLYLINE
  5
2ED
330
18
100
AcDbEntity
  8
TEXT
100
AcDbPolyline
 90
        2
 70
     0
 43
0.0001332181640625
 10
0.0525790321441875
 20
0.7554200782295162
 10
0.0425876698394969
 20
0.8286900684638958
  0
LWPOLYLINE
  5
2EE
330
18
100
AcDbEntity
  8
TEXT
100
AcDbPolyline
 90
        2
 70
     0
 43
0.0001332181640625
 10
0.0425876698394969
 20
0.8020464356513947
 10
0.0525790321441875
 20
0.7420982618232693
  0
LWPOLYLINE
  5
2EF
330
18
100
AcDbEntity
  8
TEXT
100
AcDbPolyline
 90
        2
 70
     0
 43
0.0001332181640625
 10
0.0825531190582485
 20
0.8020464356513947
 10
0.0725617567535597
 20
0.7420982618232693
  0
LWPOLYLINE
  5
2F0
330
18
100
AcDbEntity
  8
TEXT
100
AcDbPolyline
 90
        2
 70
     0
 43
0.0001332181640625
 10
0.0825531190582485
 20
0.8286900684638958
 10
0.0725617567535597
 20
0.7554200782295162
  0
LWPOLYLINE
  5
2F1
330
18
100
AcDbEntity
  8
TEXT
100
AcDbPolyline
 90
        3
 70
     0
 43
0.0006660908203125
 10
0.1957885585113743
 20
0.7154546290107682
 10
0.1957885585113743
 20
0.8286900684638958
 10
0.0825531190582485
 20
0.8286900684638958
  0
LWPOLYLINE
  5
2F2
330
18
100
AcDbEntity
  8
TEXT
100
AcDbPolyline
 90
        3
 70
     0
 43
0.0006660908203125
 10
0.1691449256988733
 20
0.7154546290107682
 10
0.1691449256988733
 20
0.8020464356513947
 10
0.0825531190582485
 20
0.8020464356513947
  0
LWPOLYLINE
  5
2F3
330
18
100
AcDbEntity
  8
TEXT
100
AcDbPolyline
 90
        2
 70
     0
 43
0.0001332181640625
 10
0.1691449256988733
 20
0.8020464356513947
 10
0.1091967518707495
 20
0.7420982618232693
  0
LWPOLYLINE
  5
2F4
330
18
100
AcDbEntity
  8
TEXT
100
AcDbPolyline
 90
        2
 70
     0
 43
0.0001332181640625
 10
-0.0440041368011279
 20
0.8020464356513947
 10
0.0159440370269977
 20
0.7420982618232693
  0
LWPOLYLINE
  5
2F5
330
18
100
AcDbEntity
  8
TEXT
100
AcDbPolyline
 90
        3
 70
     0
 43
0.0006660908203125
 10
0.0425876698394969
 20
0.8286900684638958
 10
-0.0706477696136254
 20
0.8286900684638958
 10
-0.0706477696136254
 20
0.7154546290107682
  0
LWPOLYLINE
  5
2F6
330
18
100
AcDbEntity
  8
TEXT
100
AcDbPolyline
 90
        3
 70
     0
 43
0.0006660908203125
 10
0.0425876698394969
 20
0.8020464356513947
 10
-0.0440041368011279
 20
0.8020464356513947
 10
-0.0440041368011279
 20
0.7154546290107682
  0
LINE
  5
2F7
330
18
100
AcDbEntity
  8
TEXT
100
AcDbLine
 10
0.5315028316037012
 20
0.728608652196499
 30
0.0
 11
0.4659026953594001
 21
0.728608652196499
 31
0.0
  0
LINE
  5
2F8
330
18
100
AcDbEntity
  8
TEXT
100
AcDbLine
 10
0.460665365245152
 20
0.6645151495708852
 30
0.0
 11
0.5364432055099809
 21
0.6645151495708852
 31
0.0
  0
LINE
  5
2F9
330
18
100
AcDbEntity
  8
TEXT
100
AcDbLine
 10
0.3785779057986485
 20
0.5622170354753813
 30
0.0
 11
0.5315028316037012
 21
0.5622170354753813
 31
0.0
  0
LINE
  5
2FA
330
18
100
AcDbEntity
  8
TEXT
100
AcDbLine
 10
0.5364432055099809
 20
0.6305740418088206
 30
0.0
 11
0.3785779057986467
 21
0.6305740418088206
 31
0.0
  0
LINE
  5
2FB
330
18
100
AcDbEntity
  8
TEXT
100
AcDbLine
 10
0.4659026953594001
 20
0.7644133738071269
 30
0.0
 11
0.6328083493883696
 21
0.7644133738071269
 31
0.0
  0
LWPOLYLINE
  5
2FC
330
18
100
AcDbEntity
  8
TEXT
100
AcDbPolyline
 90
        2
 70
     0
 43
0.0006660908203125
 10
0.1691449256988733
 20
0.7154546290107682
 10
0.1957885585113743
 20
0.7154546290107682
  0
LWPOLYLINE
  5
2FD
330
18
100
AcDbEntity
  8
TEXT
100
AcDbPolyline
 90
        2
 70
     0
 43
0.0001332181640625
 10
0.1225185682769982
 20
0.7054632667060794
 10
0.1957885585113743
 20
0.7154546290107682
  0
LWPOLYLINE
  5
2FE
330
18
100
AcDbEntity
  8
TEXT
100
AcDbPolyline
 90
        2
 70
     0
 43
0.0006660908203125
 10
0.1691449256988733
 20
0.6754891797920202
 10
0.1957885585113743
 20
0.6754891797920202
  0
LWPOLYLINE
  5
2FF
330
18
100
AcDbEntity
  8
TEXT
100
AcDbPolyline
 90
        3
 70
     0
 43
0.0006660908203125
 10
0.0825531190582485
 20
0.5622537403388926
 10
0.1957885585113743
 20
0.5622537403388926
 10
0.1957885585113743
 20
0.6754891797920202
  0
LWPOLYLINE
  5
300
330
18
100
AcDbEntity
  8
TEXT
100
AcDbPolyline
 90
        2
 70
     0
 43
0.0001332181640625
 10
0.1957885585113743
 20
0.6754891797920202
 10
0.1225185682769982
 20
0.6854805420967054
  0
LWPOLYLINE
  5
301
330
18
100
AcDbEntity
  8
TEXT
100
AcDbPolyline
 90
        3
 70
     0
 43
0.0006660908203125
 10
-0.0706477696136254
 20
0.6754891797920202
 10
-0.0706477696136254
 20
0.5622537403388926
 10
0.0425876698394969
 20
0.5622537403388926
  0
LWPOLYLINE
  5
302
330
18
100
AcDbEntity
  8
TEXT
100
AcDbPolyline
 90
        3
 70
     0
 43
0.0006660908203125
 10
-0.0440041368011279
 20
0.6754891797920202
 10
-0.0440041368011279
 20
0.5888973731513936
 10
0.0425876698394969
 20
0.5888973731513936
  0
LWPOLYLINE
  5
303
330
18
100
AcDbEntity
  8
TEXT
100
AcDbPolyline
 90
        5
 70
     0
 43
0.0001332181640625
 10
0.0525790321441875
 20
0.6355237305732686
 10
0.0525790321441875
 20
0.6488455469795192
 10
0.0159440370269994
 20
0.6488455469795192
 10
0.0159440370269994
 20
0.6854805420967054
 10
0.0026222206207489
 20
0.6854805420967054
  0
LWPOLYLINE
  5
304
330
18
100
AcDbEntity
  8
TEXT
100
AcDbPolyline
 90
        5
 70
     0
 43
0.0001332181640625
 10
0.0026222206207489
 20
0.7054632667060794
 10
0.0159440370269977
 20
0.7054632667060794
 10
0.0159440370269977
 20
0.7420982618232693
 10
0.0525790321441875
 20
0.7420982618232693
 10
0.0525790321441875
 20
0.7554200782295162
  0
LWPOLYLINE
  5
305
330
18
100
AcDbEntity
  8
TEXT
100
AcDbPolyline
 90
        2
 70
     0
 43
0.0001332181640625
 10
-0.0440041368011279
 20
0.7154546290107682
 10
0.0159440370269977
 20
0.7054632667060794
  0
LWPOLYLINE
  5
306
330
18
100
AcDbEntity
  8
TEXT
100
AcDbPolyline
 90
        2
 70
     0
 43
0.0001332181640625
 10
-0.0706477696136254
 20
0.7154546290107682
 10
0.0026222206207489
 20
0.7054632667060794
  0
LWPOLYLINE
  5
307
330
18
100
AcDbEntity
  8
TEXT
100
AcDbPolyline
 90
        2
 70
     0
 43
0.0006660908203125
 10
-0.0440041368011279
 20
0.7154546290107682
 10
-0.0706477696136254
 20
0.7154546290107682
  0
LWPOLYLINE
  5
308
330
18
100
AcDbEntity
  8
TEXT
100
AcDbPolyline
 90
        2
 70
     0
 43
0.0001332181640625
 10
-0.0440041368011279
 20
0.5888973731513936
 10
0.0159440370269994
 20
0.6488455469795192
  0
LWPOLYLINE
  5
309
330
18
100
AcDbEntity
  8
TEXT
100
AcDbPolyline
 90
        2
 70
     0
 43
0.0006660908203125
 10
-0.0440041368011279
 20
0.6754891797920202
 10
-0.0706477696136254
 20
0.6754891797920202
  0
LWPOLYLINE
  5
30A
330
18
100
AcDbEntity
  8
TEXT
100
AcDbPolyline
 90
        2
 70
     0
 43
0.0001332181640625
 10
0.0026222206207489
 20
0.6854805420967054
 10
-0.0706477696136254
 20
0.6754891797920202
  0
LWPOLYLINE
  5
30B
330
18
100
AcDbEntity
  8
TEXT
100
AcDbPolyline
 90
        2
 70
     0
 43
0.0001332181640625
 10
-0.0440041368011279
 20
0.6754891797920202
 10
0.0159440370269994
 20
0.6854805420967054
  0
LWPOLYLINE
  5
30C
330
18
100
AcDbEntity
  8
TEXT
100
AcDbPolyline
 90
        5
 70
     0
 43
0.0001332181640625
 10
0.0725617567535597
 20
0.7554200782295162
 10
0.0725617567535597
 20
0.7420982618232693
 10
0.1091967518707495
 20
0.7420982618232693
 10
0.1091967518707495
 20
0.7054632667060794
 10
0.1225185682769982
 20
0.7054632667060794
  0
LWPOLYLINE
  5
30D
330
18
100
AcDbEntity
  8
TEXT
100
AcDbPolyline
 90
        2
 70
     0
 43
0.0001332181640625
 10
0.1691449256988733
 20
0.7154546290107682
 10
0.1091967518707495
 20
0.7054632667060794
  0
LWPOLYLINE
  5
30E
330
18
100
AcDbEntity
  8
TEXT
100
AcDbPolyline
 90
        2
 70
     0
 43
0.0006660908203125
 10
0.0425876698394969
 20
0.5888973731513936
 10
0.0425876698394969
 20
0.5622537403388926
  0
LWPOLYLINE
  5
30F
330
18
100
AcDbEntity
  8
TEXT
100
AcDbPolyline
 90
        2
 70
     0
 43
0.0001332181640625
 10
0.0425876698394969
 20
0.5888973731513936
 10
0.0525790321441875
 20
0.6488455469795192
  0
LWPOLYLINE
  5
310
330
18
100
AcDbEntity
  8
TEXT
100
AcDbPolyline
 90
        2
 70
     0
 43
0.0001332181640625
 10
0.0425876698394969
 20
0.5622537403388926
 10
0.0525790321441875
 20
0.6355237305732686
  0
LWPOLYLINE
  5
311
330
18
100
AcDbEntity
  8
TEXT
100
AcDbPolyline
 90
        2
 70
     0
 43
0.0001332181640625
 10
0.0825531190582485
 20
0.5888973731513936
 10
0.0725617567535597
 20
0.6488455469795192
  0
LWPOLYLINE
  5
312
330
18
100
AcDbEntity
  8
TEXT
100
AcDbPolyline
 90
        2
 70
     0
 43
0.0001332181640625
 10
0.0725617567535597
 20
0.6355237305732686
 10
0.0825531190582485
 20
0.5622537403388926
  0
LWPOLYLINE
  5
313
330
18
100
AcDbEntity
  8
TEXT
100
AcDbPolyline
 90
        2
 70
     0
 43
0.0006660908203125
 10
0.0825531190582485
 20
0.5888973731513936
 10
0.0825531190582485
 20
0.5622537403388926
  0
LWPOLYLINE
  5
314
330
18
100
AcDbEntity
  8
TEXT
100
AcDbPolyline
 90
        2
 70
     0
 43
0.0001332181640625
 10
0.1691449256988733
 20
0.5888973731513936
 10
0.1091967518707495
 20
0.6488455469795192
  0
LWPOLYLINE
  5
315
330
18
100
AcDbEntity
  8
TEXT
100
AcDbPolyline
 90
        3
 70
     0
 43
0.0006660908203125
 10
0.0825531190582485
 20
0.5888973731513936
 10
0.1691449256988733
 20
0.5888973731513936
 10
0.1691449256988733
 20
0.6754891797920202
  0
LWPOLYLINE
  5
316
330
18
100
AcDbEntity
  8
TEXT
100
AcDbPolyline
 90
        2
 70
     0
 43
0.0001332181640625
 10
0.1691449256988733
 20
0.6754891797920202
 10
0.1091967518707495
 20
0.6854805420967054
  0
LWPOLYLINE
  5
317
330
18
100
AcDbEntity
  8
TEXT
100
AcDbPolyline
 90
        5
 70
     0
 43
0.0001332181640625
 10
0.1225185682769982
 20
0.6854805420967054
 10
0.1091967518707495
 20
0.6854805420967054
 10
0.1091967518707495
 20
0.6488455469795192
 10
0.0725617567535597
 20
0.6488455469795192
 10
0.0725617567535597
 20
0.6355237305732686
  0
ARC
  5
318
330
18
100
AcDbEntity
  8
TEXT
100
AcDbCircle
 10
0.4659026953594001
 20
0.7465110130018147
 30
0.0
 40
0.017902360805315
100
AcDbArc
 50
90.0
 51
270.0
  0
LINE
  5
319
330
18
100
AcDbEntity
  8
TEXT
100
AcDbLine
 10
0.3785779057986467
 20
0.6305740418088206
 30
0.0
 11
0.3785779057986485
 21
0.5622170354753813
 31
0.0
  0
TEXT
  5
31A
330
18
100
AcDbEntity
  8
TEXT
100
AcDbText
 10
2.085305922453683
 20
0.5618444171545854
 30
0.0
 40
0.0522247191011236
  1
Phone  1-800-328-2495
 41
1.272321428571429
 72
     5
 11
3.414238506723346
 21
0.5618444171545854
 31
0.0
100
AcDbText
  0
TEXT
  5
31B
330
18
100
AcDbEntity
  8
TEXT
100
AcDbText
 10
2.085305922453683
 20
0.6551028441208775
 30
0.0
 40
0.0522247191011236
  1
Minneapolis, MN 55432-0008
 41
1.11444212721585
 72
     5
 11
3.414238506723346
 21
0.6551028441208775
 31
0.0
100
AcDbText
  0
LINE
  5
31C
330
18
100
AcDbEntity
  8
TEXT
100
AcDbLine
 10
1.639734263155425
 20
0.7644133738071269
 30
0.0
 11
1.716382244447981
 21
0.7644133738071269
 31
0.0
  0
LINE
  5
31D
330
18
100
AcDbEntity
  8
TEXT
100
AcDbLine
 10
1.08169110552475
 20
0.7644133738071269
 30
0.0
 11
1.1315263853479
 21
0.7644133738071269
 31
0.0
  0
ARC
  5
31E
330
18
100
AcDbEntity
  8
TEXT
100
AcDbCircle
 10
0.7832252132543474
 20
0.601764757749077
 30
0.0
 40
0.0392772371940762
100
AcDbArc
 50
270.1604552698595
 51
330.0831797321295
  0
ARC
  5
31F
330
18
100
AcDbEntity
  8
TEXT
100
AcDbCircle
 10
0.6929243673621226
 20
0.6220094268134311
 30
0.0
 40
0.0601160179737537
100
AcDbArc
 50
180.0000000000003
 51
264.0521544866073
  0
LINE
  5
320
330
18
100
AcDbEntity
  8
TEXT
100
AcDbLine
 10
0.6328083493883696
 20
0.7644133738071269
 30
0.0
 11
0.6328083493883696
 21
0.6220094268134311
 31
0.0
  0
ARC
  5
321
330
18
100
AcDbEntity
  8
TEXT
100
AcDbCircle
 10
0.5364432055099809
 20
0.6475445956898547
 30
0.0
 40
0.0169705538810321
100
AcDbArc
 50
270.0
 51
90.0
  0
ARC
  5
322
330
18
100
AcDbEntity
  8
TEXT
100
AcDbCircle
 10
0.5315028316037012
 20
0.6454128438359384
 30
0.0
 40
0.0831958083605586
100
AcDbArc
 50
270.0
 51
90.0
  0
LWPOLYLINE
  5
323
330
18
100
AcDbEntity
  8
TEXT
100
AcDbPolyline
 90
        6
 70
     1
 43
0.0
 10
0.7292187604436258
 20
0.7644133738071269
 10
0.6989021662234176
 20
0.7644133738071269
 10
0.6989021662234176
 20
0.6413023757522325
 42
0.407328721240804
 10
0.710445817384894
 20
0.6294834610758464
 10
0.7710675164296248
 20
0.6294834610758464
 10
0.7885328568369428
 20
0.6622956901193256
  0
LINE
  5
324
330
18
100
AcDbEntity
  8
TEXT
100
AcDbLine
 10
0.6866949568684753
 20
0.5622170354753813
 30
0.0
 11
0.7833352079434697
 21
0.5624876745736636
 31
0.0
  0
LWPOLYLINE
  5
325
330
18
100
AcDbEntity
  8
TEXT
100
AcDbPolyline
 90
        2
 70
     0
 43
0.0
 10
0.914568479260005
 20
0.6137683776903096
 42
0.3318488747599744
 10
0.983687771825318
 20
0.5622170354753813
 42
-6.868794160588311
  0
LINE
  5
326
330
18
100
AcDbEntity
  8
TEXT
100
AcDbLine
 10
0.914568479260005
 20
0.7465257525156624
 30
0.0
 11
0.914568479260005
 21
0.613768377690306
 31
0.0
  0
LINE
  5
327
330
18
100
AcDbEntity
  8
TEXT
100
AcDbLine
 10
0.8172687731665604
 20
0.5821755415803942
 30
0.0
 11
0.914568479260005
 21
0.7465257525156624
 31
0.0
  0
ARC
  5
328
330
18
100
AcDbEntity
  8
TEXT
100
AcDbCircle
 10
0.9978664155821803
 20
0.6432076679749095
 30
0.0
 40
0.0153818062434269
100
AcDbArc
 50
174.7883570302258
 51
270.0
  0
LINE
  5
329
330
18
100
AcDbEntity
  8
TEXT
100
AcDbLine
 10
1.014860052466783
 20
0.6278258617314841
 30
0.0
 11
0.9978664155821803
 21
0.6278258617314841
 31
0.0
  0
LINE
  5
32A
330
18
100
AcDbEntity
  8
TEXT
100
AcDbLine
 10
0.9836877718253163
 20
0.5622170354753813
 30
0.0
 11
1.08169110552475
 21
0.5622170354753813
 31
0.0
  0
LINE
  5
32B
330
18
100
AcDbEntity
  8
TEXT
100
AcDbLine
 10
1.08169110552475
 20
0.5622170354753813
 30
0.0
 11
1.08169110552475
 21
0.7644133738071269
 31
0.0
  0
LINE
  5
32C
330
18
100
AcDbEntity
  8
TEXT
100
AcDbLine
 10
1.444542659512872
 20
0.7644133738071269
 30
0.0
 11
1.337336386125581
 21
0.7644133738071269
 31
0.0
  0
LINE
  5
32D
330
18
100
AcDbEntity
  8
TEXT
100
AcDbLine
 10
1.398055745033609
 20
0.7271384003449946
 30
0.0
 11
1.480343734816994
 21
0.7271384003449946
 31
0.0
  0
LWPOLYLINE
  5
32E
330
18
100
AcDbEntity
  8
TEXT
100
AcDbPolyline
 90
        4
 70
     1
 43
0.0
 10
1.493274776099893
 20
0.6651810134594065
 10
1.404614457440034
 20
0.6651810134594065
 42
0.9999999999999998
 10
1.404614457440034
 20
0.6227824729555458
 10
1.493274776099893
 20
0.6227824729555458
 42
1.0
  0
LWPOLYLINE
  5
32F
330
18
100
AcDbEntity
  8
TEXT
100
AcDbPolyline
 90
        2
 70
     0
 43
0.0
 10
1.379379823538409
 20
0.5622170354753813
 10
1.513397241169785
 20
0.5622170354753813
 42
0.9999999999999998
  0
LINE
  5
330
330
18
100
AcDbEntity
  8
TEXT
100
AcDbLine
 10
1.206138221295852
 20
0.7644133738071269
 30
0.0
 11
1.260271818216804
 21
0.7644133738071269
 31
0.0
  0
LINE
  5
331
330
18
100
AcDbEntity
  8
TEXT
100
AcDbLine
 10
1.139080174514013
 20
0.5622170354753813
 30
0.0
 11
1.206138221295852
 21
0.5622170354753813
 31
0.0
  0
LINE
  5
332
330
18
100
AcDbEntity
  8
TEXT
100
AcDbLine
 10
1.206138221295852
 20
0.5622170354753813
 30
0.0
 11
1.206138221295852
 21
0.7644133738071269
 31
0.0
  0
LINE
  5
333
330
18
100
AcDbEntity
  8
TEXT
100
AcDbLine
 10
1.139080174514013
 20
0.7568595846410169
 30
0.0
 11
1.139080174514013
 21
0.5622170354753813
 31
0.0
  0
LWPOLYLINE
  5
334
330
18
100
AcDbEntity
  8
TEXT
100
AcDbPolyline
 90
        2
 70
     0
 43
0.0
 10
1.131526385347898
 20
0.7644133738071269
 42
-0.4142135623731017
 10
1.139080174514012
 20
0.7568595846410169
 42
-0.9999999999999998
  0
LINE
  5
335
330
18
100
AcDbEntity
  8
TEXT
100
AcDbLine
 10
1.337336386125581
 20
0.7644133738071269
 30
0.0
 11
1.337336386125581
 21
0.6893609677329203
 31
0.0
  0
ARC
  5
336
330
18
100
AcDbEntity
  8
TEXT
100
AcDbCircle
 10
1.398055745033609
 20
0.659452819200876
 30
0.0
 40
0.0676855811441166
100
AcDbArc
 50
90.0
 51
153.7768192527749
  0
LWPOLYLINE
  5
337
330
18
100
AcDbEntity
  8
TEXT
100
AcDbPolyline
 90
        2
 70
     0
 43
0.0
 10
1.336303890670773
 20
0.6057079804258195
 42
0.2901071551932823
 10
1.379379823538409
 20
0.5622170354753813
 42
5.328517124445801
  0
LWPOLYLINE
  5
338
330
18
100
AcDbEntity
  8
TEXT
100
AcDbPolyline
 90
        2
 70
     0
 43
0.0
 10
1.260271818216802
 20
0.7644133738071269
 42
-0.4142135623731017
 10
1.267825607382915
 20
0.7568595846410169
 42
-0.9999999999999998
  0
LWPOLYLINE
  5
339
330
18
100
AcDbEntity
  8
TEXT
100
AcDbPolyline
 90
        4
 70
     0
 43
0.0
 10
1.267825607382915
 20
0.7568595846410169
 10
1.267825607382915
 20
0.5622170354753813
 10
1.336303890670773
 20
0.5622170354753813
 10
1.336303890670773
 20
0.6057079804258195
 42
-1.714843617202739
  0
LWPOLYLINE
  5
33A
330
18
100
AcDbEntity
  8
TEXT
100
AcDbPolyline
 90
        2
 70
     0
 43
0.0
 10
1.55647317403743
 20
0.6057079804258195
 42
-0.2901071551932486
 10
1.513397241169785
 20
0.5622170354753813
 42
-5.328517124445184
  0
LWPOLYLINE
  5
33B
330
18
100
AcDbEntity
  8
TEXT
100
AcDbPolyline
 90
        2
 70
     0
 43
0.0
 10
1.55647317403743
 20
0.5622170354753813
 10
1.614828387872764
 20
0.5622170354753813
  0
LWPOLYLINE
  5
33C
330
18
100
AcDbEntity
  8
TEXT
100
AcDbPolyline
 90
        2
 70
     0
 43
0.0
 10
1.55647317403743
 20
0.6057079804258195
 10
1.55647317403743
 20
0.5622170354753813
  0
LINE
  5
33D
330
18
100
AcDbEntity
  8
TEXT
100
AcDbLine
 10
1.480343734816994
 20
0.7271384003449946
 30
0.0
 11
1.470078974403428
 21
0.7483889399176889
 31
0.0
  0
LINE
  5
33E
330
18
100
AcDbEntity
  8
TEXT
100
AcDbLine
 10
1.614828387872766
 20
0.5622170354753813
 30
0.0
 11
1.614828387872758
 21
0.7395075409068497
 31
0.0
  0
LINE
  5
33F
330
18
100
AcDbEntity
  8
TEXT
100
AcDbLine
 10
1.933242334354279
 20
0.5622170354753813
 30
0.0
 11
1.837750110990668
 21
0.7187968255229187
 31
0.0
  0
LINE
  5
340
330
18
100
AcDbEntity
  8
TEXT
100
AcDbLine
 10
1.856663961978071
 20
0.5622170354753813
 30
0.0
 11
1.933242334354279
 21
0.5622170354753813
 31
0.0
  0
LINE
  5
341
330
18
100
AcDbEntity
  8
TEXT
100
AcDbLine
 10
1.716382244447988
 20
0.5622170354753813
 30
0.0
 11
1.780760428766608
 21
0.5622170354753813
 31
0.0
  0
LINE
  5
342
330
18
100
AcDbEntity
  8
TEXT
100
AcDbLine
 10
1.716382244447981
 20
0.7644133738071269
 30
0.0
 11
1.716382244447988
 21
0.5622170354753813
 31
0.0
  0
LINE
  5
343
330
18
100
AcDbEntity
  8
TEXT
100
AcDbLine
 10
1.780760428766608
 20
0.6937966039515615
 30
0.0
 11
1.856663961978071
 21
0.5622170354753813
 31
0.0
  0
LINE
  5
344
330
18
100
AcDbEntity
  8
TEXT
100
AcDbLine
 10
1.780760428766608
 20
0.5622170354753813
 30
0.0
 11
1.780760428766608
 21
0.6937966039515615
 31
0.0
  0
LINE
  5
345
330
18
100
AcDbEntity
  8
TEXT
100
AcDbLine
 10
0.6363971181436625
 20
0.8286900684638922
 30
0.0
 11
0.460665365245152
 21
0.8286900684638922
 31
0.0
  0
LWPOLYLINE
  5
346
330
18
100
AcDbEntity
  8
TEXT
100
AcDbPolyline
 90
        2
 70
     0
 43
0.0006660908203125
 10
0.0425876698394969
 20
0.8020464356513947
 10
0.0425876698394969
 20
0.8286900684638958
  0
LWPOLYLINE
  5
347
330
18
100
AcDbEntity
  8
TEXT
100
AcDbPolyline
 90
        2
 70
     0
 43
0.0006660908203125
 10
0.0825531190582485
 20
0.8020464356513947
 10
0.0825531190582485
 20
0.8286900684638958
  0
TEXT
  5
348
330
18
100
AcDbEntity
  8
TEXT
100
AcDbText
 10
2.085305922453683
 20
0.8416196980534618
 30
0.0
 40
0.0522247191011236
  1
Stylmark  Incorporated
 41
1.221428571428571
 72
     5
 11
3.414238506723346
 21
0.8416196980534618
 31
0.0
100
AcDbText
  0
LINE
  5
349
330
18
100
AcDbEntity
  8
TEXT
100
AcDbLine
 10
1.711902357121481
 20
0.8286900684638922
 30
0.0
 11
1.644402639471966
 21
0.8286900684638922
 31
0.0
  0
TEXT
  5
34A
330
18
100
AcDbEntity
  8
TEXT
100
AcDbText
 10
0.9190245737271702
 20
1.00876705982696
 30
0.0
 40
0.125
  1
PART #110389
  7
ITALICC
 72
     1
 11
1.67200076420336
 21
1.00876705982696
 31
0.0
100
AcDbText
  0
LINE
  5
34B
330
18
100
AcDbEntity
  8
TEXT
100
AcDbLine
 10
1.148878108397919
 20
0.8286900684638922
 30
0.0
 11
1.014860052466783
 21
0.8286900684638922
 31
0.0
  0
LINE
  5
34C
330
18
100
AcDbEntity
  8
TEXT
100
AcDbLine
 10
0.6964397229876696
 20
0.8630779860580304
 30
0.0
 11
0.6363971181436625
 21
0.8630779860580304
 31
0.0
  0
LINE
  5
34D
330
18
100
AcDbEntity
  8
TEXT
100
AcDbLine
 10
0.6363971181436625
 20
0.8630779860580304
 30
0.0
 11
0.6363971181436625
 21
0.8286900684638922
 31
0.0
  0
LINE
  5
34E
330
18
100
AcDbEntity
  8
TEXT
100
AcDbLine
 10
0.7682386891315787
 20
0.8286900684638922
 30
0.0
 11
0.6964397229876696
 21
0.8286900684638922
 31
0.0
  0
LINE
  5
34F
330
18
100
AcDbEntity
  8
TEXT
100
AcDbLine
 10
0.6964397229876696
 20
0.8286900684638922
 30
0.0
 11
0.6964397229876696
 21
0.8630779860580304
 31
0.0
  0
LINE
  5
350
330
18
100
AcDbEntity
  8
TEXT
100
AcDbLine
 10
0.9825481983291233
 20
0.8967015462027028
 30
0.0
 11
0.9157394857627565
 21
0.8967015462027028
 31
0.0
  0
LINE
  5
351
330
18
100
AcDbEntity
  8
TEXT
100
AcDbLine
 10
0.9157394857627565
 20
0.8286900684638922
 30
0.0
 11
0.8856175729693802
 21
0.8286900684638922
 31
0.0
  0
LINE
  5
352
330
18
100
AcDbEntity
  8
TEXT
100
AcDbLine
 10
0.9157394857627565
 20
0.8967015462027028
 30
0.0
 11
0.9157394857627565
 21
0.8286900684638922
 31
0.0
  0
LINE
  5
353
330
18
100
AcDbEntity
  8
TEXT
100
AcDbLine
 10
1.473573557857349
 20
0.8286900684638922
 30
0.0
 11
1.33874164864029
 21
0.8286900684638922
 31
0.0
  0
LWPOLYLINE
  5
354
330
18
100
AcDbEntity
  8
TEXT
100
AcDbPolyline
 90
        3
 70
     0
 43
0.0
 10
1.302959957927125
 20
0.8286900684638958
 10
1.184659799111081
 20
0.8286900684638958
 10
1.184659799111081
 20
0.8015225717029998
 42
-1.960274751411753
  0
LWPOLYLINE
  5
355
330
18
100
AcDbEntity
  8
TEXT
100
AcDbPolyline
 90
        2
 70
     0
 43
0.0
 10
1.148878108397919
 20
0.8286900684638958
 42
-0.3328679258950098
 10
1.184659799111081
 20
0.8015225717029998
 42
6.772930709997214
  0
LINE
  5
356
330
18
100
AcDbEntity
  8
TEXT
100
AcDbLine
 10
1.33874164864029
 20
0.8286900684638922
 30
0.0
 11
1.33874164864029
 21
0.8003675226942483
 31
0.0
  0
LWPOLYLINE
  5
357
330
18
100
AcDbEntity
  8
TEXT
100
AcDbPolyline
 90
        2
 70
     0
 43
0.0
 10
1.302959957927125
 20
0.8286900684638958
 42
-0.3277054968067132
 10
1.33874164864029
 20
0.8003675226942519
 42
6.667889725900311
  0
LINE
  5
358
330
18
100
AcDbEntity
  8
TEXT
100
AcDbLine
 10
1.616430403031891
 20
0.8286900684638922
 30
0.0
 11
1.55253349673239
 21
0.8286900684638922
 31
0.0
  0
ARC
  5
359
330
18
100
AcDbEntity
  8
TEXT
100
AcDbCircle
 10
1.471546618080282
 20
0.7871065013429899
 30
0.0
 40
0.0416329381542859
100
AcDbArc
 50
26.56974201007528
 51
87.20939649401342
  0
LINE
  5
35A
330
18
100
AcDbEntity
  8
TEXT
100
AcDbLine
 10
1.616430403031891
 20
0.8011424186030176
 30
0.0
 11
1.616430403031891
 21
0.8286900684638922
 31
0.0
  0
ARC
  5
35B
330
18
100
AcDbEntity
  8
TEXT
100
AcDbCircle
 10
1.647623220095001
 20
0.7974443411816275
 30
0.0
 40
0.0314112657011332
100
AcDbArc
 50
95.88484768694724
 51
173.2388340632136
  0
LINE
  5
35C
330
18
100
AcDbEntity
  8
TEXT
100
AcDbLine
 10
1.902307226956374
 20
0.8286900684638922
 30
0.0
 11
1.827315394226747
 21
0.8286900684638922
 31
0.0
  0
LINE
  5
35D
330
18
100
AcDbEntity
  8
TEXT
100
AcDbLine
 10
1.711902357121488
 20
0.8941542742314929
 30
0.0
 11
1.711902357121481
 21
0.8286900684638922
 31
0.0
  0
LINE
  5
35E
330
18
100
AcDbEntity
  8
TEXT
100
AcDbLine
 10
1.780217235670761
 20
0.8941542742314929
 30
0.0
 11
1.711902357121488
 21
0.8941542742314929
 31
0.0
  0
ENDSEC
  0
SECTION
  2
OBJECTS
  0
DICTIONARY
  5
C
330
0
100
AcDbDictionary
  3
ACAD_GROUP
350
D
  3
ACAD_LAYOUT
350
363
  3
ACAD_MLINESTYLE
350
E
  3
ACAD_PLOTSETTINGS
350
364
  3
ACAD_PLOTSTYLENAME
350
361
  3
ACDBHEADERROUNDTRIPXREC
350
36F
  3
ACDBVARIABLEDICTIONARY
350
36C
  0
DICTIONARY
  5
391
330
18
100
AcDbDictionary
280
     1
  3
ACAD_LAYOUTSELFREF
360
392
  0
DICTIONARY
  5
38F
330
15
100
AcDbDictionary
280
     1
  3
ACAD_LAYOUTSELFREF
360
390
  0
DICTIONARY
  5
D
102
{ACAD_REACTORS
330
C
102
}
330
C
100
AcDbDictionary
  0
DICTIONARY
  5
363
102
{ACAD_REACTORS
330
C
102
}
330
C
100
AcDbDictionary
  0
DICTIONARY
  5
E
102
{ACAD_REACTORS
330
C
102
}
330
C
100
AcDbDictionary
  3
STANDARD
350
1B
  0
DICTIONARY
  5
364
102
{ACAD_REACTORS
330
C
102
}
330
C
100
AcDbDictionary
  0
ACDBDICTIONARYWDFLT
  5
361
102
{ACAD_REACTORS
330
C
102
}
330
C
100
AcDbDictionary
281
     1
  3
Normal
350
362
100
AcDbDictionaryWithDefault
340
362
  0
DICTIONARY
  5
36F
102
{ACAD_REACTORS
330
C
102
}
330
C
100
AcDbDictionary
  3
CEPSNTYPE
350
379
  3
FINGERPRINTGUID
350
37A
  3
HYPERLINKBASE
350
372
  3
INSUNITS
350
378
  3
LAYOUTDICT
350
374
  3
LWETCUNION
350
377
  3
PLOTSETDICT
350
375
  3
PLOTSTYLNAMDICT
350
376
  3
PSVPSCALE
350
37C
  3
PUCSBASE
350
37F
  3
PUCSORGBACK
350
385
  3
PUCSORGBOTTOM
350
381
  3
PUCSORGFRONT
350
384
  3
PUCSORGLEFT
350
382
  3
PUCSORGRIGHT
350
383
  3
PUCSORGTOP
350
380
  3
PUCSORTHOREF
350
37D
  3
PUCSORTHOVIEW
350
37E
  3
STYLESHEET
350
373
  3
TSTACKALIGN
350
370
  3
TSTACKSIZE
350
371
  3
UCSBASE
350
388
  3
UCSORGBACK
350
38E
  3
UCSORGBOTTOM
350
38A
  3
UCSORGFRONT
350
38D
  3
UCSORGLEFT
350
38B
  3
UCSORGRIGHT
350
38C
  3
UCSORGTOP
350
389
  3
UCSORTHOREF
350
386
  3
UCSORTHOVIEW
350
387
  3
VERSIONGUID
350
37B
  0
DICTIONARY
  5
36C
102
{ACAD_REACTORS
330
C
102
}
330
C
100
AcDbDictionary
  3
DIMASSOC
350
36D
  0
XRECORD
  5
392
102
{ACAD_REACTORS
330
391
102
}
330
391
100
AcDbXrecord
340
18
  0
XRECORD
  5
390
102
{ACAD_REACTORS
330
38F
102
}
330
38F
100
AcDbXrecord
340
15
  0
MLINESTYLE
  5
1B
102
{ACAD_REACTORS
330
E
102
}
330
E
100
AcDbMlineStyle
  2
STANDARD
 70
     0
  3

 62
     0
 51
90.0
 52
90.0
 71
     2
 49
0.5
 62
   256
  6
BYLAYER
 49
-0.5
 62
   256
  6
BYLAYER
  0
ACDBPLACEHOLDER
  5
362
102
{ACAD_REACTORS
330
361
102
}
330
361
100
AcDbPlaceHolder
280
     0
  0
XRECORD
  5
379
102
{ACAD_REACTORS
330
36F
102
}
330
36F
100
AcDbXrecord
 90
        0
  0
XRECORD
  5
37A
102
{ACAD_REACTORS
330
36F
102
}
330
36F
100
AcDbXrecord
  1
{DAFA6500-8DB6-11D6-88E6-0090279574E7}
  0
XRECORD
  5
372
102
{ACAD_REACTORS
330
36F
102
}
330
36F
100
AcDbXrecord
  1

  0
XRECORD
  5
378
102
{ACAD_REACTORS
330
36F
102
}
330
36F
100
AcDbXrecord
 90
        0
  0
XRECORD
  5
374
102
{ACAD_REACTORS
330
36F
102
}
330
36F
100
AcDbXrecord
340
363
  0
XRECORD
  5
377
102
{ACAD_REACTORS
330
36F
102
}
330
36F
100
AcDbXrecord
 90
    14877
  0
XRECORD
  5
375
102
{ACAD_REACTORS
330
36F
102
}
330
36F
100
AcDbXrecord
340
364
  0
XRECORD
  5
376
102
{ACAD_REACTORS
330
36F
102
}
330
36F
100
AcDbXrecord
340
361
  0
XRECORD
  5
37C
102
{ACAD_REACTORS
330
36F
102
}
330
36F
100
AcDbXrecord
 40
0.0
  0
XRECORD
  5
37F
102
{ACAD_REACTORS
330
36F
102
}
330
36F
100
AcDbXrecord
340
0
  0
XRECORD
  5
385
102
{ACAD_REACTORS
330
36F
102
}
330
36F
100
AcDbXrecord
 10
0.0
 20
0.0
 30
0.0
  0
XRECORD
  5
381
102
{ACAD_REACTORS
330
36F
102
}
330
36F
100
AcDbXrecord
 10
0.0
 20
0.0
 30
0.0
  0
XRECORD
  5
384
102
{ACAD_REACTORS
330
36F
102
}
330
36F
100
AcDbXrecord
 10
0.0
 20
0.0
 30
0.0
  0
XRECORD
  5
382
102
{ACAD_REACTORS
330
36F
102
}
330
36F
100
AcDbXrecord
 10
0.0
 20
0.0
 30
0.0
  0
XRECORD
  5
383
102
{ACAD_REACTORS
330
36F
102
}
330
36F
100
AcDbXrecord
 10
0.0
 20
0.0
 30
0.0
  0
XRECORD
  5
380
102
{ACAD_REACTORS
330
36F
102
}
330
36F
100
AcDbXrecord
 10
0.0
 20
0.0
 30
0.0
  0
XRECORD
  5
37D
102
{ACAD_REACTORS
330
36F
102
}
330
36F
100
AcDbXrecord
340
0
  0
XRECORD
  5
37E
102
{ACAD_REACTORS
330
36F
102
}
330
36F
100
AcDbXrecord
 70
     0
  0
XRECORD
  5
373
102
{ACAD_REACTORS
330
36F
102
}
330
36F
100
AcDbXrecord
  1

  0
XRECORD
  5
370
102
{ACAD_REACTORS
330
36F
102
}
330
36F
100
AcDbXrecord
 90
        1
  0
XRECORD
  5
371
102
{ACAD_REACTORS
330
36F
102
}
330
36F
100
AcDbXrecord
 90
       70
  0
XRECORD
  5
388
102
{ACAD_REACTORS
330
36F
102
}
330
36F
100
AcDbXrecord
340
0
  0
XRECORD
  5
38E
102
{ACAD_REACTORS
330
36F
102
}
330
36F
100
AcDbXrecord
 10
0.0
 20
0.0
 30
0.0
  0
XRECORD
  5
38A
102
{ACAD_REACTORS
330
36F
102
}
330
36F
100
AcDbXrecord
 10
0.0
 20
0.0
 30
0.0
  0
XRECORD
  5
38D
102
{ACAD_REACTORS
330
36F
102
}
330
36F
100
AcDbXrecord
 10
0.0
 20
0.0
 30
0.0
  0
XRECORD
  5
38B
102
{ACAD_REACTORS
330
36F
102
}
330
36F
100
AcDbXrecord
 10
0.0
 20
0.0
 30
0.0
  0
XRECORD
  5
38C
102
{ACAD_REACTORS
330
36F
102
}
330
36F
100
AcDbXrecord
 10
0.0
 20
0.0
 30
0.0
  0
XRECORD
  5
389
102
{ACAD_REACTORS
330
36F
102
}
330
36F
100
AcDbXrecord
 10
0.0
 20
0.0
 30
0.0
  0
XRECORD
  5
386
102
{ACAD_REACTORS
330
36F
102
}
330
36F
100
AcDbXrecord
340
0
  0
XRECORD
  5
387
102
{ACAD_REACTORS
330
36F
102
}
330
36F
100
AcDbXrecord
 70
     0
  0
XRECORD
  5
37B
102
{ACAD_REACTORS
330
36F
102
}
330
36F
100
AcDbXrecord
  1
{DAFA6502-8DB6-11D6-88E6-0090279574E7}
  0
DICTIONARYVAR
  5
36D
102
{ACAD_REACTORS
330
36C
102
}
330
36C
100
DictionaryVariables
280
     0
  1
1
  0
ENDSEC
  0
EOF
