  0
SECTION
  2
HEADER
  9
$ACADVER
  1
AC1014
  9
$ACADMAINTVER
 70
     9
  9
$DWGCODEPAGE
  3
ANSI_1252
  9
$INSBASE
 10
1.934159940036615
 20
2.748193267216271
 30
0.0
  9
$EXTMIN
 10
0.2601745488533551
 20
0.8382995902013792
 30
0.0
  9
$EXTMAX
 10
3.745393870600482
 20
3.73527381359535
 30
0.0
  9
$LIMMIN
 10
0.0
 20
0.0
  9
$LIMMAX
 10
18.0
 20
12.0
  9
$ORTHOMODE
 70
     1
  9
$REGENMODE
 70
     1
  9
$FILLMODE
 70
     1
  9
$QTEXTMODE
 70
     0
  9
$MIRRTEXT
 70
     0
  9
$DRAGMODE
 70
     2
  9
$LTSCALE
 40
1.0
  9
$OSMODE
 70
    39
  9
$ATTMODE
 70
     1
  9
$TEXTSIZE
 40
0.125
  9
$TRACEWID
 40
0.05
  9
$TEXTSTYLE
  7
ROMANS
  9
$CLAYER
  8
0
  9
$CELTYPE
  6
BYLAYER
  9
$CECOLOR
 62
   256
  9
$CELTSCALE
 40
1.0
  9
$DELOBJ
 70
     1
  9
$DISPSILH
 70
     1
  9
$DIMSCALE
 40
1.0
  9
$DIMASZ
 40
0.125
  9
$DIMEXO
 40
0.125
  9
$DIMDLI
 40
0.375
  9
$DIMRND
 40
0.0
  9
$DIMDLE
 40
0.0
  9
$DIMEXE
 40
0.125
  9
$DIMTP
 40
0.0
  9
$DIMTM
 40
0.0
  9
$DIMTXT
 40
0.125
  9
$DIMCEN
 40
-0.125
  9
$DIMTSZ
 40
0.0
  9
$DIMTOL
 70
     0
  9
$DIMLIM
 70
     0
  9
$DIMTIH
 70
     1
  9
$DIMTOH
 70
     1
  9
$DIMSE1
 70
     0
  9
$DIMSE2
 70
     0
  9
$DIMTAD
 70
     0
  9
$DIMZIN
 70
     4
  9
$DIMBLK
  1

  9
$DIMASO
 70
     1
  9
$DIMSHO
 70
     1
  9
$DIMPOST
  1

  9
$DIMAPOST
  1

  9
$DIMALT
 70
     0
  9
$DIMALTD
 70
     2
  9
$DIMALTF
 40
25.4
  9
$DIMLFAC
 40
1.0
  9
$DIMTOFL
 70
     0
  9
$DIMTVP
 40
0.0
  9
$DIMTIX
 70
     1
  9
$DIMSOXD
 70
     0
  9
$DIMSAH
 70
     0
  9
$DIMBLK1
  1

  9
$DIMBLK2
  1

  9
$DIMSTYLE
  2
STANDARD
  9
$DIMCLRD
 70
     0
  9
$DIMCLRE
 70
     0
  9
$DIMCLRT
 70
     0
  9
$DIMTFAC
 40
1.0
  9
$DIMGAP
 40
0.09
  9
$DIMJUST
 70
     0
  9
$DIMSD1
 70
     0
  9
$DIMSD2
 70
     0
  9
$DIMTOLJ
 70
     1
  9
$DIMTZIN
 70
     4
  9
$DIMALTZ
 70
     0
  9
$DIMALTTZ
 70
     0
  9
$DIMFIT
 70
     3
  9
$DIMUPT
 70
     0
  9
$DIMUNIT
 70
     2
  9
$DIMDEC
 70
     3
  9
$DIMTDEC
 70
     3
  9
$DIMALTU
 70
     2
  9
$DIMALTTD
 70
     2
  9
$DIMTXSTY
  7
ROMANS
  9
$DIMAUNIT
 70
     0
  9
$LUNITS
 70
     2
  9
$LUPREC
 70
     3
  9
$SKETCHINC
 40
0.1
  9
$FILLETRAD
 40
0.03125
  9
$AUNITS
 70
     0
  9
$AUPREC
 70
     0
  9
$MENU
  1
ACAD
  9
$ELEVATION
 40
0.0
  9
$PELEVATION
 40
0.0
  9
$THICKNESS
 40
0.0
  9
$LIMCHECK
 70
     0
  9
$BLIPMODE
 70
     0
  9
$CHAMFERA
 40
0.0
  9
$CHAMFERB
 40
0.0
  9
$CHAMFERC
 40
0.0
  9
$CHAMFERD
 40
0.0
  9
$SKPOLY
 70
     0
  9
$TDCREATE
 40
2448994.611992014
  9
$TDUPDATE
 40
2452458.309522361
  9
$TDINDWG
 40
0.0033711458
  9
$TDUSRTIMER
 40
0.0033711458
  9
$USRTIMER
 70
     1
  9
$ANGBASE
 50
0.0
  9
$ANGDIR
 70
     0
  9
$PDMODE
 70
     0
  9
$PDSIZE
 40
0.0
  9
$PLINEWID
 40
0.0
  9
$COORDS
 70
     2
  9
$SPLFRAME
 70
     0
  9
$SPLINETYPE
 70
     6
  9
$SPLINESEGS
 70
     8
  9
$ATTDIA
 70
     0
  9
$ATTREQ
 70
     1
  9
$HANDLING
 70
 22529
  9
$HANDSEED
  5
7DE1B343D9E0762
  9
$SURFTAB1
 70
     6
  9
$SURFTAB2
 70
     6
  9
$SURFTYPE
 70
     6
  9
$SURFU
 70
     6
  9
$SURFV
 70
     6
  9
$UCSNAME
  2

  9
$UCSORG
 10
0.0
 20
0.0
 30
0.0
  9
$UCSXDIR
 10
1.0
 20
0.0
 30
0.0
  9
$UCSYDIR
 10
0.0
 20
1.0
 30
0.0
  9
$PUCSNAME
  2

  9
$PUCSORG
 10
0.0
 20
0.0
 30
0.0
  9
$PUCSXDIR
 10
1.0
 20
0.0
 30
0.0
  9
$PUCSYDIR
 10
0.0
 20
1.0
 30
0.0
  9
$USERI1
 70
     0
  9
$USERI2
 70
     0
  9
$USERI3
 70
     0
  9
$USERI4
 70
     0
  9
$USERI5
 70
     0
  9
$USERR1
 40
0.0
  9
$USERR2
 40
0.0
  9
$USERR3
 40
0.0
  9
$USERR4
 40
0.0
  9
$USERR5
 40
0.0
  9
$WORLDVIEW
 70
     1
  9
$SHADEDGE
 70
     3
  9
$SHADEDIF
 70
    70
  9
$TILEMODE
 70
     1
  9
$MAXACTVP
 70
    16
  9
$PINSBASE
 10
0.0
 20
0.0
 30
0.0
  9
$PLIMCHECK
 70
     0
  9
$PEXTMIN
 10
1.000000000000000E+20
 20
1.000000000000000E+20
 30
1.000000000000000E+20
  9
$PEXTMAX
 10
-1.000000000000000E+20
 20
-1.000000000000000E+20
 30
-1.000000000000000E+20
  9
$PLIMMIN
 10
0.0
 20
0.0
  9
$PLIMMAX
 10
12.0
 20
9.0
  9
$UNITMODE
 70
     0
  9
$VISRETAIN
 70
     0
  9
$PLINEGEN
 70
     1
  9
$PSLTSCALE
 70
     0
  9
$TREEDEPTH
 70
  3020
  9
$PICKSTYLE
 70
     1
  9
$CMLSTYLE
  2
STANDARD
  9
$CMLJUST
 70
     0
  9
$CMLSCALE
 40
1.0
  9
$PROXYGRAPHICS
 70
     1
  9
$MEASUREMENT
 70
     0
  0
ENDSEC
  0
SECTION
  2
CLASSES
  0
CLASS
  1
LWPOLYLINE
  2
AcDbPolyline
  3
AutoCAD 2000
 90
        0
280
     0
281
     1
  0
CLASS
  1
ACDBDICTIONARYWDFLT
  2
AcDbDictionaryWithDefault
  3
AutoCAD 2000
 90
        0
280
     0
281
     0
  0
CLASS
  1
ACDBPLACEHOLDER
  2
AcDbPlaceHolder
  3
AutoCAD 2000
 90
        0
280
     0
281
     0
  0
CLASS
  1
LAYOUT
  2
AcDbLayout
  3
AutoCAD 2000
 90
        0
280
     0
281
     0
  0
CLASS
  1
DICTIONARYVAR
  2
AcDbDictionaryVar
  3
AutoCAD 2000
 90
        0
280
     0
281
     0
  0
CLASS
  1
LONG_TRANSACTION
  2
AcDbLongTransaction
  3
AutoCAD 2000
 90
        0
280
     0
281
     0
  0
CLASS
  1
LWPOLYLINE
  2
AcDbPolyline
  3
AutoCAD 2000
 90
        0
280
     0
281
     1
  0
CLASS
  1
HATCH
  2
AcDbHatch
  3
AutoCAD 2000
 90
        0
280
     0
281
     1
  0
CLASS
  1
XRECORD
  2
AcDbXrecord
  3
AutoCAD 2000
 90
        0
280
     0
281
     0
  0
ENDSEC
  0
SECTION
  2
TABLES
  0
TABLE
  2
VPORT
  5
7DE1B343D9E06EE
330
0
100
AcDbSymbolTable
 70
     2
  0
VPORT
  5
7DE1B343D9E073D
330
7DE1B343D9E06EE
100
AcDbSymbolTableRecord
100
AcDbViewportTableRecord
  2
*ACTIVE
 70
     0
 10
0.0
 20
0.0
 11
1.0
 21
1.0
 12
6.267775591435414
 22
2.287078881039143
 13
0.0
 23
0.0
 14
0.015625
 24
0.015625
 15
0.0
 25
0.0
 16
0.0
 26
0.0
 36
1.0
 17
0.0
 27
0.0
 37
0.0
 40
3.271255889190257
 41
4.320930232558139
 42
50.0
 43
0.0
 44
0.0
 50
0.0
 51
0.0
 71
     0
 72
  2000
 73
     1
 74
     0
 75
     0
 76
     0
 77
     0
 78
     0
  0
ENDTAB
  0
TABLE
  2
LTYPE
  5
7DE1B343D9E06EB
330
0
100
AcDbSymbolTable
 70
     1
  0
LTYPE
  5
7DE1B343D9E06F8
330
7DE1B343D9E06EB
100
AcDbSymbolTableRecord
100
AcDbLinetypeTableRecord
  2
BYBLOCK
 70
     0
  3

 72
    65
 73
     0
 40
0.0
  0
LTYPE
  5
7DE1B343D9E06F9
330
7DE1B343D9E06EB
100
AcDbSymbolTableRecord
100
AcDbLinetypeTableRecord
  2
BYLAYER
 70
     0
  3

 72
    65
 73
     0
 40
0.0
  0
LTYPE
  5
7DE1B343D9E06FA
330
7DE1B343D9E06EB
100
AcDbSymbolTableRecord
100
AcDbLinetypeTableRecord
  2
CONTINUOUS
 70
     0
  3
Solid line
 72
    65
 73
     0
 40
0.0
  0
ENDTAB
  0
TABLE
  2
LAYER
  5
7DE1B343D9E06E8
330
0
100
AcDbSymbolTable
 70
     3
  0
LAYER
  5
7DE1B343D9E06F5
330
7DE1B343D9E06E8
100
AcDbSymbolTableRecord
100
AcDbLayerTableRecord
  2
0
 70
     0
 62
     7
  6
CONTINUOUS
  0
LAYER
  5
7DE1B343D9E0705
330
7DE1B343D9E06E8
100
AcDbSymbolTableRecord
100
AcDbLayerTableRecord
  2
TEXT
 70
     0
 62
     3
  6
CONTINUOUS
  0
LAYER
  5
7DE1B343D9E0715
330
7DE1B343D9E06E8
100
AcDbSymbolTableRecord
100
AcDbLayerTableRecord
  2
ASHADE
 70
     4
 62
     7
  6
CONTINUOUS
  0
ENDTAB
  0
TABLE
  2
STYLE
  5
7DE1B343D9E06E9
330
0
100
AcDbSymbolTable
 70
     4
  0
STYLE
  5
7DE1B343D9E06F6
330
7DE1B343D9E06E9
100
AcDbSymbolTableRecord
100
AcDbTextStyleTableRecord
  2
STANDARD
 70
     0
 40
0.0
 41
1.0
 50
0.0
 71
     0
 42
0.3125
  3
txt
  4

  0
STYLE
  5
7DE1B343D9E0702
330
7DE1B343D9E06E9
100
AcDbSymbolTableRecord
100
AcDbTextStyleTableRecord
  2
ITALICC
 70
     0
 40
0.0
 41
1.0
 50
0.0
 71
     0
 42
0.125
  3
italicc
  4

  0
STYLE
  5
7DE1B343D9E0712
330
7DE1B343D9E06E9
100
AcDbSymbolTableRecord
100
AcDbTextStyleTableRecord
  2
ASHADE
 70
     0
 40
0.2
 41
1.0
 50
0.0
 71
     0
 42
0.3125
  3
simplex
  4

  0
STYLE
  5
7DE1B343D9E072D
330
7DE1B343D9E06E9
100
AcDbSymbolTableRecord
100
AcDbTextStyleTableRecord
  2
ROMANS
 70
     0
 40
0.0
 41
1.0
 50
0.0
 71
     0
 42
0.125
  3
romans.shx
  4

  0
ENDTAB
  0
TABLE
  2
VIEW
  5
7DE1B343D9E06EC
330
0
100
AcDbSymbolTable
 70
     0
  0
ENDTAB
  0
TABLE
  2
UCS
  5
7DE1B343D9E06ED
330
0
100
AcDbSymbolTable
 70
     0
  0
ENDTAB
  0
TABLE
  2
APPID
  5
7DE1B343D9E06EF
330
0
100
AcDbSymbolTable
 70
     6
  0
APPID
  5
7DE1B343D9E06F7
330
7DE1B343D9E06EF
100
AcDbSymbolTableRecord
100
AcDbRegAppTableRecord
  2
ACAD
 70
     0
  0
APPID
  5
7DE1B343D9E0713
330
7DE1B343D9E06EF
100
AcDbSymbolTableRecord
100
AcDbRegAppTableRecord
  2
AVE_RENDER
 70
     0
  0
APPID
  5
7DE1B343D9E0714
330
7DE1B343D9E06EF
100
AcDbSymbolTableRecord
100
AcDbRegAppTableRecord
  2
AVE_ENTITY_MATERIAL
 70
     0
  0
APPID
  5
7DE1B343D9E0721
330
7DE1B343D9E06EF
100
AcDbSymbolTableRecord
100
AcDbRegAppTableRecord
  2
AVE_FINISH
 70
     0
  0
APPID
  5
7DE1B343D9E0722
330
7DE1B343D9E06EF
100
AcDbSymbolTableRecord
100
AcDbRegAppTableRecord
  2
AVE_MATERIAL
 70
     0
  0
APPID
  5
7DE1B343D9E0723
330
7DE1B343D9E06EF
100
AcDbSymbolTableRecord
100
AcDbRegAppTableRecord
  2
AVE_GLOBAL
 70
     0
  0
ENDTAB
  0
TABLE
  2
DIMSTYLE
  5
7DE1B343D9E06F0
330
0
100
AcDbSymbolTable
 70
     1
  0
DIMSTYLE
105
7DE1B343D9E070A
330
7DE1B343D9E06F0
100
AcDbSymbolTableRecord
100
AcDbDimStyleTableRecord
  2
STANDARD
 70
     0
  3

  4

  5

  6

  7

 40
1.0
 41
0.125
 42
0.125
 43
0.375
 44
0.125
 45
0.0
 46
0.0
 47
0.0
 48
0.0
140
0.125
141
-0.125
142
0.0
143
25.4
144
1.0
145
0.0
146
1.0
147
0.09
 71
     0
 72
     0
 73
     1
 74
     1
 75
     0
 76
     0
 77
     0
 78
     4
170
     0
171
     2
172
     0
173
     0
174
     1
175
     0
176
     0
177
     0
178
     0
270
     2
271
     3
272
     3
273
     2
274
     2
340
7DE1B343D9E072D
275
     0
280
     0
281
     0
282
     0
283
     1
284
     4
285
     0
286
     0
287
     3
288
     0
  0
ENDTAB
  0
TABLE
  2
BLOCK_RECORD
  5
7DE1B343D9E06E7
330
0
100
AcDbSymbolTable
 70
     2
  0
BLOCK_RECORD
  5
7DE1B343D9E06FE
102
{ACAD_XDICTIONARY
360
7DE1B343D9E0760
102
}
330
7DE1B343D9E06E7
100
AcDbSymbolTableRecord
100
AcDbBlockTableRecord
  2
*MODEL_SPACE
  0
BLOCK_RECORD
  5
7DE1B343D9E06FB
102
{ACAD_XDICTIONARY
360
7DE1B343D9E075E
102
}
330
7DE1B343D9E06E7
100
AcDbSymbolTableRecord
100
AcDbBlockTableRecord
  2
*PAPER_SPACE
  0
BLOCK_RECORD
  5
7DE1B343D9E0716
330
7DE1B343D9E06E7
100
AcDbSymbolTableRecord
100
AcDbBlockTableRecord
  2
AVE_RENDER
  0
BLOCK_RECORD
  5
7DE1B343D9E0724
330
7DE1B343D9E06E7
100
AcDbSymbolTableRecord
100
AcDbBlockTableRecord
  2
AVE_GLOBAL
  0
ENDTAB
  0
ENDSEC
  0
SECTION
  2
BLOCKS
  0
BLOCK
  5
7DE1B343D9E0708
330
7DE1B343D9E06FE
100
AcDbEntity
  8
0
100
AcDbBlockBegin
  2
*MODEL_SPACE
 70
     0
 10
0.0
 20
0.0
 30
0.0
  3
*MODEL_SPACE
  1

  0
ENDBLK
  5
7DE1B343D9E0709
330
7DE1B343D9E06FE
100
AcDbEntity
  8
0
100
AcDbBlockEnd
  0
BLOCK
  5
7DE1B343D9E0706
330
7DE1B343D9E06FB
100
AcDbEntity
 67
     1
  8
0
100
AcDbBlockBegin
  2
*PAPER_SPACE
 70
     0
 10
0.0
 20
0.0
 30
0.0
  3
*PAPER_SPACE
  1

  0
ENDBLK
  5
7DE1B343D9E0707
330
7DE1B343D9E06FB
100
AcDbEntity
 67
     1
  8
0
100
AcDbBlockEnd
  0
BLOCK
  5
7DE1B343D9E0717
330
7DE1B343D9E0716
100
AcDbEntity
  8
0
100
AcDbBlockBegin
  2
AVE_RENDER
 70
     0
 10
0.0
 20
0.0
 30
0.0
  3
AVE_RENDER
  1
AVE_RENDER
  0
ENDBLK
  5
7DE1B343D9E0718
330
7DE1B343D9E0716
100
AcDbEntity
  8
0
100
AcDbBlockEnd
  0
BLOCK
  5
7DE1B343D9E0725
330
7DE1B343D9E0724
100
AcDbEntity
  8
0
100
AcDbBlockBegin
  2
AVE_GLOBAL
 70
     0
 10
0.0
 20
0.0
 30
0.0
  3
AVE_GLOBAL
  1
AVE_GLOBAL
  0
ENDBLK
  5
7DE1B343D9E0726
330
7DE1B343D9E0724
100
AcDbEntity
  8
0
100
AcDbBlockEnd
  0
ENDSEC
  0
SECTION
  2
ENTITIES
  0
LWPOLYLINE
  5
7DE1B343D9DF314
330
7DE1B343D9E06FE
100
AcDbEntity
  8
0
100
AcDbPolyline
 90
       35
 70
     0
 43
0.0
 10
1.769646319614681
 20
2.414159418320142
 42
1.0180067422173
 10
1.769031172923267
 20
2.351672397893201
 42
0.1006172979317188
 10
2.013994465223906
 20
2.403516100673429
 42
-0.5115868449277743
 10
2.055811351182678
 20
2.378641141265957
 42
0.2087999727369683
 10
2.138593746058128
 20
2.227147140710774
 42
-0.5795946023666291
 10
2.050626133196001
 20
1.97961665584064
 10
2.050626133196001
 20
1.799226338047363
 42
0.2610342460866011
 10
1.948014986724491
 20
1.61027381359535
 10
1.862531128080498
 20
1.61027381359535
 10
1.800031128080498
 20
1.61027381359535
 10
1.768781128080498
 20
1.61027381359535
 42
1.0
 10
1.768781128080498
 20
1.54777381359535
 10
2.010495883554994
 20
1.54777381359535
 10
2.010495883554994
 20
1.61317268745936
 42
-0.3134869351464045
 10
2.113126133196001
 20
1.760777496635744
 10
2.113126133196001
 20
1.93429344070781
 42
0.4981166897546226
 10
2.186027996404708
 20
2.26784409261209
 10
2.176864413094176
 20
2.276559750888905
 42
-0.63551391472796
 10
2.237531128080498
 20
2.547272947492289
 10
2.237531128080498
 20
3.73527381359535
 10
1.768781128080498
 20
3.73527381359535
 42
1.0
 10
1.768781128080498
 20
3.67277381359535
 10
1.800031128080498
 20
3.67277381359535
 10
1.800031128080498
 20
3.60117871349539
 42
0.2679491924311231
 10
1.815031128080498
 20
3.575197951381857
 10
1.862531128080498
 20
3.54777381359535
 10
1.862531128080498
 20
3.67277381359535
 10
2.175031128080498
 20
3.67277381359535
 10
2.175031128080498
 20
2.591036442534767
 42
-0.160835888168237
 10
1.862531128080498
 20
2.42277381359535
 10
1.862531128080498
 20
2.54777381359535
 10
1.815031128080498
 20
2.520349675808843
 42
0.2679491924311235
 10
1.800031128080498
 20
2.49436891369531
 10
1.800031128080498
 20
2.415279218637571
 42
-0.0144188798839584
 10
1.767416165349307
 20
2.414141573314564
  0
TEXT
  5
7DE1B343D9E05A9
330
7DE1B343D9E06FE
100
AcDbEntity
  8
TEXT
100
AcDbText
 10
1.247203747128117
 20
1.29631819428396
 30
0.0
 40
0.125
  1
PART #110385
  7
ITALICC
 72
     1
 11
2.003156128080498
 21
1.29631819428396
 31
0.0
100
AcDbText
  0
TEXT
  5
7DE1B343D9E05AA
330
7DE1B343D9E06FE
100
AcDbEntity
  8
TEXT
100
AcDbText
 10
2.416461286330819
 20
0.8493955516115857
 30
0.0
 40
0.0522247191011236
  1
Phone  1-800-328-2495
 41
1.272321428571429
 72
     5
 11
3.745393870600482
 21
0.8493955516115857
 31
0.0
100
AcDbText
  0
TEXT
  5
7DE1B343D9E05AB
330
7DE1B343D9E06FE
100
AcDbEntity
  8
TEXT
100
AcDbText
 10
2.416461286330819
 20
1.129170832510462
 30
0.0
 40
0.0522247191011236
  1
Stylmark  Incorporated
 41
1.221428571428573
 72
     5
 11
3.745393870600482
 21
1.129170832510462
 31
0.0
100
AcDbText
  0
TEXT
  5
7DE1B343D9E05AC
330
7DE1B343D9E06FE
100
AcDbEntity
  8
TEXT
100
AcDbText
 10
2.416461286330819
 20
1.035912405544169
 30
0.0
 40
0.0522247191011236
  1
6536 Main St. N.E. * P.O. Box 32008
 41
0.8388932496075366
 72
     5
 11
3.745393870600482
 21
1.035912405544169
 31
0.0
100
AcDbText
  0
TEXT
  5
7DE1B343D9E05AD
330
7DE1B343D9E06FE
100
AcDbEntity
  8
TEXT
100
AcDbText
 10
2.416461286330819
 20
0.9426539785778778
 30
0.0
 40
0.0522247191011236
  1
Minneapolis, MN 55432-0008
 41
1.11444212721585
 72
     5
 11
3.745393870600482
 21
0.9426539785778778
 31
0.0
100
AcDbText
  0
LWPOLYLINE
  5
7DE1B343D9E05AE
330
7DE1B343D9E06FE
100
AcDbEntity
  8
TEXT
100
AcDbPolyline
 90
        3
 70
     0
 43
0.0006660908203125
 10
0.2605075942635113
 20
0.9630403142490205
 10
0.2605075942635113
 20
0.8498048747958929
 10
0.3737430337166336
 20
0.8498048747958929
  0
LWPOLYLINE
  5
7DE1B343D9E05B3
330
7DE1B343D9E06FE
100
AcDbEntity
  8
TEXT
100
AcDbPolyline
 90
        3
 70
     0
 43
0.0006660908203125
 10
0.2871512270760088
 20
0.9630403142490205
 10
0.2871512270760088
 20
0.8764485076083939
 10
0.3737430337166336
 20
0.8764485076083939
  0
LWPOLYLINE
  5
7DE1B343D9E05B8
330
7DE1B343D9E06FE
100
AcDbEntity
  8
TEXT
100
AcDbPolyline
 90
        2
 70
     0
 43
0.0001332181640625
 10
0.3337775844978856
 20
0.9730316765537057
 10
0.2605075942635113
 20
0.9630403142490205
  0
LWPOLYLINE
  5
7DE1B343D9E05BC
330
7DE1B343D9E06FE
100
AcDbEntity
  8
TEXT
100
AcDbPolyline
 90
        2
 70
     0
 43
0.0001332181640625
 10
0.2871512270760088
 20
0.9630403142490205
 10
0.3470994009041362
 20
0.9730316765537057
  0
LWPOLYLINE
  5
7DE1B343D9E05C0
330
7DE1B343D9E06FE
100
AcDbEntity
  8
TEXT
100
AcDbPolyline
 90
        2
 70
     0
 43
0.0001332181640625
 10
0.2871512270760088
 20
0.8764485076083939
 10
0.3470994009041362
 20
0.9363966814365195
  0
LWPOLYLINE
  5
7DE1B343D9E05C4
330
7DE1B343D9E06FE
100
AcDbEntity
  8
TEXT
100
AcDbPolyline
 90
        3
 70
     0
 43
0.0006660908203125
 10
0.3737430337166336
 20
1.116241202920896
 10
0.2605075942635113
 20
1.116241202920896
 10
0.2605075942635113
 20
1.003005763467768
  0
LWPOLYLINE
  5
7DE1B343D9E05C9
330
7DE1B343D9E06FE
100
AcDbEntity
  8
TEXT
100
AcDbPolyline
 90
        3
 70
     0
 43
0.0006660908203125
 10
0.3737430337166336
 20
1.089597570108395
 10
0.2871512270760088
 20
1.089597570108395
 10
0.2871512270760088
 20
1.003005763467768
  0
LWPOLYLINE
  5
7DE1B343D9E05CE
330
7DE1B343D9E06FE
100
AcDbEntity
  8
TEXT
100
AcDbPolyline
 90
        2
 70
     0
 43
0.0001332181640625
 10
0.2871512270760088
 20
1.089597570108395
 10
0.3470994009041344
 20
1.029649396280269
  0
LWPOLYLINE
  5
7DE1B343D9E05D2
330
7DE1B343D9E06FE
100
AcDbEntity
  8
TEXT
100
AcDbPolyline
 90
        2
 70
     0
 43
0.0001332181640625
 10
0.2871512270760088
 20
1.003005763467768
 10
0.3470994009041344
 20
0.9930144011630797
  0
LWPOLYLINE
  5
7DE1B343D9E05D6
330
7DE1B343D9E06FE
100
AcDbEntity
  8
TEXT
100
AcDbPolyline
 90
        2
 70
     0
 43
0.0001332181640625
 10
0.2605075942635113
 20
1.003005763467768
 10
0.3337775844978856
 20
0.9930144011630797
  0
LWPOLYLINE
  5
7DE1B343D9E05DA
330
7DE1B343D9E06FE
100
AcDbEntity
  8
TEXT
100
AcDbPolyline
 90
        2
 70
     0
 43
0.0006660908203125
 10
0.2871512270760088
 20
0.9630403142490205
 10
0.2605075942635113
 20
0.9630403142490205
  0
LWPOLYLINE
  5
7DE1B343D9E05DE
330
7DE1B343D9E06FE
100
AcDbEntity
  8
TEXT
100
AcDbPolyline
 90
        2
 70
     0
 43
0.0006660908203125
 10
0.2871512270760088
 20
1.003005763467768
 10
0.2605075942635113
 20
1.003005763467768
  0
LINE
  5
7DE1B343D9E05E2
330
7DE1B343D9E06FE
100
AcDbEntity
  8
TEXT
100
AcDbLine
 10
1.775698023390008
 20
1.051964508264127
 30
0.0
 11
1.668491750002719
 21
1.051964508264127
 31
0.0
  0
LINE
  5
7DE1B343D9E05E3
330
7DE1B343D9E06FE
100
AcDbEntity
  8
TEXT
100
AcDbLine
 10
1.804728921734487
 20
1.116241202920892
 30
0.0
 11
1.669897012517428
 21
1.116241202920892
 31
0.0
  0
ARC
  5
7DE1B343D9E05E4
330
7DE1B343D9E06FE
100
AcDbEntity
  8
TEXT
100
AcDbCircle
 10
1.729211108910745
 20
0.9470039536578763
 30
0.0
 40
0.0676855811441166
100
AcDbArc
 50
90.0
 51
153.7768192527749
  0
LWPOLYLINE
  5
7DE1B343D9E05E5
330
7DE1B343D9E06FE
100
AcDbEntity
  8
TEXT
100
AcDbPolyline
 90
        2
 70
     0
 43
0.0
 10
1.667459254547909
 20
0.8932591148828198
 42
0.2901071551932823
 10
1.710535187415544
 20
0.8497681699323816
 42
5.328517124445801
  0
ARC
  5
7DE1B343D9E05E9
330
7DE1B343D9E06FE
100
AcDbEntity
  8
TEXT
100
AcDbCircle
 10
1.024079731239259
 20
0.9095605612704314
 30
0.0
 40
0.0601160179737537
100
AcDbArc
 50
180.0000000000003
 51
264.0521544866073
  0
LINE
  5
7DE1B343D9E05EA
330
7DE1B343D9E06FE
100
AcDbEntity
  8
TEXT
100
AcDbLine
 10
1.027595086864807
 20
1.15062912051503
 30
0.0
 11
0.9675524820208
 21
1.15062912051503
 31
0.0
  0
ARC
  5
7DE1B343D9E05EB
330
7DE1B343D9E06FE
100
AcDbEntity
  8
TEXT
100
AcDbCircle
 10
0.7918207291222888
 20
1.03415374347439
 30
0.0
 40
0.0820874594465043
100
AcDbArc
 50
90.0
 51
270.0
  0
LWPOLYLINE
  5
7DE1B343D9E05EC
330
7DE1B343D9E06FE
100
AcDbEntity
  8
TEXT
100
AcDbPolyline
 90
        2
 70
     0
 43
0.0001332181640625
 10
0.3837343960213242
 20
1.042971212686516
 10
0.3737430337166336
 20
1.116241202920896
  0
LWPOLYLINE
  5
7DE1B343D9E05F0
330
7DE1B343D9E06FE
100
AcDbEntity
  8
TEXT
100
AcDbPolyline
 90
        2
 70
     0
 43
0.0001332181640625
 10
0.3737430337166336
 20
1.089597570108395
 10
0.3837343960213242
 20
1.029649396280269
  0
LWPOLYLINE
  5
7DE1B343D9E05F4
330
7DE1B343D9E06FE
100
AcDbEntity
  8
TEXT
100
AcDbPolyline
 90
        3
 70
     0
 43
0.0006660908203125
 10
0.5269439223885111
 20
1.003005763467768
 10
0.5269439223885111
 20
1.116241202920896
 10
0.4137084829353852
 20
1.116241202920896
  0
LWPOLYLINE
  5
7DE1B343D9E05F9
330
7DE1B343D9E06FE
100
AcDbEntity
  8
TEXT
100
AcDbPolyline
 90
        3
 70
     0
 43
0.0006660908203125
 10
0.5003002895760101
 20
1.003005763467768
 10
0.5003002895760101
 20
1.089597570108395
 10
0.4137084829353852
 20
1.089597570108395
  0
LWPOLYLINE
  5
7DE1B343D9E05FE
330
7DE1B343D9E06FE
100
AcDbEntity
  8
TEXT
100
AcDbPolyline
 90
        2
 70
     0
 43
0.0001332181640625
 10
0.5003002895760101
 20
1.089597570108395
 10
0.4403521157478863
 20
1.029649396280269
  0
LWPOLYLINE
  5
7DE1B343D9E0602
330
7DE1B343D9E06FE
100
AcDbEntity
  8
TEXT
100
AcDbPolyline
 90
        2
 70
     0
 43
0.0001332181640625
 10
0.4137084829353852
 20
1.089597570108395
 10
0.4037171206306965
 20
1.029649396280269
  0
LWPOLYLINE
  5
7DE1B343D9E0606
330
7DE1B343D9E06FE
100
AcDbEntity
  8
TEXT
100
AcDbPolyline
 90
        2
 70
     0
 43
0.0001332181640625
 10
0.4137084829353852
 20
1.116241202920896
 10
0.4037171206306965
 20
1.042971212686516
  0
LWPOLYLINE
  5
7DE1B343D9E060A
330
7DE1B343D9E06FE
100
AcDbEntity
  8
TEXT
100
AcDbPolyline
 90
        2
 70
     0
 43
0.0001332181640625
 10
0.453673932154135
 20
0.9930144011630797
 10
0.5269439223885111
 20
1.003005763467768
  0
LWPOLYLINE
  5
7DE1B343D9E060E
330
7DE1B343D9E06FE
100
AcDbEntity
  8
TEXT
100
AcDbPolyline
 90
        2
 70
     0
 43
0.0001332181640625
 10
0.5003002895760101
 20
1.003005763467768
 10
0.4403521157478863
 20
0.9930144011630797
  0
LWPOLYLINE
  5
7DE1B343D9E0612
330
7DE1B343D9E06FE
100
AcDbEntity
  8
TEXT
100
AcDbPolyline
 90
        2
 70
     0
 43
0.0001332181640625
 10
0.5269439223885111
 20
0.9630403142490205
 10
0.453673932154135
 20
0.9730316765537057
  0
LWPOLYLINE
  5
7DE1B343D9E0616
330
7DE1B343D9E06FE
100
AcDbEntity
  8
TEXT
100
AcDbPolyline
 90
        2
 70
     0
 43
0.0001332181640625
 10
0.5003002895760101
 20
0.9630403142490205
 10
0.4403521157478863
 20
0.9730316765537057
  0
LWPOLYLINE
  5
7DE1B343D9E061A
330
7DE1B343D9E06FE
100
AcDbEntity
  8
TEXT
100
AcDbPolyline
 90
        2
 70
     0
 43
0.0001332181640625
 10
0.5003002895760101
 20
0.8764485076083939
 10
0.4403521157478863
 20
0.9363966814365195
  0
LWPOLYLINE
  5
7DE1B343D9E061E
330
7DE1B343D9E06FE
100
AcDbEntity
  8
TEXT
100
AcDbPolyline
 90
        3
 70
     0
 43
0.0006660908203125
 10
0.4137084829353852
 20
0.8764485076083939
 10
0.5003002895760101
 20
0.8764485076083939
 10
0.5003002895760101
 20
0.9630403142490205
  0
LWPOLYLINE
  5
7DE1B343D9E0623
330
7DE1B343D9E06FE
100
AcDbEntity
  8
TEXT
100
AcDbPolyline
 90
        3
 70
     0
 43
0.0006660908203125
 10
0.4137084829353852
 20
0.8498048747958929
 10
0.5269439223885111
 20
0.8498048747958929
 10
0.5269439223885111
 20
0.9630403142490205
  0
LWPOLYLINE
  5
7DE1B343D9E0628
330
7DE1B343D9E06FE
100
AcDbEntity
  8
TEXT
100
AcDbPolyline
 90
        5
 70
     0
 43
0.0001332181640625
 10
0.3837343960213242
 20
0.923074865030269
 10
0.3837343960213242
 20
0.9363966814365195
 10
0.3470994009041362
 20
0.9363966814365195
 10
0.3470994009041362
 20
0.9730316765537057
 10
0.3337775844978856
 20
0.9730316765537057
  0
LWPOLYLINE
  5
7DE1B343D9E062F
330
7DE1B343D9E06FE
100
AcDbEntity
  8
TEXT
100
AcDbPolyline
 90
        2
 70
     0
 43
0.0006660908203125
 10
0.3737430337166336
 20
0.8764485076083939
 10
0.3737430337166336
 20
0.8498048747958929
  0
LWPOLYLINE
  5
7DE1B343D9E0633
330
7DE1B343D9E06FE
100
AcDbEntity
  8
TEXT
100
AcDbPolyline
 90
        2
 70
     0
 43
0.0001332181640625
 10
0.3737430337166336
 20
0.8764485076083939
 10
0.3837343960213242
 20
0.9363966814365195
  0
LWPOLYLINE
  5
7DE1B343D9E0637
330
7DE1B343D9E06FE
100
AcDbEntity
  8
TEXT
100
AcDbPolyline
 90
        2
 70
     0
 43
0.0001332181640625
 10
0.3737430337166336
 20
0.8498048747958929
 10
0.3837343960213242
 20
0.923074865030269
  0
LWPOLYLINE
  5
7DE1B343D9E063B
330
7DE1B343D9E06FE
100
AcDbEntity
  8
TEXT
100
AcDbPolyline
 90
        5
 70
     0
 43
0.0001332181640625
 10
0.3337775844978856
 20
0.9930144011630797
 10
0.3470994009041344
 20
0.9930144011630797
 10
0.3470994009041344
 20
1.029649396280269
 10
0.3837343960213242
 20
1.029649396280269
 10
0.3837343960213242
 20
1.042971212686516
  0
LWPOLYLINE
  5
7DE1B343D9E0642
330
7DE1B343D9E06FE
100
AcDbEntity
  8
TEXT
100
AcDbPolyline
 90
        5
 70
     0
 43
0.0001332181640625
 10
0.4037171206306965
 20
1.042971212686516
 10
0.4037171206306965
 20
1.029649396280269
 10
0.4403521157478863
 20
1.029649396280269
 10
0.4403521157478863
 20
0.9930144011630797
 10
0.453673932154135
 20
0.9930144011630797
  0
LWPOLYLINE
  5
7DE1B343D9E0649
330
7DE1B343D9E06FE
100
AcDbEntity
  8
TEXT
100
AcDbPolyline
 90
        2
 70
     0
 43
0.0001332181640625
 10
0.4137084829353852
 20
0.8764485076083939
 10
0.4037171206306965
 20
0.9363966814365195
  0
LWPOLYLINE
  5
7DE1B343D9E064D
330
7DE1B343D9E06FE
100
AcDbEntity
  8
TEXT
100
AcDbPolyline
 90
        2
 70
     0
 43
0.0001332181640625
 10
0.4037171206306965
 20
0.923074865030269
 10
0.4137084829353852
 20
0.8498048747958929
  0
LWPOLYLINE
  5
7DE1B343D9E0651
330
7DE1B343D9E06FE
100
AcDbEntity
  8
TEXT
100
AcDbPolyline
 90
        2
 70
     0
 43
0.0006660908203125
 10
0.4137084829353852
 20
0.8764485076083939
 10
0.4137084829353852
 20
0.8498048747958929
  0
LWPOLYLINE
  5
7DE1B343D9E0655
330
7DE1B343D9E06FE
100
AcDbEntity
  8
TEXT
100
AcDbPolyline
 90
        5
 70
     0
 43
0.0001332181640625
 10
0.453673932154135
 20
0.9730316765537057
 10
0.4403521157478863
 20
0.9730316765537057
 10
0.4403521157478863
 20
0.9363966814365195
 10
0.4037171206306965
 20
0.9363966814365195
 10
0.4037171206306965
 20
0.923074865030269
  0
LWPOLYLINE
  5
7DE1B343D9E065C
330
7DE1B343D9E06FE
100
AcDbEntity
  8
TEXT
100
AcDbPolyline
 90
        2
 70
     0
 43
0.0006660908203125
 10
0.5003002895760101
 20
1.003005763467768
 10
0.5269439223885111
 20
1.003005763467768
  0
LWPOLYLINE
  5
7DE1B343D9E0660
330
7DE1B343D9E06FE
100
AcDbEntity
  8
TEXT
100
AcDbPolyline
 90
        2
 70
     0
 43
0.0006660908203125
 10
0.5003002895760101
 20
0.9630403142490205
 10
0.5269439223885111
 20
0.9630403142490205
  0
LINE
  5
7DE1B343D9E0664
330
7DE1B343D9E06FE
100
AcDbEntity
  8
TEXT
100
AcDbLine
 10
0.797058059236536
 20
1.051964508264127
 30
0.0
 11
0.9639637132655071
 21
1.051964508264127
 31
0.0
  0
LINE
  5
7DE1B343D9E0665
330
7DE1B343D9E06FE
100
AcDbEntity
  8
TEXT
100
AcDbLine
 10
0.8626581954808369
 20
1.016159786653499
 30
0.0
 11
0.797058059236536
 21
1.016159786653499
 31
0.0
  0
LINE
  5
7DE1B343D9E0666
330
7DE1B343D9E06FE
100
AcDbEntity
  8
TEXT
100
AcDbLine
 10
0.7097332696757844
 20
0.8497681699323816
 30
0.0
 11
0.8626581954808369
 21
0.8497681699323816
 31
0.0
  0
LINE
  5
7DE1B343D9E0667
330
7DE1B343D9E06FE
100
AcDbEntity
  8
TEXT
100
AcDbLine
 10
0.8675985693871165
 20
0.9181251762658209
 30
0.0
 11
0.7097332696757826
 21
0.9181251762658209
 31
0.0
  0
LINE
  5
7DE1B343D9E0668
330
7DE1B343D9E06FE
100
AcDbEntity
  8
TEXT
100
AcDbLine
 10
0.7918207291222879
 20
0.9520662840278856
 30
0.0
 11
0.8675985693871165
 21
0.9520662840278856
 31
0.0
  0
ARC
  5
7DE1B343D9E0669
330
7DE1B343D9E06FE
100
AcDbEntity
  8
TEXT
100
AcDbCircle
 10
0.7970580592365369
 20
1.034062147458814
 30
0.0
 40
0.017902360805315
100
AcDbArc
 50
90.0
 51
270.0
  0
LINE
  5
7DE1B343D9E066A
330
7DE1B343D9E06FE
100
AcDbEntity
  8
TEXT
100
AcDbLine
 10
0.7097332696757826
 20
0.9181251762658209
 30
0.0
 11
0.7097332696757844
 21
0.8497681699323816
 31
0.0
  0
LINE
  5
7DE1B343D9E066B
330
7DE1B343D9E06FE
100
AcDbEntity
  8
TEXT
100
AcDbLine
 10
0.9639637132655071
 20
1.051964508264127
 30
0.0
 11
0.9639637132655071
 21
0.9095605612704314
 31
0.0
  0
ARC
  5
7DE1B343D9E066C
330
7DE1B343D9E06FE
100
AcDbEntity
  8
TEXT
100
AcDbCircle
 10
0.8626581954808379
 20
0.9329639782929387
 30
0.0
 40
0.0831958083605586
100
AcDbArc
 50
270.0
 51
90.0
  0
ARC
  5
7DE1B343D9E066D
330
7DE1B343D9E06FE
100
AcDbEntity
  8
TEXT
100
AcDbCircle
 10
0.8675985693871176
 20
0.935095730146855
 30
0.0
 40
0.0169705538810321
100
AcDbArc
 50
270.0
 51
90.0
  0
LWPOLYLINE
  5
7DE1B343D9E066E
330
7DE1B343D9E06FE
100
AcDbEntity
  8
TEXT
100
AcDbPolyline
 90
        2
 70
     0
 43
0.0006660908203125
 10
0.3737430337166336
 20
1.089597570108395
 10
0.3737430337166336
 20
1.116241202920896
  0
LWPOLYLINE
  5
7DE1B343D9E0672
330
7DE1B343D9E06FE
100
AcDbEntity
  8
TEXT
100
AcDbPolyline
 90
        2
 70
     0
 43
0.0006660908203125
 10
0.4137084829353852
 20
1.089597570108395
 10
0.4137084829353852
 20
1.116241202920896
  0
LINE
  5
7DE1B343D9E0676
330
7DE1B343D9E06FE
100
AcDbEntity
  8
TEXT
100
AcDbLine
 10
0.9675524820208
 20
1.116241202920892
 30
0.0
 11
0.7918207291222879
 21
1.116241202920892
 31
0.0
  0
LINE
  5
7DE1B343D9E0677
330
7DE1B343D9E06FE
100
AcDbEntity
  8
TEXT
100
AcDbLine
 10
0.9675524820208
 20
1.15062912051503
 30
0.0
 11
0.9675524820208
 21
1.116241202920892
 31
0.0
  0
LINE
  5
7DE1B343D9E0678
330
7DE1B343D9E06FE
100
AcDbEntity
  8
TEXT
100
AcDbLine
 10
1.158024374040652
 20
1.015369206807771
 30
0.0
 11
1.099394053008714
 21
1.116241202920892
 31
0.0
  0
LINE
  5
7DE1B343D9E0679
330
7DE1B343D9E06FE
100
AcDbEntity
  8
TEXT
100
AcDbLine
 10
1.216772936846517
 20
1.116241202920892
 30
0.0
 11
1.158024374040652
 21
1.015369206807771
 31
0.0
  0
LINE
  5
7DE1B343D9E067A
330
7DE1B343D9E06FE
100
AcDbEntity
  8
TEXT
100
AcDbLine
 10
1.313703562206259
 20
0.9321560080353808
 30
0.0
 11
1.313703562206259
 21
1.184252680659703
 31
0.0
  0
LINE
  5
7DE1B343D9E067B
330
7DE1B343D9E06FE
100
AcDbEntity
  8
TEXT
100
AcDbLine
 10
1.346015416343919
 20
1.116241202920892
 30
0.0
 11
1.346015416343919
 21
0.9153769961884844
 31
0.0
  0
LINE
  5
7DE1B343D9E067C
330
7DE1B343D9E06FE
100
AcDbEntity
  8
TEXT
100
AcDbLine
 10
1.346015416343919
 20
0.9153769961884844
 30
0.0
 11
1.329021779459317
 21
0.9153769961884844
 31
0.0
  0
LINE
  5
7DE1B343D9E067D
330
7DE1B343D9E06FE
100
AcDbEntity
  8
TEXT
100
AcDbLine
 10
1.314843135702453
 20
0.8497681699323816
 30
0.0
 11
1.412846469401888
 21
0.8497681699323816
 31
0.0
  0
LINE
  5
7DE1B343D9E067E
330
7DE1B343D9E06FE
100
AcDbEntity
  8
TEXT
100
AcDbLine
 10
1.148424137043698
 20
0.8697266760373945
 30
0.0
 11
1.245723843137142
 21
1.034076886972662
 31
0.0
  0
ARC
  5
7DE1B343D9E067F
330
7DE1B343D9E06FE
100
AcDbEntity
  8
TEXT
100
AcDbCircle
 10
1.114380577131484
 20
0.8893158922060774
 30
0.0
 40
0.0392772371940762
100
AcDbArc
 50
270.1604552698595
 51
330.0831797321295
  0
LINE
  5
7DE1B343D9E0680
330
7DE1B343D9E06FE
100
AcDbEntity
  8
TEXT
100
AcDbLine
 10
1.017850320745612
 20
0.8497681699323816
 30
0.0
 11
1.114490571820607
 21
0.8500388090306639
 31
0.0
  0
LWPOLYLINE
  5
7DE1B343D9E0681
330
7DE1B343D9E06FE
100
AcDbEntity
  8
TEXT
100
AcDbPolyline
 90
        6
 70
     1
 43
0.0
 10
1.060374124320762
 20
1.051964508264127
 10
1.030057530100554
 20
1.051964508264127
 10
1.030057530100554
 20
0.9288535102092328
 42
0.407328721240804
 10
1.04160118126203
 20
0.9170345955328468
 10
1.102222880306761
 20
0.9170345955328468
 10
1.119688220714079
 20
0.9498468245763259
  0
LINE
  5
7DE1B343D9E0689
330
7DE1B343D9E06FE
100
AcDbEntity
  8
TEXT
100
AcDbLine
 10
1.245723843137142
 20
1.034076886972662
 30
0.0
 11
1.245723843137142
 21
0.9013195121473064
 31
0.0
  0
ARC
  5
7DE1B343D9E068A
330
7DE1B343D9E06FE
100
AcDbEntity
  8
TEXT
100
AcDbCircle
 10
1.329021779459316
 20
0.9307588024319098
 30
0.0
 40
0.0153818062434269
100
AcDbArc
 50
174.7883570302258
 51
270.0
  0
LWPOLYLINE
  5
7DE1B343D9E068B
330
7DE1B343D9E06FE
100
AcDbEntity
  8
TEXT
100
AcDbPolyline
 90
        2
 70
     0
 43
0.0
 10
1.24572384313714
 20
0.9013195121473099
 42
0.3318488747599744
 10
1.314843135702453
 20
0.8497681699323816
 42
-6.868794160588311
  0
LINE
  5
7DE1B343D9E068F
330
7DE1B343D9E06FE
100
AcDbEntity
  8
TEXT
100
AcDbLine
 10
1.470235538391149
 20
0.8497681699323816
 30
0.0
 11
1.537293585172989
 21
0.8497681699323816
 31
0.0
  0
LINE
  5
7DE1B343D9E0690
330
7DE1B343D9E06FE
100
AcDbEntity
  8
TEXT
100
AcDbLine
 10
1.470235538391149
 20
1.044410719098017
 30
0.0
 11
1.470235538391149
 21
0.8497681699323816
 31
0.0
  0
LINE
  5
7DE1B343D9E0691
330
7DE1B343D9E06FE
100
AcDbEntity
  8
TEXT
100
AcDbLine
 10
1.412846469401888
 20
1.051964508264127
 30
0.0
 11
1.462681749225036
 21
1.051964508264127
 31
0.0
  0
LINE
  5
7DE1B343D9E0692
330
7DE1B343D9E06FE
100
AcDbEntity
  8
TEXT
100
AcDbLine
 10
1.412846469401888
 20
0.8497681699323816
 30
0.0
 11
1.412846469401888
 21
1.051964508264127
 31
0.0
  0
LWPOLYLINE
  5
7DE1B343D9E0693
330
7DE1B343D9E06FE
100
AcDbEntity
  8
TEXT
100
AcDbPolyline
 90
        2
 70
     0
 43
0.0
 10
1.462681749225034
 20
1.051964508264127
 42
-0.4142135623731017
 10
1.470235538391147
 20
1.044410719098017
 42
-0.9999999999999998
  0
LINE
  5
7DE1B343D9E0697
330
7DE1B343D9E06FE
100
AcDbEntity
  8
TEXT
100
AcDbLine
 10
1.668491750002719
 20
1.051964508264127
 30
0.0
 11
1.668491750002719
 21
0.9769121021899206
 31
0.0
  0
LINE
  5
7DE1B343D9E0698
330
7DE1B343D9E06FE
100
AcDbEntity
  8
TEXT
100
AcDbLine
 10
1.537293585172989
 20
1.051964508264127
 30
0.0
 11
1.591427182093939
 21
1.051964508264127
 31
0.0
  0
LINE
  5
7DE1B343D9E0699
330
7DE1B343D9E06FE
100
AcDbEntity
  8
TEXT
100
AcDbLine
 10
1.537293585172989
 20
0.8497681699323816
 30
0.0
 11
1.537293585172989
 21
1.051964508264127
 31
0.0
  0
LWPOLYLINE
  5
7DE1B343D9E069A
330
7DE1B343D9E06FE
100
AcDbEntity
  8
TEXT
100
AcDbPolyline
 90
        2
 70
     0
 43
0.0
 10
1.591427182093938
 20
1.051964508264127
 42
-0.4142135623731017
 10
1.598980971260051
 20
1.044410719098017
 42
-0.9999999999999998
  0
LWPOLYLINE
  5
7DE1B343D9E069E
330
7DE1B343D9E06FE
100
AcDbEntity
  8
TEXT
100
AcDbPolyline
 90
        4
 70
     0
 43
0.0
 10
1.598980971260051
 20
1.044410719098017
 10
1.598980971260051
 20
0.8497681699323816
 10
1.667459254547909
 20
0.8497681699323816
 10
1.667459254547909
 20
0.8932591148828198
 42
-1.714843617202739
  0
LINE
  5
7DE1B343D9E06A4
330
7DE1B343D9E06FE
100
AcDbEntity
  8
TEXT
100
AcDbLine
 10
1.027595086864807
 20
1.116241202920892
 30
0.0
 11
1.027595086864807
 21
1.15062912051503
 31
0.0
  0
LINE
  5
7DE1B343D9E06A5
330
7DE1B343D9E06FE
100
AcDbEntity
  8
TEXT
100
AcDbLine
 10
1.099394053008714
 20
1.116241202920892
 30
0.0
 11
1.027595086864807
 21
1.116241202920892
 31
0.0
  0
LINE
  5
7DE1B343D9E06A6
330
7DE1B343D9E06FE
100
AcDbEntity
  8
TEXT
100
AcDbLine
 10
1.246894849639894
 20
1.116241202920892
 30
0.0
 11
1.216772936846517
 21
1.116241202920892
 31
0.0
  0
LINE
  5
7DE1B343D9E06A7
330
7DE1B343D9E06FE
100
AcDbEntity
  8
TEXT
100
AcDbLine
 10
1.246894849639894
 20
1.184252680659703
 30
0.0
 11
1.246894849639894
 21
1.116241202920892
 31
0.0
  0
LINE
  5
7DE1B343D9E06A8
330
7DE1B343D9E06FE
100
AcDbEntity
  8
TEXT
100
AcDbLine
 10
1.313703562206259
 20
1.184252680659703
 30
0.0
 11
1.246894849639894
 21
1.184252680659703
 31
0.0
  0
LWPOLYLINE
  5
7DE1B343D9E06A9
330
7DE1B343D9E06FE
100
AcDbEntity
  8
TEXT
100
AcDbPolyline
 90
        3
 70
     0
 43
0.0
 10
1.634115321804261
 20
1.116241202920896
 10
1.515815162988217
 20
1.116241202920896
 10
1.515815162988217
 20
1.08907370616
 42
-1.960274751411753
  0
LINE
  5
7DE1B343D9E06AE
330
7DE1B343D9E06FE
100
AcDbEntity
  8
TEXT
100
AcDbLine
 10
1.480033472275055
 20
1.116241202920892
 30
0.0
 11
1.346015416343919
 21
1.116241202920892
 31
0.0
  0
LWPOLYLINE
  5
7DE1B343D9E06AF
330
7DE1B343D9E06FE
100
AcDbEntity
  8
TEXT
100
AcDbPolyline
 90
        2
 70
     0
 43
0.0
 10
1.480033472275055
 20
1.116241202920896
 42
-0.3328679258950098
 10
1.515815162988217
 20
1.08907370616
 42
6.772930709997214
  0
LINE
  5
7DE1B343D9E06B3
330
7DE1B343D9E06FE
100
AcDbEntity
  8
TEXT
100
AcDbLine
 10
1.669897012517428
 20
1.116241202920892
 30
0.0
 11
1.669897012517428
 21
1.087918657151248
 31
0.0
  0
LWPOLYLINE
  5
7DE1B343D9E06B4
330
7DE1B343D9E06FE
100
AcDbEntity
  8
TEXT
100
AcDbPolyline
 90
        2
 70
     0
 43
0.0
 10
1.634115321804261
 20
1.116241202920896
 42
-0.3277054968067132
 10
1.669897012517426
 20
1.087918657151252
 42
6.667889725900311
  0
LINE
  5
7DE1B343D9E06B8
330
7DE1B343D9E06FE
100
AcDbEntity
  8
TEXT
100
AcDbLine
 10
1.883688860609528
 20
1.011029224367465
 30
0.0
 11
1.839938089427626
 21
1.09327950036361
 31
0.0
  0
LINE
  5
7DE1B343D9E06B9
330
7DE1B343D9E06FE
100
AcDbEntity
  8
TEXT
100
AcDbLine
 10
1.883688860609528
 20
1.116241202920892
 30
0.0
 11
1.883688860609528
 21
1.011029224367465
 31
0.0
  0
LINE
  5
7DE1B343D9E06BA
330
7DE1B343D9E06FE
100
AcDbEntity
  8
TEXT
100
AcDbLine
 10
2.111372599547897
 20
1.040375876509354
 30
0.0
 11
2.111372599547897
 21
1.181705408688493
 31
0.0
  0
LINE
  5
7DE1B343D9E06BB
330
7DE1B343D9E06FE
100
AcDbEntity
  8
TEXT
100
AcDbLine
 10
2.158470758103881
 20
1.116241202920892
 30
0.0
 11
2.111372599547897
 21
1.040375876509354
 31
0.0
  0
LINE
  5
7DE1B343D9E06BC
330
7DE1B343D9E06FE
100
AcDbEntity
  8
TEXT
100
AcDbLine
 10
2.168905474867804
 20
1.006347959979918
 30
0.0
 11
2.233462590833509
 21
1.116241202920892
 31
0.0
  0
LINE
  5
7DE1B343D9E06BD
330
7DE1B343D9E06FE
100
AcDbEntity
  8
TEXT
100
AcDbLine
 10
2.047537608325124
 20
0.8497681699323816
 30
0.0
 11
2.111915792643744
 21
0.8497681699323816
 31
0.0
  0
LWPOLYLINE
  5
7DE1B343D9E06BE
330
7DE1B343D9E06FE
100
AcDbEntity
  8
TEXT
100
AcDbPolyline
 90
        2
 70
     0
 43
0.0
 10
1.887628537914565
 20
0.8932591148828198
 42
-0.2901071551932486
 10
1.844552605046921
 20
0.8497681699323816
 42
-5.328517124445184
  0
ARC
  5
7DE1B343D9E06C2
330
7DE1B343D9E06FE
100
AcDbEntity
  8
TEXT
100
AcDbCircle
 10
1.775698023390007
 20
1.023605133264129
 30
0.0
 40
0.028359375
100
AcDbArc
 50
25.78218179591245
 51
90.0
  0
LINE
  5
7DE1B343D9E06C3
330
7DE1B343D9E06FE
100
AcDbEntity
  8
TEXT
100
AcDbLine
 10
1.81149909869413
 20
1.014689534801994
 30
0.0
 11
1.801234338280565
 21
1.035940074374689
 31
0.0
  0
LINE
  5
7DE1B343D9E06C4
330
7DE1B343D9E06FE
100
AcDbEntity
  8
TEXT
100
AcDbLine
 10
1.729211108910746
 20
1.014689534801994
 30
0.0
 11
1.81149909869413
 21
1.014689534801994
 31
0.0
  0
LWPOLYLINE
  5
7DE1B343D9E06C5
330
7DE1B343D9E06FE
100
AcDbEntity
  8
TEXT
100
AcDbPolyline
 90
        4
 70
     1
 43
0.0
 10
1.824430139977028
 20
0.9527321479164069
 10
1.73576982131717
 20
0.9527321479164069
 42
0.9999999999999998
 10
1.73576982131717
 20
0.9103336074125461
 10
1.824430139977028
 20
0.9103336074125461
 42
1.0
  0
LWPOLYLINE
  5
7DE1B343D9E06CB
330
7DE1B343D9E06FE
100
AcDbEntity
  8
TEXT
100
AcDbPolyline
 90
        2
 70
     0
 43
0.0
 10
1.710535187415544
 20
0.8497681699323816
 10
1.844552605046921
 20
0.8497681699323816
 42
0.9999999999999998
  0
LINE
  5
7DE1B343D9E06CF
330
7DE1B343D9E06FE
100
AcDbEntity
  8
TEXT
100
AcDbLine
 10
1.970889627032561
 20
1.051964508264127
 30
0.0
 11
2.047537608325118
 21
1.051964508264127
 31
0.0
  0
LINE
  5
7DE1B343D9E06D0
330
7DE1B343D9E06FE
100
AcDbEntity
  8
TEXT
100
AcDbLine
 10
2.047537608325118
 20
1.051964508264127
 30
0.0
 11
2.047537608325124
 21
0.8497681699323816
 31
0.0
  0
ARC
  5
7DE1B343D9E06D1
330
7DE1B343D9E06FE
100
AcDbEntity
  8
TEXT
100
AcDbCircle
 10
1.970889627032559
 20
1.027058632981464
 30
0.0
 40
0.0249058752826653
100
AcDbArc
 50
89.99971217465335
 51
179.9999999999985
  0
LINE
  5
7DE1B343D9E06D2
330
7DE1B343D9E06FE
100
AcDbEntity
  8
TEXT
100
AcDbLine
 10
1.945983751749901
 20
0.8497681699323816
 30
0.0
 11
1.945983751749896
 21
1.027058675363849
 31
0.0
  0
LWPOLYLINE
  5
7DE1B343D9E06D3
330
7DE1B343D9E06FE
100
AcDbEntity
  8
TEXT
100
AcDbPolyline
 90
        2
 70
     0
 43
0.0
 10
1.887628537914565
 20
0.8497681699323816
 10
1.9459837517499
 20
0.8497681699323816
  0
LWPOLYLINE
  5
7DE1B343D9E06D7
330
7DE1B343D9E06FE
100
AcDbEntity
  8
TEXT
100
AcDbPolyline
 90
        2
 70
     0
 43
0.0
 10
1.887628537914565
 20
0.8932591148828198
 10
1.887628537914565
 20
0.8497681699323816
  0
LINE
  5
7DE1B343D9E06DB
330
7DE1B343D9E06FE
100
AcDbEntity
  8
TEXT
100
AcDbLine
 10
2.264397698231415
 20
0.8497681699323816
 30
0.0
 11
2.168905474867804
 21
1.006347959979918
 31
0.0
  0
LINE
  5
7DE1B343D9E06DC
330
7DE1B343D9E06FE
100
AcDbEntity
  8
TEXT
100
AcDbLine
 10
2.187819325855209
 20
0.8497681699323816
 30
0.0
 11
2.264397698231415
 21
0.8497681699323816
 31
0.0
  0
LINE
  5
7DE1B343D9E06DD
330
7DE1B343D9E06FE
100
AcDbEntity
  8
TEXT
100
AcDbLine
 10
2.111915792643744
 20
0.9813477384085619
 30
0.0
 11
2.187819325855209
 21
0.8497681699323816
 31
0.0
  0
LINE
  5
7DE1B343D9E06DE
330
7DE1B343D9E06FE
100
AcDbEntity
  8
TEXT
100
AcDbLine
 10
2.111915792643744
 20
0.8497681699323816
 30
0.0
 11
2.111915792643744
 21
0.9813477384085619
 31
0.0
  0
LINE
  5
7DE1B343D9E06DF
330
7DE1B343D9E06FE
100
AcDbEntity
  8
TEXT
100
AcDbLine
 10
2.111372599547897
 20
1.181705408688493
 30
0.0
 11
2.043057720998624
 21
1.181705408688493
 31
0.0
  0
ARC
  5
7DE1B343D9E06E0
330
7DE1B343D9E06FE
100
AcDbEntity
  8
TEXT
100
AcDbCircle
 10
1.802701981957417
 20
1.07465763579999
 30
0.0
 40
0.0416329381542859
100
AcDbArc
 50
26.56974201007528
 51
87.20939649401342
  0
LINE
  5
7DE1B343D9E06E1
330
7DE1B343D9E06FE
100
AcDbEntity
  8
TEXT
100
AcDbLine
 10
1.947585766909029
 20
1.116241202920892
 30
0.0
 11
1.883688860609528
 21
1.116241202920892
 31
0.0
  0
LINE
  5
7DE1B343D9E06E2
330
7DE1B343D9E06FE
100
AcDbEntity
  8
TEXT
100
AcDbLine
 10
1.947585766909029
 20
1.088693553060017
 30
0.0
 11
1.947585766909029
 21
1.116241202920892
 31
0.0
  0
ARC
  5
7DE1B343D9E06E3
330
7DE1B343D9E06FE
100
AcDbEntity
  8
TEXT
100
AcDbCircle
 10
1.978778583972136
 20
1.084995475638627
 30
0.0
 40
0.0314112657011332
100
AcDbArc
 50
95.88484768694724
 51
173.2388340632136
  0
LINE
  5
7DE1B343D9E06E4
330
7DE1B343D9E06FE
100
AcDbEntity
  8
TEXT
100
AcDbLine
 10
2.043057720998618
 20
1.116241202920892
 30
0.0
 11
1.975558003349102
 21
1.116241202920892
 31
0.0
  0
LINE
  5
7DE1B343D9E06E5
330
7DE1B343D9E06FE
100
AcDbEntity
  8
TEXT
100
AcDbLine
 10
2.043057720998624
 20
1.181705408688493
 30
0.0
 11
2.043057720998618
 21
1.116241202920892
 31
0.0
  0
LINE
  5
7DE1B343D9E06E6
330
7DE1B343D9E06FE
100
AcDbEntity
  8
TEXT
100
AcDbLine
 10
2.233462590833509
 20
1.116241202920892
 30
0.0
 11
2.158470758103883
 21
1.116241202920892
 31
0.0
  0
INSERT
  5
7DE1B343D9E0719
330
7DE1B343D9E06FE
100
AcDbEntity
  8
ASHADE
 62
     1
100
AcDbBlockReference
  2
AVE_RENDER
 10
0.0
 20
0.0
 30
0.0
1001
AVE_RENDER
1002
{
1070
     6
1000
Pref
1070
    30
1070
    20
1070
     1
1070
     0
1000

1070
    10
1070
     1
1070
    30
1040
1.0
1070
     1
1040
0.3
1040
0.7
1040
0.0
1040
10.0
1010
-1.0
1020
-1.0
1030
-1.0
1040
0.3
1070
    49
1070
     0
1070
     0
1010
1.0
1020
1.0
1030
1.0
1040
45.0
1070
     1
1070
     0
1000
WCS
1040
0.0
1002
}
  0
INSERT
  5
7DE1B343D9E071A
330
7DE1B343D9E06FE
100
AcDbEntity
  8
ASHADE
 62
     3
100
AcDbBlockReference
  2
AVE_RENDER
 10
0.0
 20
0.0
 30
0.0
1001
AVE_RENDER
1002
{
1070
     0
1000
Full Opt
1070
     0
1070
     1
1070
     1
1070
     1
1070
     0
1070
     0
1070
     0
1070
     1
1070
     1
1040
0.0001
1040
0.0001
1002
}
  0
INSERT
  5
7DE1B343D9E071B
330
7DE1B343D9E06FE
100
AcDbEntity
  8
ASHADE
 62
     4
100
AcDbBlockReference
  2
AVE_RENDER
 10
0.0
 20
0.0
 30
0.0
1001
AVE_RENDER
1002
{
1070
     0
1000
Quick Opt
1070
     0
1070
     1
1070
     1
1070
     1
1070
     0
1070
     0
1070
     1
1002
}
  0
INSERT
  5
7DE1B343D9E071C
330
7DE1B343D9E06FE
100
AcDbEntity
  8
ASHADE
 62
     5
100
AcDbBlockReference
  2
AVE_RENDER
 10
0.0
 20
0.0
 30
0.0
1001
AVE_RENDER
1002
{
1070
     1
1000
Scanl Opt
1070
     2
1070
     0
1070
     2
1040
2.0
1040
4.0
1070
     0
1070
     1
1070
     0
1040
0.03
1002
}
  0
INSERT
  5
7DE1B343D9E071D
330
7DE1B343D9E06FE
100
AcDbEntity
  8
ASHADE
 62
     6
100
AcDbBlockReference
  2
AVE_RENDER
 10
0.0
 20
0.0
 30
0.0
1001
AVE_RENDER
1002
{
1070
     2
1000
Raytr Opt
1070
     2
1070
     0
1070
     2
1040
2.0
1040
4.0
1070
     0
1070
     1
1070
     1
1040
0.03
1070
     3
1040
0.03
1002
}
  0
INSERT
  5
7DE1B343D9E071E
330
7DE1B343D9E06FE
100
AcDbEntity
  8
ASHADE
 62
     7
100
AcDbBlockReference
  2
AVE_RENDER
 10
0.0
 20
0.0
 30
0.0
1001
AVE_RENDER
1002
{
1070
     0
1000
RFile Opt
1070
     5
1070
   640
1070
   480
1070
 10000
1070
     3
1070
    32
1070
    24
1070
     0
1070
     0
1070
     0
1070
     1
1070
     0
1070
     0
1070
     0
1002
}
  0
INSERT
  5
7DE1B343D9E071F
330
7DE1B343D9E06FE
100
AcDbEntity
  8
ASHADE
 62
     8
100
AcDbBlockReference
  2
AVE_RENDER
 10
0.0
 20
0.0
 30
0.0
1001
AVE_RENDER
1002
{
1070
     0
1000
Fog Opt
1070
     0
1070
     0
1040
0.0
1040
1.0
1040
0.0
1040
1.0
1010
0.5
1020
0.5
1030
0.5
1002
}
  0
INSERT
  5
7DE1B343D9E0720
330
7DE1B343D9E06FE
100
AcDbEntity
  8
ASHADE
 62
     9
100
AcDbBlockReference
  2
AVE_RENDER
 10
0.0
 20
0.0
 30
0.0
1001
AVE_RENDER
1002
{
1070
     0
1000
BG Opt
1070
     0
1070
     1
1010
0.0
1020
0.0
1030
0.0
1010
1.0
1020
0.0
1030
0.0
1010
0.0
1020
1.0
1030
0.0
1010
0.0
1020
0.0
1030
1.0
1040
0.5
1040
0.33
1040
0.0
1000

1070
     1
1000

1070
     1
1070
     1
1040
1.0
1040
1.0
1040
0.0
1040
0.0
1070
     0
1002
}
  0
INSERT
  5
7DE1B343D9E0727
330
7DE1B343D9E06FE
100
AcDbEntity
  8
ASHADE
 62
     1
100
AcDbBlockReference
  2
AVE_GLOBAL
 10
0.0
 20
0.0
 30
0.0
1001
AVE_MATERIAL
1002
{
1000
*GLOBAL*
1000
1
1000
Global finish.
1002
{
1002
}
1002
{
1070
    63
1002
{
1002
{
1010
-1.0
1020
-1.0
1030
-1.0
1002
}
1040
0.1000000014901161
1000

1040
0.0
1002
{
1002
}
1040
0.0
1002
{
1002
}
1040
0.0
1002
}
1002
{
1002
{
1010
-1.0
1020
-1.0
1030
-1.0
1002
}
1040
0.6999999880790711
1000

1040
0.0
1002
{
1002
}
1040
0.0
1002
{
1002
}
1040
0.0
1002
}
1002
{
1002
{
1010
-1.0
1020
-1.0
1030
-1.0
1002
}
1040
0.2000000029802322
1000

1040
0.0
1002
{
1002
}
1040
0.0
1002
{
1002
}
1040
0.0
1002
}
1002
{
1070
     0
1002
{
1070
     1
1002
{
1040
1.0
1040
1.0
1000

1040
0.0
1002
{
1002
}
1040
0.0
1002
{
1002
}
1040
0.0
1002
}
1002
}
1040
1.0
1040
0.0
1040
0.0
1002
}
1002
{
1040
1.0
1040
1.0
1000

1040
0.0
1002
{
1002
}
1040
0.0
1002
{
1002
}
1040
0.0
1002
}
1002
{
1040
0.5
1040
1.0
1000

1040
0.0
1002
{
1002
}
1040
0.0
1002
{
1002
}
1040
0.0
1002
}
1002
{
1070
     0
1040
0.0
1002
{
1002
}
1040
1.0
1002
{
1002
}
1040
0.0
1002
}
1002
{
1040
0.0
1002
{
1002
{
1010
0.0
1020
0.0
1030
0.0
1002
}
1040
1.0
1000

1040
0.0
1002
{
1002
}
1040
0.0
1002
{
1002
}
1040
0.0
1002
}
1002
}
1002
{
1002
{
1070
     1
1002
{
1040
0.0
1040
1.0
1000

1040
0.0
1002
{
1002
}
1040
0.0
1002
{
1002
}
1040
0.0
1002
}
1002
}
1040
0.0
1002
{
1002
}
1010
1.0
1020
0.0
1030
0.0
1010
0.0
1020
1.0
1030
0.0
1010
0.0
1020
0.0
1030
1.0
1070
     0
1002
}
1002
{
1002
{
1040
1.0
1040
1.0
1002
{
1070
     1
1002
{
1040
1.0
1040
1.0
1000

1040
0.0
1002
{
1002
}
1040
0.0
1002
{
1002
}
1040
0.0
1002
}
1002
}
1002
}
1070
     0
1040
0.0
1002
{
1002
}
1002
}
1002
{
1002
}
1002
}
1002
{
1071
        3
1070
     3
1070
     0
1002
{
1070
     2
1070
     0
1070
     0
1040
0.0
1002
}
1070
     0
1070
     2
1002
{
1002
}
1002
}
1002
{
1040
8030.0
1040
190.3000030517578
1040
0.3050000071525574
1040
228.0
1040
545.0
1040
14.0
1040
17.39999961853027
1040
0.4560000002384186
1002
}
1002
}
  0
ENDSEC
  0
SECTION
  2
OBJECTS
  0
DICTIONARY
  5
7DE1B343D9E06F2
330
0
100
AcDbDictionary
  3
ACAD_GROUP
350
7DE1B343D9E06F3
  3
ACAD_LAYOUT
350
7DE1B343D9E0733
  3
ACAD_MLINESTYLE
350
7DE1B343D9E06F4
  3
ACAD_PLOTSETTINGS
350
7DE1B343D9E0734
  3
ACAD_PLOTSTYLENAME
350
7DE1B343D9E0731
  3
ACDBHEADERROUNDTRIPXREC
350
7DE1B343D9E073E
  3
ACDBVARIABLEDICTIONARY
350
7DE1B343D9E073B
  0
DICTIONARY
  5
7DE1B343D9E0760
330
7DE1B343D9E06FE
100
AcDbDictionary
280
     1
  3
ACAD_LAYOUTSELFREF
360
7DE1B343D9E0761
  0
DICTIONARY
  5
7DE1B343D9E075E
330
7DE1B343D9E06FB
100
AcDbDictionary
280
     1
  3
ACAD_LAYOUTSELFREF
360
7DE1B343D9E075F
  0
DICTIONARY
  5
7DE1B343D9E06F3
102
{ACAD_REACTORS
330
7DE1B343D9E06F2
102
}
330
7DE1B343D9E06F2
100
AcDbDictionary
  0
DICTIONARY
  5
7DE1B343D9E0733
102
{ACAD_REACTORS
330
7DE1B343D9E06F2
102
}
330
7DE1B343D9E06F2
100
AcDbDictionary
  0
DICTIONARY
  5
7DE1B343D9E06F4
102
{ACAD_REACTORS
330
7DE1B343D9E06F2
102
}
330
7DE1B343D9E06F2
100
AcDbDictionary
  3
STANDARD
350
7DE1B343D9E0701
  0
DICTIONARY
  5
7DE1B343D9E0734
102
{ACAD_REACTORS
330
7DE1B343D9E06F2
102
}
330
7DE1B343D9E06F2
100
AcDbDictionary
  0
ACDBDICTIONARYWDFLT
  5
7DE1B343D9E0731
102
{ACAD_REACTORS
330
7DE1B343D9E06F2
102
}
330
7DE1B343D9E06F2
100
AcDbDictionary
281
     1
  3
Normal
350
7DE1B343D9E0732
100
AcDbDictionaryWithDefault
340
7DE1B343D9E0732
  0
DICTIONARY
  5
7DE1B343D9E073E
102
{ACAD_REACTORS
330
7DE1B343D9E06F2
102
}
330
7DE1B343D9E06F2
100
AcDbDictionary
  3
CEPSNTYPE
350
7DE1B343D9E0748
  3
FINGERPRINTGUID
350
7DE1B343D9E0749
  3
HYPERLINKBASE
350
7DE1B343D9E0741
  3
INSUNITS
350
7DE1B343D9E0747
  3
LAYOUTDICT
350
7DE1B343D9E0743
  3
LWETCUNION
350
7DE1B343D9E0746
  3
PLOTSETDICT
350
7DE1B343D9E0744
  3
PLOTSTYLNAMDICT
350
7DE1B343D9E0745
  3
PSVPSCALE
350
7DE1B343D9E074B
  3
PUCSBASE
350
7DE1B343D9E074E
  3
PUCSORGBACK
350
7DE1B343D9E0754
  3
PUCSORGBOTTOM
350
7DE1B343D9E0750
  3
PUCSORGFRONT
350
7DE1B343D9E0753
  3
PUCSORGLEFT
350
7DE1B343D9E0751
  3
PUCSORGRIGHT
350
7DE1B343D9E0752
  3
PUCSORGTOP
350
7DE1B343D9E074F
  3
PUCSORTHOREF
350
7DE1B343D9E074C
  3
PUCSORTHOVIEW
350
7DE1B343D9E074D
  3
STYLESHEET
350
7DE1B343D9E0742
  3
TSTACKALIGN
350
7DE1B343D9E073F
  3
TSTACKSIZE
350
7DE1B343D9E0740
  3
UCSBASE
350
7DE1B343D9E0757
  3
UCSORGBACK
350
7DE1B343D9E075D
  3
UCSORGBOTTOM
350
7DE1B343D9E0759
  3
UCSORGFRONT
350
7DE1B343D9E075C
  3
UCSORGLEFT
350
7DE1B343D9E075A
  3
UCSORGRIGHT
350
7DE1B343D9E075B
  3
UCSORGTOP
350
7DE1B343D9E0758
  3
UCSORTHOREF
350
7DE1B343D9E0755
  3
UCSORTHOVIEW
350
7DE1B343D9E0756
  3
VERSIONGUID
350
7DE1B343D9E074A
  0
DICTIONARY
  5
7DE1B343D9E073B
102
{ACAD_REACTORS
330
7DE1B343D9E06F2
102
}
330
7DE1B343D9E06F2
100
AcDbDictionary
  3
DIMASSOC
350
7DE1B343D9E073C
  0
XRECORD
  5
7DE1B343D9E0761
102
{ACAD_REACTORS
330
7DE1B343D9E0760
102
}
330
7DE1B343D9E0760
100
AcDbXrecord
340
7DE1B343D9E06FE
  0
XRECORD
  5
7DE1B343D9E075F
102
{ACAD_REACTORS
330
7DE1B343D9E075E
102
}
330
7DE1B343D9E075E
100
AcDbXrecord
340
7DE1B343D9E06FB
  0
MLINESTYLE
  5
7DE1B343D9E0701
102
{ACAD_REACTORS
330
7DE1B343D9E06F4
102
}
330
7DE1B343D9E06F4
100
AcDbMlineStyle
  2
STANDARD
 70
     0
  3

 62
     0
 51
90.0
 52
90.0
 71
     2
 49
0.5
 62
   256
  6
BYLAYER
 49
-0.5
 62
   256
  6
BYLAYER
  0
ACDBPLACEHOLDER
  5
7DE1B343D9E0732
102
{ACAD_REACTORS
330
7DE1B343D9E0731
102
}
330
7DE1B343D9E0731
100
AcDbPlaceHolder
280
     0
  0
XRECORD
  5
7DE1B343D9E0748
102
{ACAD_REACTORS
330
7DE1B343D9E073E
102
}
330
7DE1B343D9E073E
100
AcDbXrecord
 90
        0
  0
XRECORD
  5
7DE1B343D9E0749
102
{ACAD_REACTORS
330
7DE1B343D9E073E
102
}
330
7DE1B343D9E073E
100
AcDbXrecord
  1
{D1FA0E40-8DB6-11D6-88E6-0090279574E7}
  0
XRECORD
  5
7DE1B343D9E0741
102
{ACAD_REACTORS
330
7DE1B343D9E073E
102
}
330
7DE1B343D9E073E
100
AcDbXrecord
  1

  0
XRECORD
  5
7DE1B343D9E0747
102
{ACAD_REACTORS
330
7DE1B343D9E073E
102
}
330
7DE1B343D9E073E
100
AcDbXrecord
 90
        0
  0
XRECORD
  5
7DE1B343D9E0743
102
{ACAD_REACTORS
330
7DE1B343D9E073E
102
}
330
7DE1B343D9E073E
100
AcDbXrecord
340
7DE1B343D9E0733
  0
XRECORD
  5
7DE1B343D9E0746
102
{ACAD_REACTORS
330
7DE1B343D9E073E
102
}
330
7DE1B343D9E073E
100
AcDbXrecord
 90
    14877
  0
XRECORD
  5
7DE1B343D9E0744
102
{ACAD_REACTORS
330
7DE1B343D9E073E
102
}
330
7DE1B343D9E073E
100
AcDbXrecord
340
7DE1B343D9E0734
  0
XRECORD
  5
7DE1B343D9E0745
102
{ACAD_REACTORS
330
7DE1B343D9E073E
102
}
330
7DE1B343D9E073E
100
AcDbXrecord
340
7DE1B343D9E0731
  0
XRECORD
  5
7DE1B343D9E074B
102
{ACAD_REACTORS
330
7DE1B343D9E073E
102
}
330
7DE1B343D9E073E
100
AcDbXrecord
 40
0.0
  0
XRECORD
  5
7DE1B343D9E074E
102
{ACAD_REACTORS
330
7DE1B343D9E073E
102
}
330
7DE1B343D9E073E
100
AcDbXrecord
340
0
  0
XRECORD
  5
7DE1B343D9E0754
102
{ACAD_REACTORS
330
7DE1B343D9E073E
102
}
330
7DE1B343D9E073E
100
AcDbXrecord
 10
0.0
 20
0.0
 30
0.0
  0
XRECORD
  5
7DE1B343D9E0750
102
{ACAD_REACTORS
330
7DE1B343D9E073E
102
}
330
7DE1B343D9E073E
100
AcDbXrecord
 10
0.0
 20
0.0
 30
0.0
  0
XRECORD
  5
7DE1B343D9E0753
102
{ACAD_REACTORS
330
7DE1B343D9E073E
102
}
330
7DE1B343D9E073E
100
AcDbXrecord
 10
0.0
 20
0.0
 30
0.0
  0
XRECORD
  5
7DE1B343D9E0751
102
{ACAD_REACTORS
330
7DE1B343D9E073E
102
}
330
7DE1B343D9E073E
100
AcDbXrecord
 10
0.0
 20
0.0
 30
0.0
  0
XRECORD
  5
7DE1B343D9E0752
102
{ACAD_REACTORS
330
7DE1B343D9E073E
102
}
330
7DE1B343D9E073E
100
AcDbXrecord
 10
0.0
 20
0.0
 30
0.0
  0
XRECORD
  5
7DE1B343D9E074F
102
{ACAD_REACTORS
330
7DE1B343D9E073E
102
}
330
7DE1B343D9E073E
100
AcDbXrecord
 10
0.0
 20
0.0
 30
0.0
  0
XRECORD
  5
7DE1B343D9E074C
102
{ACAD_REACTORS
330
7DE1B343D9E073E
102
}
330
7DE1B343D9E073E
100
AcDbXrecord
340
0
  0
XRECORD
  5
7DE1B343D9E074D
102
{ACAD_REACTORS
330
7DE1B343D9E073E
102
}
330
7DE1B343D9E073E
100
AcDbXrecord
 70
     0
  0
XRECORD
  5
7DE1B343D9E0742
102
{ACAD_REACTORS
330
7DE1B343D9E073E
102
}
330
7DE1B343D9E073E
100
AcDbXrecord
  1

  0
XRECORD
  5
7DE1B343D9E073F
102
{ACAD_REACTORS
330
7DE1B343D9E073E
102
}
330
7DE1B343D9E073E
100
AcDbXrecord
 90
        1
  0
XRECORD
  5
7DE1B343D9E0740
102
{ACAD_REACTORS
330
7DE1B343D9E073E
102
}
330
7DE1B343D9E073E
100
AcDbXrecord
 90
       70
  0
XRECORD
  5
7DE1B343D9E0757
102
{ACAD_REACTORS
330
7DE1B343D9E073E
102
}
330
7DE1B343D9E073E
100
AcDbXrecord
340
0
  0
XRECORD
  5
7DE1B343D9E075D
102
{ACAD_REACTORS
330
7DE1B343D9E073E
102
}
330
7DE1B343D9E073E
100
AcDbXrecord
 10
0.0
 20
0.0
 30
0.0
  0
XRECORD
  5
7DE1B343D9E0759
102
{ACAD_REACTORS
330
7DE1B343D9E073E
102
}
330
7DE1B343D9E073E
100
AcDbXrecord
 10
0.0
 20
0.0
 30
0.0
  0
XRECORD
  5
7DE1B343D9E075C
102
{ACAD_REACTORS
330
7DE1B343D9E073E
102
}
330
7DE1B343D9E073E
100
AcDbXrecord
 10
0.0
 20
0.0
 30
0.0
  0
XRECORD
  5
7DE1B343D9E075A
102
{ACAD_REACTORS
330
7DE1B343D9E073E
102
}
330
7DE1B343D9E073E
100
AcDbXrecord
 10
0.0
 20
0.0
 30
0.0
  0
XRECORD
  5
7DE1B343D9E075B
102
{ACAD_REACTORS
330
7DE1B343D9E073E
102
}
330
7DE1B343D9E073E
100
AcDbXrecord
 10
0.0
 20
0.0
 30
0.0
  0
XRECORD
  5
7DE1B343D9E0758
102
{ACAD_REACTORS
330
7DE1B343D9E073E
102
}
330
7DE1B343D9E073E
100
AcDbXrecord
 10
0.0
 20
0.0
 30
0.0
  0
XRECORD
  5
7DE1B343D9E0755
102
{ACAD_REACTORS
330
7DE1B343D9E073E
102
}
330
7DE1B343D9E073E
100
AcDbXrecord
340
0
  0
XRECORD
  5
7DE1B343D9E0756
102
{ACAD_REACTORS
330
7DE1B343D9E073E
102
}
330
7DE1B343D9E073E
100
AcDbXrecord
 70
     0
  0
XRECORD
  5
7DE1B343D9E074A
102
{ACAD_REACTORS
330
7DE1B343D9E073E
102
}
330
7DE1B343D9E073E
100
AcDbXrecord
  1
{D1FA0E42-8DB6-11D6-88E6-0090279574E7}
  0
DICTIONARYVAR
  5
7DE1B343D9E073C
102
{ACAD_REACTORS
330
7DE1B343D9E073B
102
}
330
7DE1B343D9E073B
100
DictionaryVariables
280
     0
  1
1
  0
ENDSEC
  0
EOF
