  0
SECTION
  2
HEADER
  9
$ACADVER
  1
AC1014
  9
$ACADMAINTVER
 70
     9
  9
$DWGCODEPAGE
  3
ANSI_1252
  9
$INSBASE
 10
1.745416404073127
 20
2.098055886580848
 30
0.0
  9
$EXTMIN
 10
0.0024348248459846
 20
1.067253135603143
 30
0.0
  9
$EXTMAX
 10
3.487654146593112
 20
2.434799656893045
 30
0.0
  9
$LIMMIN
 10
0.0
 20
0.0
  9
$LIMMAX
 10
18.0
 20
12.0
  9
$ORTHOMODE
 70
     1
  9
$REGENMODE
 70
     1
  9
$FILLMODE
 70
     1
  9
$QTEXTMODE
 70
     0
  9
$MIRRTEXT
 70
     0
  9
$DRAGMODE
 70
     2
  9
$LTSCALE
 40
1.0
  9
$OSMODE
 70
    39
  9
$ATTMODE
 70
     1
  9
$TEXTSIZE
 40
0.125
  9
$TRACEWID
 40
0.05
  9
$TEXTSTYLE
  7
ROMANS
  9
$CLAYER
  8
0
  9
$CELTYPE
  6
BYLAYER
  9
$CECOLOR
 62
   256
  9
$CELTSCALE
 40
1.0
  9
$DELOBJ
 70
     1
  9
$DISPSILH
 70
     1
  9
$DIMSCALE
 40
1.0
  9
$DIMASZ
 40
0.125
  9
$DIMEXO
 40
0.125
  9
$DIMDLI
 40
0.375
  9
$DIMRND
 40
0.0
  9
$DIMDLE
 40
0.0
  9
$DIMEXE
 40
0.125
  9
$DIMTP
 40
0.0
  9
$DIMTM
 40
0.0
  9
$DIMTXT
 40
0.125
  9
$DIMCEN
 40
-0.125
  9
$DIMTSZ
 40
0.0
  9
$DIMTOL
 70
     0
  9
$DIMLIM
 70
     0
  9
$DIMTIH
 70
     1
  9
$DIMTOH
 70
     1
  9
$DIMSE1
 70
     0
  9
$DIMSE2
 70
     0
  9
$DIMTAD
 70
     0
  9
$DIMZIN
 70
     4
  9
$DIMBLK
  1

  9
$DIMASO
 70
     1
  9
$DIMSHO
 70
     1
  9
$DIMPOST
  1

  9
$DIMAPOST
  1

  9
$DIMALT
 70
     0
  9
$DIMALTD
 70
     2
  9
$DIMALTF
 40
25.4
  9
$DIMLFAC
 40
1.0
  9
$DIMTOFL
 70
     0
  9
$DIMTVP
 40
0.0
  9
$DIMTIX
 70
     1
  9
$DIMSOXD
 70
     0
  9
$DIMSAH
 70
     0
  9
$DIMBLK1
  1

  9
$DIMBLK2
  1

  9
$DIMSTYLE
  2
STANDARD
  9
$DIMCLRD
 70
     0
  9
$DIMCLRE
 70
     0
  9
$DIMCLRT
 70
     0
  9
$DIMTFAC
 40
1.0
  9
$DIMGAP
 40
0.09
  9
$DIMJUST
 70
     0
  9
$DIMSD1
 70
     0
  9
$DIMSD2
 70
     0
  9
$DIMTOLJ
 70
     1
  9
$DIMTZIN
 70
     4
  9
$DIMALTZ
 70
     0
  9
$DIMALTTZ
 70
     0
  9
$DIMFIT
 70
     3
  9
$DIMUPT
 70
     0
  9
$DIMUNIT
 70
     2
  9
$DIMDEC
 70
     3
  9
$DIMTDEC
 70
     3
  9
$DIMALTU
 70
     2
  9
$DIMALTTD
 70
     2
  9
$DIMTXSTY
  7
ROMANS
  9
$DIMAUNIT
 70
     0
  9
$LUNITS
 70
     2
  9
$LUPREC
 70
     3
  9
$SKETCHINC
 40
0.1
  9
$FILLETRAD
 40
0.03125
  9
$AUNITS
 70
     0
  9
$AUPREC
 70
     0
  9
$MENU
  1
ACAD
  9
$ELEVATION
 40
0.0
  9
$PELEVATION
 40
0.0
  9
$THICKNESS
 40
0.0
  9
$LIMCHECK
 70
     0
  9
$BLIPMODE
 70
     0
  9
$CHAMFERA
 40
0.0
  9
$CHAMFERB
 40
0.0
  9
$CHAMFERC
 40
0.0
  9
$CHAMFERD
 40
0.0
  9
$SKPOLY
 70
     0
  9
$TDCREATE
 40
2448994.611054283
  9
$TDUPDATE
 40
2452458.309436238
  9
$TDINDWG
 40
0.0008351273
  9
$TDUSRTIMER
 40
0.0008351273
  9
$USRTIMER
 70
     1
  9
$ANGBASE
 50
0.0
  9
$ANGDIR
 70
     0
  9
$PDMODE
 70
     0
  9
$PDSIZE
 40
0.0
  9
$PLINEWID
 40
0.0
  9
$COORDS
 70
     2
  9
$SPLFRAME
 70
     0
  9
$SPLINETYPE
 70
     6
  9
$SPLINESEGS
 70
     8
  9
$ATTDIA
 70
     0
  9
$ATTREQ
 70
     1
  9
$HANDLING
 70
 22529
  9
$HANDSEED
  5
7DE1B343D9E01CA
  9
$SURFTAB1
 70
     6
  9
$SURFTAB2
 70
     6
  9
$SURFTYPE
 70
     6
  9
$SURFU
 70
     6
  9
$SURFV
 70
     6
  9
$UCSNAME
  2

  9
$UCSORG
 10
0.0
 20
0.0
 30
0.0
  9
$UCSXDIR
 10
1.0
 20
0.0
 30
0.0
  9
$UCSYDIR
 10
0.0
 20
1.0
 30
0.0
  9
$PUCSNAME
  2

  9
$PUCSORG
 10
0.0
 20
0.0
 30
0.0
  9
$PUCSXDIR
 10
1.0
 20
0.0
 30
0.0
  9
$PUCSYDIR
 10
0.0
 20
1.0
 30
0.0
  9
$USERI1
 70
     0
  9
$USERI2
 70
     0
  9
$USERI3
 70
     0
  9
$USERI4
 70
     0
  9
$USERI5
 70
     0
  9
$USERR1
 40
0.0
  9
$USERR2
 40
0.0
  9
$USERR3
 40
0.0
  9
$USERR4
 40
0.0
  9
$USERR5
 40
0.0
  9
$WORLDVIEW
 70
     1
  9
$SHADEDGE
 70
     3
  9
$SHADEDIF
 70
    70
  9
$TILEMODE
 70
     1
  9
$MAXACTVP
 70
    16
  9
$PINSBASE
 10
1.392352969984852
 20
50.00000000000001
 30
1.826219559408415
  9
$PLIMCHECK
 70
     0
  9
$PEXTMIN
 10
1.000000000000000E+20
 20
1.000000000000000E+20
 30
1.000000000000000E+20
  9
$PEXTMAX
 10
-1.000000000000000E+20
 20
-1.000000000000000E+20
 30
-1.000000000000000E+20
  9
$PLIMMIN
 10
0.0
 20
0.0
  9
$PLIMMAX
 10
12.0
 20
9.0
  9
$UNITMODE
 70
     0
  9
$VISRETAIN
 70
     0
  9
$PLINEGEN
 70
     1
  9
$PSLTSCALE
 70
     0
  9
$TREEDEPTH
 70
  3020
  9
$PICKSTYLE
 70
     1
  9
$CMLSTYLE
  2
STANDARD
  9
$CMLJUST
 70
     0
  9
$CMLSCALE
 40
1.0
  9
$PROXYGRAPHICS
 70
     1
  9
$MEASUREMENT
 70
     0
  0
ENDSEC
  0
SECTION
  2
CLASSES
  0
CLASS
  1
LWPOLYLINE
  2
AcDbPolyline
  3
AutoCAD 2000
 90
        0
280
     0
281
     1
  0
CLASS
  1
ACDBDICTIONARYWDFLT
  2
AcDbDictionaryWithDefault
  3
AutoCAD 2000
 90
        0
280
     0
281
     0
  0
CLASS
  1
ACDBPLACEHOLDER
  2
AcDbPlaceHolder
  3
AutoCAD 2000
 90
        0
280
     0
281
     0
  0
CLASS
  1
LAYOUT
  2
AcDbLayout
  3
AutoCAD 2000
 90
        0
280
     0
281
     0
  0
CLASS
  1
DICTIONARYVAR
  2
AcDbDictionaryVar
  3
AutoCAD 2000
 90
        0
280
     0
281
     0
  0
CLASS
  1
LONG_TRANSACTION
  2
AcDbLongTransaction
  3
AutoCAD 2000
 90
        0
280
     0
281
     0
  0
CLASS
  1
LWPOLYLINE
  2
AcDbPolyline
  3
AutoCAD 2000
 90
        0
280
     0
281
     1
  0
CLASS
  1
HATCH
  2
AcDbHatch
  3
AutoCAD 2000
 90
        0
280
     0
281
     1
  0
CLASS
  1
XRECORD
  2
AcDbXrecord
  3
AutoCAD 2000
 90
        0
280
     0
281
     0
  0
ENDSEC
  0
SECTION
  2
TABLES
  0
TABLE
  2
VPORT
  5
7DE1B343D9E0156
330
0
100
AcDbSymbolTable
 70
     2
  0
VPORT
  5
7DE1B343D9E01A5
330
7DE1B343D9E0156
100
AcDbSymbolTableRecord
100
AcDbViewportTableRecord
  2
*ACTIVE
 70
     0
 10
0.0
 20
0.0
 11
1.0
 21
1.0
 12
4.721926532463815
 22
1.751037620649483
 13
0.0
 23
0.0
 14
0.015625
 24
0.015625
 15
0.0
 25
0.0
 16
0.0
 26
0.0
 36
1.0
 17
0.0
 27
0.0
 37
0.0
 40
2.282647215150728
 41
4.320930232558139
 42
50.0
 43
0.0
 44
0.0
 50
0.0
 51
0.0
 71
     0
 72
  2000
 73
     1
 74
     0
 75
     0
 76
     0
 77
     0
 78
     0
  0
ENDTAB
  0
TABLE
  2
LTYPE
  5
7DE1B343D9E0153
330
0
100
AcDbSymbolTable
 70
     1
  0
LTYPE
  5
7DE1B343D9E0160
330
7DE1B343D9E0153
100
AcDbSymbolTableRecord
100
AcDbLinetypeTableRecord
  2
BYBLOCK
 70
     0
  3

 72
    65
 73
     0
 40
0.0
  0
LTYPE
  5
7DE1B343D9E0161
330
7DE1B343D9E0153
100
AcDbSymbolTableRecord
100
AcDbLinetypeTableRecord
  2
BYLAYER
 70
     0
  3

 72
    65
 73
     0
 40
0.0
  0
LTYPE
  5
7DE1B343D9E0162
330
7DE1B343D9E0153
100
AcDbSymbolTableRecord
100
AcDbLinetypeTableRecord
  2
CONTINUOUS
 70
     0
  3
Solid line
 72
    65
 73
     0
 40
0.0
  0
ENDTAB
  0
TABLE
  2
LAYER
  5
7DE1B343D9E0150
330
0
100
AcDbSymbolTable
 70
     3
  0
LAYER
  5
7DE1B343D9E015D
330
7DE1B343D9E0150
100
AcDbSymbolTableRecord
100
AcDbLayerTableRecord
  2
0
 70
     0
 62
     7
  6
CONTINUOUS
  0
LAYER
  5
7DE1B343D9E016D
330
7DE1B343D9E0150
100
AcDbSymbolTableRecord
100
AcDbLayerTableRecord
  2
TEXT
 70
     0
 62
     3
  6
CONTINUOUS
  0
LAYER
  5
7DE1B343D9E017D
330
7DE1B343D9E0150
100
AcDbSymbolTableRecord
100
AcDbLayerTableRecord
  2
ASHADE
 70
     4
 62
     7
  6
CONTINUOUS
  0
ENDTAB
  0
TABLE
  2
STYLE
  5
7DE1B343D9E0151
330
0
100
AcDbSymbolTable
 70
     4
  0
STYLE
  5
7DE1B343D9E015E
330
7DE1B343D9E0151
100
AcDbSymbolTableRecord
100
AcDbTextStyleTableRecord
  2
STANDARD
 70
     0
 40
0.0
 41
1.0
 50
0.0
 71
     0
 42
0.3125
  3
txt
  4

  0
STYLE
  5
7DE1B343D9E016A
330
7DE1B343D9E0151
100
AcDbSymbolTableRecord
100
AcDbTextStyleTableRecord
  2
ITALICC
 70
     0
 40
0.0
 41
1.0
 50
0.0
 71
     0
 42
0.125
  3
italicc
  4

  0
STYLE
  5
7DE1B343D9E017A
330
7DE1B343D9E0151
100
AcDbSymbolTableRecord
100
AcDbTextStyleTableRecord
  2
ASHADE
 70
     0
 40
0.2
 41
1.0
 50
0.0
 71
     0
 42
0.3125
  3
simplex
  4

  0
STYLE
  5
7DE1B343D9E0195
330
7DE1B343D9E0151
100
AcDbSymbolTableRecord
100
AcDbTextStyleTableRecord
  2
ROMANS
 70
     0
 40
0.0
 41
1.0
 50
0.0
 71
     0
 42
0.125
  3
romans.shx
  4

  0
ENDTAB
  0
TABLE
  2
VIEW
  5
7DE1B343D9E0154
330
0
100
AcDbSymbolTable
 70
     0
  0
ENDTAB
  0
TABLE
  2
UCS
  5
7DE1B343D9E0155
330
0
100
AcDbSymbolTable
 70
     0
  0
ENDTAB
  0
TABLE
  2
APPID
  5
7DE1B343D9E0157
330
0
100
AcDbSymbolTable
 70
     6
  0
APPID
  5
7DE1B343D9E015F
330
7DE1B343D9E0157
100
AcDbSymbolTableRecord
100
AcDbRegAppTableRecord
  2
ACAD
 70
     0
  0
APPID
  5
7DE1B343D9E017B
330
7DE1B343D9E0157
100
AcDbSymbolTableRecord
100
AcDbRegAppTableRecord
  2
AVE_RENDER
 70
     0
  0
APPID
  5
7DE1B343D9E017C
330
7DE1B343D9E0157
100
AcDbSymbolTableRecord
100
AcDbRegAppTableRecord
  2
AVE_ENTITY_MATERIAL
 70
     0
  0
APPID
  5
7DE1B343D9E0189
330
7DE1B343D9E0157
100
AcDbSymbolTableRecord
100
AcDbRegAppTableRecord
  2
AVE_FINISH
 70
     0
  0
APPID
  5
7DE1B343D9E018A
330
7DE1B343D9E0157
100
AcDbSymbolTableRecord
100
AcDbRegAppTableRecord
  2
AVE_MATERIAL
 70
     0
  0
APPID
  5
7DE1B343D9E018B
330
7DE1B343D9E0157
100
AcDbSymbolTableRecord
100
AcDbRegAppTableRecord
  2
AVE_GLOBAL
 70
     0
  0
ENDTAB
  0
TABLE
  2
DIMSTYLE
  5
7DE1B343D9E0158
330
0
100
AcDbSymbolTable
 70
     1
  0
DIMSTYLE
105
7DE1B343D9E0172
330
7DE1B343D9E0158
100
AcDbSymbolTableRecord
100
AcDbDimStyleTableRecord
  2
STANDARD
 70
     0
  3

  4

  5

  6

  7

 40
1.0
 41
0.125
 42
0.125
 43
0.375
 44
0.125
 45
0.0
 46
0.0
 47
0.0
 48
0.0
140
0.125
141
-0.125
142
0.0
143
25.4
144
1.0
145
0.0
146
1.0
147
0.09
 71
     0
 72
     0
 73
     1
 74
     1
 75
     0
 76
     0
 77
     0
 78
     4
170
     0
171
     2
172
     0
173
     0
174
     1
175
     0
176
     0
177
     0
178
     0
270
     2
271
     3
272
     3
273
     2
274
     2
340
7DE1B343D9E0195
275
     0
280
     0
281
     0
282
     0
283
     1
284
     4
285
     0
286
     0
287
     3
288
     0
  0
ENDTAB
  0
TABLE
  2
BLOCK_RECORD
  5
7DE1B343D9E014F
330
0
100
AcDbSymbolTable
 70
     2
  0
BLOCK_RECORD
  5
7DE1B343D9E0166
102
{ACAD_XDICTIONARY
360
7DE1B343D9E01C8
102
}
330
7DE1B343D9E014F
100
AcDbSymbolTableRecord
100
AcDbBlockTableRecord
  2
*MODEL_SPACE
  0
BLOCK_RECORD
  5
7DE1B343D9E0163
102
{ACAD_XDICTIONARY
360
7DE1B343D9E01C6
102
}
330
7DE1B343D9E014F
100
AcDbSymbolTableRecord
100
AcDbBlockTableRecord
  2
*PAPER_SPACE
  0
BLOCK_RECORD
  5
7DE1B343D9E017E
330
7DE1B343D9E014F
100
AcDbSymbolTableRecord
100
AcDbBlockTableRecord
  2
AVE_RENDER
  0
BLOCK_RECORD
  5
7DE1B343D9E018C
330
7DE1B343D9E014F
100
AcDbSymbolTableRecord
100
AcDbBlockTableRecord
  2
AVE_GLOBAL
  0
ENDTAB
  0
ENDSEC
  0
SECTION
  2
BLOCKS
  0
BLOCK
  5
7DE1B343D9E0170
330
7DE1B343D9E0166
100
AcDbEntity
  8
0
100
AcDbBlockBegin
  2
*MODEL_SPACE
 70
     0
 10
0.0
 20
0.0
 30
0.0
  3
*MODEL_SPACE
  1

  0
ENDBLK
  5
7DE1B343D9E0171
330
7DE1B343D9E0166
100
AcDbEntity
  8
0
100
AcDbBlockEnd
  0
BLOCK
  5
7DE1B343D9E016E
330
7DE1B343D9E0163
100
AcDbEntity
 67
     1
  8
0
100
AcDbBlockBegin
  2
*PAPER_SPACE
 70
     0
 10
0.0
 20
0.0
 30
0.0
  3
*PAPER_SPACE
  1

  0
ENDBLK
  5
7DE1B343D9E016F
330
7DE1B343D9E0163
100
AcDbEntity
 67
     1
  8
0
100
AcDbBlockEnd
  0
BLOCK
  5
7DE1B343D9E017F
330
7DE1B343D9E017E
100
AcDbEntity
  8
0
100
AcDbBlockBegin
  2
AVE_RENDER
 70
     0
 10
0.0
 20
0.0
 30
0.0
  3
AVE_RENDER
  1
AVE_RENDER
  0
ENDBLK
  5
7DE1B343D9E0180
330
7DE1B343D9E017E
100
AcDbEntity
  8
0
100
AcDbBlockEnd
  0
BLOCK
  5
7DE1B343D9E018D
330
7DE1B343D9E018C
100
AcDbEntity
  8
0
100
AcDbBlockBegin
  2
AVE_GLOBAL
 70
     0
 10
0.0
 20
0.0
 30
0.0
  3
AVE_GLOBAL
  1
AVE_GLOBAL
  0
ENDBLK
  5
7DE1B343D9E018E
330
7DE1B343D9E018C
100
AcDbEntity
  8
0
100
AcDbBlockEnd
  0
ENDSEC
  0
SECTION
  2
ENTITIES
  0
LWPOLYLINE
  5
7DE1B343D9DECEB
330
7DE1B343D9E0166
100
AcDbEntity
  8
0
100
AcDbPolyline
 90
       32
 70
     1
 43
0.0
 10
0.9329164040731283
 20
1.822305886580845
 10
0.9329164040731283
 20
1.853555886580846
 10
1.192011504173087
 20
1.853555886580846
 42
0.2679491924311219
 10
1.21799226628662
 20
1.868555886580845
 10
1.245416404073128
 20
1.916055886580846
 10
0.9329164040731283
 20
1.916055886580846
 10
0.9329164040731194
 20
1.962067254549554
 42
-0.5824943363992431
 10
0.8831087117656037
 20
2.298511454818034
 42
-0.3573689202970055
 10
1.213223811480538
 20
2.290727546177204
 42
0.3716027186756165
 10
1.578266871362846
 20
2.291294815667961
 42
-0.1801961746096372
 10
1.745416404073128
 20
2.353555886580847
 42
-0.1801961746096372
 10
1.912565936783408
 20
2.291294815667961
 42
0.3716027186756165
 10
2.277608996665718
 20
2.290727546177204
 42
-0.3573689202970055
 10
2.607724096380652
 20
2.298511454818034
 42
-0.5824943363992432
 10
2.557916404073128
 20
1.962067254549576
 10
2.557916404073128
 20
1.916055886580846
 10
2.245416404073128
 20
1.916055886580846
 10
2.272840541859635
 20
1.868555886580845
 42
0.2679491924311219
 10
2.298821303973169
 20
1.853555886580846
 10
2.557916404073128
 20
1.853555886580846
 10
2.557916404073128
 20
1.822305886580845
 42
1.0
 10
2.620416404073128
 20
1.822305886580845
 10
2.620416404073128
 20
1.923336170143323
 42
0.5260640973957641
 10
2.64618563484215
 20
2.347775641192872
 42
0.3573689202970052
 10
2.236868255924977
 20
2.33812419209119
 42
-0.3716027186756167
 10
1.953453787250698
 20
2.338564612411384
 42
0.180196174609637
 10
1.745416404073128
 20
2.416055886580847
 42
0.180196174609637
 10
1.537379020895557
 20
2.338564612411384
 42
-0.3716027186756167
 10
1.253964552221279
 20
2.33812419209119
 42
0.3573689202970052
 10
0.8446471733041063
 20
2.347775641192872
 42
0.5260640973957641
 10
0.8704164040731283
 20
1.923336170143321
 10
0.8704164040731283
 20
1.822305886580845
 42
1.0
  0
TEXT
  5
7DE1B343D9E0011
330
7DE1B343D9E0166
100
AcDbEntity
  8
TEXT
100
AcDbText
 10
0.9924402135969375
 20
1.525271739685724
 30
0.0
 40
0.125
  1
PART #110384
  7
ITALICC
 72
     1
 11
1.745416404073127
 21
1.525271739685724
 31
0.0
100
AcDbText
  0
TEXT
  5
7DE1B343D9E0012
330
7DE1B343D9E0166
100
AcDbEntity
  8
TEXT
100
AcDbText
 10
2.158721562323448
 20
1.078349097013349
 30
0.0
 40
0.0522247191011236
  1
Phone  1-800-328-2495
 41
1.272321428571429
 72
     5
 11
3.487654146593112
 21
1.078349097013349
 31
0.0
100
AcDbText
  0
TEXT
  5
7DE1B343D9E0013
330
7DE1B343D9E0166
100
AcDbEntity
  8
TEXT
100
AcDbText
 10
2.158721562323448
 20
1.358124377912226
 30
0.0
 40
0.0522247191011236
  1
Stylmark  Incorporated
 41
1.221428571428573
 72
     5
 11
3.487654146593112
 21
1.358124377912226
 31
0.0
100
AcDbText
  0
TEXT
  5
7DE1B343D9E0014
330
7DE1B343D9E0166
100
AcDbEntity
  8
TEXT
100
AcDbText
 10
2.158721562323448
 20
1.264865950945934
 30
0.0
 40
0.0522247191011236
  1
6536 Main St. N.E. * P.O. Box 32008
 41
0.8388932496075366
 72
     5
 11
3.487654146593112
 21
1.264865950945934
 31
0.0
100
AcDbText
  0
TEXT
  5
7DE1B343D9E0015
330
7DE1B343D9E0166
100
AcDbEntity
  8
TEXT
100
AcDbText
 10
2.158721562323448
 20
1.171607523979641
 30
0.0
 40
0.0522247191011236
  1
Minneapolis, MN 55432-0008
 41
1.11444212721585
 72
     5
 11
3.487654146593112
 21
1.171607523979641
 31
0.0
100
AcDbText
  0
LWPOLYLINE
  5
7DE1B343D9E0016
330
7DE1B343D9E0166
100
AcDbEntity
  8
TEXT
100
AcDbPolyline
 90
        3
 70
     0
 43
0.0006660908203125
 10
0.0027678702561409
 20
1.191993859650784
 10
0.0027678702561409
 20
1.078758420197656
 10
0.1160033097092632
 20
1.078758420197656
  0
LWPOLYLINE
  5
7DE1B343D9E001B
330
7DE1B343D9E0166
100
AcDbEntity
  8
TEXT
100
AcDbPolyline
 90
        3
 70
     0
 43
0.0006660908203125
 10
0.0294115030686384
 20
1.191993859650784
 10
0.0294115030686384
 20
1.105402053010158
 10
0.1160033097092632
 20
1.105402053010158
  0
LWPOLYLINE
  5
7DE1B343D9E0020
330
7DE1B343D9E0166
100
AcDbEntity
  8
TEXT
100
AcDbPolyline
 90
        2
 70
     0
 43
0.0001332181640625
 10
0.0760378604905152
 20
1.201985221955469
 10
0.0027678702561409
 20
1.191993859650784
  0
LWPOLYLINE
  5
7DE1B343D9E0024
330
7DE1B343D9E0166
100
AcDbEntity
  8
TEXT
100
AcDbPolyline
 90
        2
 70
     0
 43
0.0001332181640625
 10
0.0294115030686384
 20
1.191993859650784
 10
0.0893596768967657
 20
1.201985221955469
  0
LWPOLYLINE
  5
7DE1B343D9E0028
330
7DE1B343D9E0166
100
AcDbEntity
  8
TEXT
100
AcDbPolyline
 90
        2
 70
     0
 43
0.0001332181640625
 10
0.0294115030686384
 20
1.105402053010158
 10
0.0893596768967657
 20
1.165350226838283
  0
LWPOLYLINE
  5
7DE1B343D9E002C
330
7DE1B343D9E0166
100
AcDbEntity
  8
TEXT
100
AcDbPolyline
 90
        3
 70
     0
 43
0.0006660908203125
 10
0.1160033097092632
 20
1.34519474832266
 10
0.0027678702561409
 20
1.34519474832266
 10
0.0027678702561409
 20
1.231959308869532
  0
LWPOLYLINE
  5
7DE1B343D9E0031
330
7DE1B343D9E0166
100
AcDbEntity
  8
TEXT
100
AcDbPolyline
 90
        3
 70
     0
 43
0.0006660908203125
 10
0.1160033097092632
 20
1.318551115510159
 10
0.0294115030686384
 20
1.318551115510159
 10
0.0294115030686384
 20
1.231959308869532
  0
LWPOLYLINE
  5
7DE1B343D9E0036
330
7DE1B343D9E0166
100
AcDbEntity
  8
TEXT
100
AcDbPolyline
 90
        2
 70
     0
 43
0.0001332181640625
 10
0.0294115030686384
 20
1.318551115510159
 10
0.089359676896764
 20
1.258602941682033
  0
LWPOLYLINE
  5
7DE1B343D9E003A
330
7DE1B343D9E0166
100
AcDbEntity
  8
TEXT
100
AcDbPolyline
 90
        2
 70
     0
 43
0.0001332181640625
 10
0.0294115030686384
 20
1.231959308869532
 10
0.089359676896764
 20
1.221967946564843
  0
LWPOLYLINE
  5
7DE1B343D9E003E
330
7DE1B343D9E0166
100
AcDbEntity
  8
TEXT
100
AcDbPolyline
 90
        2
 70
     0
 43
0.0001332181640625
 10
0.0027678702561409
 20
1.231959308869532
 10
0.0760378604905152
 20
1.221967946564843
  0
LWPOLYLINE
  5
7DE1B343D9E0042
330
7DE1B343D9E0166
100
AcDbEntity
  8
TEXT
100
AcDbPolyline
 90
        2
 70
     0
 43
0.0006660908203125
 10
0.0294115030686384
 20
1.191993859650784
 10
0.0027678702561409
 20
1.191993859650784
  0
LWPOLYLINE
  5
7DE1B343D9E0046
330
7DE1B343D9E0166
100
AcDbEntity
  8
TEXT
100
AcDbPolyline
 90
        2
 70
     0
 43
0.0006660908203125
 10
0.0294115030686384
 20
1.231959308869532
 10
0.0027678702561409
 20
1.231959308869532
  0
LINE
  5
7DE1B343D9E004A
330
7DE1B343D9E0166
100
AcDbEntity
  8
TEXT
100
AcDbLine
 10
1.517958299382638
 20
1.280918053665891
 30
0.0
 11
1.410752025995348
 21
1.280918053665891
 31
0.0
  0
LINE
  5
7DE1B343D9E004B
330
7DE1B343D9E0166
100
AcDbEntity
  8
TEXT
100
AcDbLine
 10
1.546989197727116
 20
1.345194748322656
 30
0.0
 11
1.412157288510057
 21
1.345194748322656
 31
0.0
  0
ARC
  5
7DE1B343D9E004C
330
7DE1B343D9E0166
100
AcDbEntity
  8
TEXT
100
AcDbCircle
 10
1.471471384903374
 20
1.17595749905964
 30
0.0
 40
0.0676855811441166
100
AcDbArc
 50
90.0
 51
153.7768192527749
  0
LWPOLYLINE
  5
7DE1B343D9E004D
330
7DE1B343D9E0166
100
AcDbEntity
  8
TEXT
100
AcDbPolyline
 90
        2
 70
     0
 43
0.0
 10
1.409719530540539
 20
1.122212660284583
 42
0.2901071551932823
 10
1.452795463408174
 20
1.078721715334145
 42
5.328517124445801
  0
ARC
  5
7DE1B343D9E0051
330
7DE1B343D9E0166
100
AcDbEntity
  8
TEXT
100
AcDbCircle
 10
0.7663400072318889
 20
1.138514106672195
 30
0.0
 40
0.0601160179737537
100
AcDbArc
 50
180.0000000000003
 51
264.0521544866073
  0
LINE
  5
7DE1B343D9E0052
330
7DE1B343D9E0166
100
AcDbEntity
  8
TEXT
100
AcDbLine
 10
0.7698553628574368
 20
1.379582665916794
 30
0.0
 11
0.7098127580134297
 21
1.379582665916794
 31
0.0
  0
ARC
  5
7DE1B343D9E0053
330
7DE1B343D9E0166
100
AcDbEntity
  8
TEXT
100
AcDbCircle
 10
0.5340810051149183
 20
1.263107288876154
 30
0.0
 40
0.0820874594465043
100
AcDbArc
 50
90.0
 51
270.0
  0
LWPOLYLINE
  5
7DE1B343D9E0054
330
7DE1B343D9E0166
100
AcDbEntity
  8
TEXT
100
AcDbPolyline
 90
        2
 70
     0
 43
0.0001332181640625
 10
0.1259946720139538
 20
1.27192475808828
 10
0.1160033097092632
 20
1.34519474832266
  0
LWPOLYLINE
  5
7DE1B343D9E0058
330
7DE1B343D9E0166
100
AcDbEntity
  8
TEXT
100
AcDbPolyline
 90
        2
 70
     0
 43
0.0001332181640625
 10
0.1160033097092632
 20
1.318551115510159
 10
0.1259946720139538
 20
1.258602941682033
  0
LWPOLYLINE
  5
7DE1B343D9E005C
330
7DE1B343D9E0166
100
AcDbEntity
  8
TEXT
100
AcDbPolyline
 90
        3
 70
     0
 43
0.0006660908203125
 10
0.2692041983811406
 20
1.231959308869532
 10
0.2692041983811406
 20
1.34519474832266
 10
0.1559687589280148
 20
1.34519474832266
  0
LWPOLYLINE
  5
7DE1B343D9E0061
330
7DE1B343D9E0166
100
AcDbEntity
  8
TEXT
100
AcDbPolyline
 90
        3
 70
     0
 43
0.0006660908203125
 10
0.2425605655686396
 20
1.231959308869532
 10
0.2425605655686396
 20
1.318551115510159
 10
0.1559687589280148
 20
1.318551115510159
  0
LWPOLYLINE
  5
7DE1B343D9E0066
330
7DE1B343D9E0166
100
AcDbEntity
  8
TEXT
100
AcDbPolyline
 90
        2
 70
     0
 43
0.0001332181640625
 10
0.2425605655686396
 20
1.318551115510159
 10
0.1826123917405158
 20
1.258602941682033
  0
LWPOLYLINE
  5
7DE1B343D9E006A
330
7DE1B343D9E0166
100
AcDbEntity
  8
TEXT
100
AcDbPolyline
 90
        2
 70
     0
 43
0.0001332181640625
 10
0.1559687589280148
 20
1.318551115510159
 10
0.145977396623326
 20
1.258602941682033
  0
LWPOLYLINE
  5
7DE1B343D9E006E
330
7DE1B343D9E0166
100
AcDbEntity
  8
TEXT
100
AcDbPolyline
 90
        2
 70
     0
 43
0.0001332181640625
 10
0.1559687589280148
 20
1.34519474832266
 10
0.145977396623326
 20
1.27192475808828
  0
LWPOLYLINE
  5
7DE1B343D9E0072
330
7DE1B343D9E0166
100
AcDbEntity
  8
TEXT
100
AcDbPolyline
 90
        2
 70
     0
 43
0.0001332181640625
 10
0.1959342081467645
 20
1.221967946564843
 10
0.2692041983811406
 20
1.231959308869532
  0
LWPOLYLINE
  5
7DE1B343D9E0076
330
7DE1B343D9E0166
100
AcDbEntity
  8
TEXT
100
AcDbPolyline
 90
        2
 70
     0
 43
0.0001332181640625
 10
0.2425605655686396
 20
1.231959308869532
 10
0.1826123917405158
 20
1.221967946564843
  0
LWPOLYLINE
  5
7DE1B343D9E007A
330
7DE1B343D9E0166
100
AcDbEntity
  8
TEXT
100
AcDbPolyline
 90
        2
 70
     0
 43
0.0001332181640625
 10
0.2692041983811406
 20
1.191993859650784
 10
0.1959342081467645
 20
1.201985221955469
  0
LWPOLYLINE
  5
7DE1B343D9E007E
330
7DE1B343D9E0166
100
AcDbEntity
  8
TEXT
100
AcDbPolyline
 90
        2
 70
     0
 43
0.0001332181640625
 10
0.2425605655686396
 20
1.191993859650784
 10
0.1826123917405158
 20
1.201985221955469
  0
LWPOLYLINE
  5
7DE1B343D9E0082
330
7DE1B343D9E0166
100
AcDbEntity
  8
TEXT
100
AcDbPolyline
 90
        2
 70
     0
 43
0.0001332181640625
 10
0.2425605655686396
 20
1.105402053010158
 10
0.1826123917405158
 20
1.165350226838283
  0
LWPOLYLINE
  5
7DE1B343D9E0086
330
7DE1B343D9E0166
100
AcDbEntity
  8
TEXT
100
AcDbPolyline
 90
        3
 70
     0
 43
0.0006660908203125
 10
0.1559687589280148
 20
1.105402053010158
 10
0.2425605655686396
 20
1.105402053010158
 10
0.2425605655686396
 20
1.191993859650784
  0
LWPOLYLINE
  5
7DE1B343D9E008B
330
7DE1B343D9E0166
100
AcDbEntity
  8
TEXT
100
AcDbPolyline
 90
        3
 70
     0
 43
0.0006660908203125
 10
0.1559687589280148
 20
1.078758420197656
 10
0.2692041983811406
 20
1.078758420197656
 10
0.2692041983811406
 20
1.191993859650784
  0
LWPOLYLINE
  5
7DE1B343D9E0090
330
7DE1B343D9E0166
100
AcDbEntity
  8
TEXT
100
AcDbPolyline
 90
        5
 70
     0
 43
0.0001332181640625
 10
0.1259946720139538
 20
1.152028410432033
 10
0.1259946720139538
 20
1.165350226838283
 10
0.0893596768967657
 20
1.165350226838283
 10
0.0893596768967657
 20
1.201985221955469
 10
0.0760378604905152
 20
1.201985221955469
  0
LWPOLYLINE
  5
7DE1B343D9E0097
330
7DE1B343D9E0166
100
AcDbEntity
  8
TEXT
100
AcDbPolyline
 90
        2
 70
     0
 43
0.0006660908203125
 10
0.1160033097092632
 20
1.105402053010158
 10
0.1160033097092632
 20
1.078758420197656
  0
LWPOLYLINE
  5
7DE1B343D9E009B
330
7DE1B343D9E0166
100
AcDbEntity
  8
TEXT
100
AcDbPolyline
 90
        2
 70
     0
 43
0.0001332181640625
 10
0.1160033097092632
 20
1.105402053010158
 10
0.1259946720139538
 20
1.165350226838283
  0
LWPOLYLINE
  5
7DE1B343D9E009F
330
7DE1B343D9E0166
100
AcDbEntity
  8
TEXT
100
AcDbPolyline
 90
        2
 70
     0
 43
0.0001332181640625
 10
0.1160033097092632
 20
1.078758420197656
 10
0.1259946720139538
 20
1.152028410432033
  0
LWPOLYLINE
  5
7DE1B343D9E00A3
330
7DE1B343D9E0166
100
AcDbEntity
  8
TEXT
100
AcDbPolyline
 90
        5
 70
     0
 43
0.0001332181640625
 10
0.0760378604905152
 20
1.221967946564843
 10
0.089359676896764
 20
1.221967946564843
 10
0.089359676896764
 20
1.258602941682033
 10
0.1259946720139538
 20
1.258602941682033
 10
0.1259946720139538
 20
1.27192475808828
  0
LWPOLYLINE
  5
7DE1B343D9E00AA
330
7DE1B343D9E0166
100
AcDbEntity
  8
TEXT
100
AcDbPolyline
 90
        5
 70
     0
 43
0.0001332181640625
 10
0.145977396623326
 20
1.27192475808828
 10
0.145977396623326
 20
1.258602941682033
 10
0.1826123917405158
 20
1.258602941682033
 10
0.1826123917405158
 20
1.221967946564843
 10
0.1959342081467645
 20
1.221967946564843
  0
LWPOLYLINE
  5
7DE1B343D9E00B1
330
7DE1B343D9E0166
100
AcDbEntity
  8
TEXT
100
AcDbPolyline
 90
        2
 70
     0
 43
0.0001332181640625
 10
0.1559687589280148
 20
1.105402053010158
 10
0.145977396623326
 20
1.165350226838283
  0
LWPOLYLINE
  5
7DE1B343D9E00B5
330
7DE1B343D9E0166
100
AcDbEntity
  8
TEXT
100
AcDbPolyline
 90
        2
 70
     0
 43
0.0001332181640625
 10
0.145977396623326
 20
1.152028410432033
 10
0.1559687589280148
 20
1.078758420197656
  0
LWPOLYLINE
  5
7DE1B343D9E00B9
330
7DE1B343D9E0166
100
AcDbEntity
  8
TEXT
100
AcDbPolyline
 90
        2
 70
     0
 43
0.0006660908203125
 10
0.1559687589280148
 20
1.105402053010158
 10
0.1559687589280148
 20
1.078758420197656
  0
LWPOLYLINE
  5
7DE1B343D9E00BD
330
7DE1B343D9E0166
100
AcDbEntity
  8
TEXT
100
AcDbPolyline
 90
        5
 70
     0
 43
0.0001332181640625
 10
0.1959342081467645
 20
1.201985221955469
 10
0.1826123917405158
 20
1.201985221955469
 10
0.1826123917405158
 20
1.165350226838283
 10
0.145977396623326
 20
1.165350226838283
 10
0.145977396623326
 20
1.152028410432033
  0
LWPOLYLINE
  5
7DE1B343D9E00C4
330
7DE1B343D9E0166
100
AcDbEntity
  8
TEXT
100
AcDbPolyline
 90
        2
 70
     0
 43
0.0006660908203125
 10
0.2425605655686396
 20
1.231959308869532
 10
0.2692041983811406
 20
1.231959308869532
  0
LWPOLYLINE
  5
7DE1B343D9E00C8
330
7DE1B343D9E0166
100
AcDbEntity
  8
TEXT
100
AcDbPolyline
 90
        2
 70
     0
 43
0.0006660908203125
 10
0.2425605655686396
 20
1.191993859650784
 10
0.2692041983811406
 20
1.191993859650784
  0
LINE
  5
7DE1B343D9E00CC
330
7DE1B343D9E0166
100
AcDbEntity
  8
TEXT
100
AcDbLine
 10
0.5393183352291655
 20
1.280918053665891
 30
0.0
 11
0.7062239892581368
 21
1.280918053665891
 31
0.0
  0
LINE
  5
7DE1B343D9E00CD
330
7DE1B343D9E0166
100
AcDbEntity
  8
TEXT
100
AcDbLine
 10
0.6049184714734666
 20
1.245113332055263
 30
0.0
 11
0.5393183352291655
 21
1.245113332055263
 31
0.0
  0
LINE
  5
7DE1B343D9E00CE
330
7DE1B343D9E0166
100
AcDbEntity
  8
TEXT
100
AcDbLine
 10
0.4519935456684139
 20
1.078721715334145
 30
0.0
 11
0.6049184714734666
 21
1.078721715334145
 31
0.0
  0
LINE
  5
7DE1B343D9E00CF
330
7DE1B343D9E0166
100
AcDbEntity
  8
TEXT
100
AcDbLine
 10
0.6098588453797463
 20
1.147078721667585
 30
0.0
 11
0.4519935456684121
 21
1.147078721667585
 31
0.0
  0
LINE
  5
7DE1B343D9E00D0
330
7DE1B343D9E0166
100
AcDbEntity
  8
TEXT
100
AcDbLine
 10
0.5340810051149174
 20
1.181019829429649
 30
0.0
 11
0.6098588453797463
 21
1.181019829429649
 31
0.0
  0
ARC
  5
7DE1B343D9E00D1
330
7DE1B343D9E0166
100
AcDbEntity
  8
TEXT
100
AcDbCircle
 10
0.5393183352291664
 20
1.263015692860579
 30
0.0
 40
0.017902360805315
100
AcDbArc
 50
90.0
 51
270.0
  0
LINE
  5
7DE1B343D9E00D2
330
7DE1B343D9E0166
100
AcDbEntity
  8
TEXT
100
AcDbLine
 10
0.4519935456684121
 20
1.147078721667585
 30
0.0
 11
0.4519935456684139
 21
1.078721715334145
 31
0.0
  0
LINE
  5
7DE1B343D9E00D3
330
7DE1B343D9E0166
100
AcDbEntity
  8
TEXT
100
AcDbLine
 10
0.7062239892581368
 20
1.280918053665891
 30
0.0
 11
0.7062239892581368
 21
1.138514106672195
 31
0.0
  0
ARC
  5
7DE1B343D9E00D4
330
7DE1B343D9E0166
100
AcDbEntity
  8
TEXT
100
AcDbCircle
 10
0.6049184714734675
 20
1.161917523694702
 30
0.0
 40
0.0831958083605586
100
AcDbArc
 50
270.0
 51
90.0
  0
ARC
  5
7DE1B343D9E00D5
330
7DE1B343D9E0166
100
AcDbEntity
  8
TEXT
100
AcDbCircle
 10
0.6098588453797471
 20
1.164049275548619
 30
0.0
 40
0.0169705538810321
100
AcDbArc
 50
270.0
 51
90.0
  0
LWPOLYLINE
  5
7DE1B343D9E00D6
330
7DE1B343D9E0166
100
AcDbEntity
  8
TEXT
100
AcDbPolyline
 90
        2
 70
     0
 43
0.0006660908203125
 10
0.1160033097092632
 20
1.318551115510159
 10
0.1160033097092632
 20
1.34519474832266
  0
LWPOLYLINE
  5
7DE1B343D9E00DA
330
7DE1B343D9E0166
100
AcDbEntity
  8
TEXT
100
AcDbPolyline
 90
        2
 70
     0
 43
0.0006660908203125
 10
0.1559687589280148
 20
1.318551115510159
 10
0.1559687589280148
 20
1.34519474832266
  0
LINE
  5
7DE1B343D9E00DE
330
7DE1B343D9E0166
100
AcDbEntity
  8
TEXT
100
AcDbLine
 10
0.7098127580134297
 20
1.345194748322656
 30
0.0
 11
0.5340810051149174
 21
1.345194748322656
 31
0.0
  0
LINE
  5
7DE1B343D9E00DF
330
7DE1B343D9E0166
100
AcDbEntity
  8
TEXT
100
AcDbLine
 10
0.7098127580134297
 20
1.379582665916794
 30
0.0
 11
0.7098127580134297
 21
1.345194748322656
 31
0.0
  0
LINE
  5
7DE1B343D9E00E0
330
7DE1B343D9E0166
100
AcDbEntity
  8
TEXT
100
AcDbLine
 10
0.9002846500332818
 20
1.244322752209536
 30
0.0
 11
0.8416543290013439
 21
1.345194748322656
 31
0.0
  0
LINE
  5
7DE1B343D9E00E1
330
7DE1B343D9E0166
100
AcDbEntity
  8
TEXT
100
AcDbLine
 10
0.9590332128391473
 20
1.345194748322656
 30
0.0
 11
0.9002846500332818
 21
1.244322752209536
 31
0.0
  0
LINE
  5
7DE1B343D9E00E2
330
7DE1B343D9E0166
100
AcDbEntity
  8
TEXT
100
AcDbLine
 10
1.055963838198888
 20
1.161109553437144
 30
0.0
 11
1.055963838198888
 21
1.413206226061467
 31
0.0
  0
LINE
  5
7DE1B343D9E00E3
330
7DE1B343D9E0166
100
AcDbEntity
  8
TEXT
100
AcDbLine
 10
1.088275692336548
 20
1.345194748322656
 30
0.0
 11
1.088275692336548
 21
1.144330541590248
 31
0.0
  0
LINE
  5
7DE1B343D9E00E4
330
7DE1B343D9E0166
100
AcDbEntity
  8
TEXT
100
AcDbLine
 10
1.088275692336548
 20
1.144330541590248
 30
0.0
 11
1.071282055451947
 21
1.144330541590248
 31
0.0
  0
LINE
  5
7DE1B343D9E00E5
330
7DE1B343D9E0166
100
AcDbEntity
  8
TEXT
100
AcDbLine
 10
1.057103411695083
 20
1.078721715334145
 30
0.0
 11
1.155106745394518
 21
1.078721715334145
 31
0.0
  0
LINE
  5
7DE1B343D9E00E6
330
7DE1B343D9E0166
100
AcDbEntity
  8
TEXT
100
AcDbLine
 10
0.8906844130363275
 20
1.098680221439158
 30
0.0
 11
0.9879841191297721
 21
1.263030432374426
 31
0.0
  0
ARC
  5
7DE1B343D9E00E7
330
7DE1B343D9E0166
100
AcDbEntity
  8
TEXT
100
AcDbCircle
 10
0.8566408531241137
 20
1.118269437607841
 30
0.0
 40
0.0392772371940762
100
AcDbArc
 50
270.1604552698595
 51
330.0831797321295
  0
LINE
  5
7DE1B343D9E00E8
330
7DE1B343D9E0166
100
AcDbEntity
  8
TEXT
100
AcDbLine
 10
0.7601105967382425
 20
1.078721715334145
 30
0.0
 11
0.8567508478132367
 21
1.078992354432428
 31
0.0
  0
LWPOLYLINE
  5
7DE1B343D9E00E9
330
7DE1B343D9E0166
100
AcDbEntity
  8
TEXT
100
AcDbPolyline
 90
        6
 70
     1
 43
0.0
 10
0.8026344003133921
 20
1.280918053665891
 10
0.7723178060931839
 20
1.280918053665891
 10
0.7723178060931839
 20
1.157807055610996
 42
0.407328721240804
 10
0.7838614572546603
 20
1.14598814093461
 10
0.8444831562993911
 20
1.14598814093461
 10
0.8619484967067091
 20
1.17880036997809
  0
LINE
  5
7DE1B343D9E00F1
330
7DE1B343D9E0166
100
AcDbEntity
  8
TEXT
100
AcDbLine
 10
0.9879841191297721
 20
1.263030432374426
 30
0.0
 11
0.9879841191297721
 21
1.13027305754907
 31
0.0
  0
ARC
  5
7DE1B343D9E00F2
330
7DE1B343D9E0166
100
AcDbEntity
  8
TEXT
100
AcDbCircle
 10
1.071282055451945
 20
1.159712347833673
 30
0.0
 40
0.0153818062434269
100
AcDbArc
 50
174.7883570302258
 51
270.0
  0
LWPOLYLINE
  5
7DE1B343D9E00F3
330
7DE1B343D9E0166
100
AcDbEntity
  8
TEXT
100
AcDbPolyline
 90
        2
 70
     0
 43
0.0
 10
0.9879841191297703
 20
1.130273057549074
 42
0.3318488747599744
 10
1.057103411695083
 20
1.078721715334145
 42
-6.868794160588311
  0
LINE
  5
7DE1B343D9E00F7
330
7DE1B343D9E0166
100
AcDbEntity
  8
TEXT
100
AcDbLine
 10
1.212495814383779
 20
1.078721715334145
 30
0.0
 11
1.279553861165619
 21
1.078721715334145
 31
0.0
  0
LINE
  5
7DE1B343D9E00F8
330
7DE1B343D9E0166
100
AcDbEntity
  8
TEXT
100
AcDbLine
 10
1.212495814383779
 20
1.273364264499781
 30
0.0
 11
1.212495814383779
 21
1.078721715334145
 31
0.0
  0
LINE
  5
7DE1B343D9E00F9
330
7DE1B343D9E0166
100
AcDbEntity
  8
TEXT
100
AcDbLine
 10
1.155106745394518
 20
1.280918053665891
 30
0.0
 11
1.204942025217665
 21
1.280918053665891
 31
0.0
  0
LINE
  5
7DE1B343D9E00FA
330
7DE1B343D9E0166
100
AcDbEntity
  8
TEXT
100
AcDbLine
 10
1.155106745394518
 20
1.078721715334145
 30
0.0
 11
1.155106745394518
 21
1.280918053665891
 31
0.0
  0
LWPOLYLINE
  5
7DE1B343D9E00FB
330
7DE1B343D9E0166
100
AcDbEntity
  8
TEXT
100
AcDbPolyline
 90
        2
 70
     0
 43
0.0
 10
1.204942025217663
 20
1.280918053665891
 42
-0.4142135623731017
 10
1.212495814383777
 20
1.273364264499781
 42
-0.9999999999999998
  0
LINE
  5
7DE1B343D9E00FF
330
7DE1B343D9E0166
100
AcDbEntity
  8
TEXT
100
AcDbLine
 10
1.410752025995348
 20
1.280918053665891
 30
0.0
 11
1.410752025995348
 21
1.205865647591684
 31
0.0
  0
LINE
  5
7DE1B343D9E0100
330
7DE1B343D9E0166
100
AcDbEntity
  8
TEXT
100
AcDbLine
 10
1.279553861165619
 20
1.280918053665891
 30
0.0
 11
1.333687458086569
 21
1.280918053665891
 31
0.0
  0
LINE
  5
7DE1B343D9E0101
330
7DE1B343D9E0166
100
AcDbEntity
  8
TEXT
100
AcDbLine
 10
1.279553861165619
 20
1.078721715334145
 30
0.0
 11
1.279553861165619
 21
1.280918053665891
 31
0.0
  0
LWPOLYLINE
  5
7DE1B343D9E0102
330
7DE1B343D9E0166
100
AcDbEntity
  8
TEXT
100
AcDbPolyline
 90
        2
 70
     0
 43
0.0
 10
1.333687458086567
 20
1.280918053665891
 42
-0.4142135623731017
 10
1.341241247252681
 20
1.273364264499781
 42
-0.9999999999999998
  0
LWPOLYLINE
  5
7DE1B343D9E0106
330
7DE1B343D9E0166
100
AcDbEntity
  8
TEXT
100
AcDbPolyline
 90
        4
 70
     0
 43
0.0
 10
1.341241247252681
 20
1.273364264499781
 10
1.341241247252681
 20
1.078721715334145
 10
1.409719530540539
 20
1.078721715334145
 10
1.409719530540539
 20
1.122212660284583
 42
-1.714843617202739
  0
LINE
  5
7DE1B343D9E010C
330
7DE1B343D9E0166
100
AcDbEntity
  8
TEXT
100
AcDbLine
 10
0.7698553628574368
 20
1.345194748322656
 30
0.0
 11
0.7698553628574368
 21
1.379582665916794
 31
0.0
  0
LINE
  5
7DE1B343D9E010D
330
7DE1B343D9E0166
100
AcDbEntity
  8
TEXT
100
AcDbLine
 10
0.8416543290013439
 20
1.345194748322656
 30
0.0
 11
0.7698553628574368
 21
1.345194748322656
 31
0.0
  0
LINE
  5
7DE1B343D9E010E
330
7DE1B343D9E0166
100
AcDbEntity
  8
TEXT
100
AcDbLine
 10
0.9891551256325236
 20
1.345194748322656
 30
0.0
 11
0.9590332128391473
 21
1.345194748322656
 31
0.0
  0
LINE
  5
7DE1B343D9E010F
330
7DE1B343D9E0166
100
AcDbEntity
  8
TEXT
100
AcDbLine
 10
0.9891551256325236
 20
1.413206226061467
 30
0.0
 11
0.9891551256325236
 21
1.345194748322656
 31
0.0
  0
LINE
  5
7DE1B343D9E0110
330
7DE1B343D9E0166
100
AcDbEntity
  8
TEXT
100
AcDbLine
 10
1.055963838198888
 20
1.413206226061467
 30
0.0
 11
0.9891551256325236
 21
1.413206226061467
 31
0.0
  0
LWPOLYLINE
  5
7DE1B343D9E0111
330
7DE1B343D9E0166
100
AcDbEntity
  8
TEXT
100
AcDbPolyline
 90
        3
 70
     0
 43
0.0
 10
1.376375597796891
 20
1.34519474832266
 10
1.258075438980846
 20
1.34519474832266
 10
1.258075438980846
 20
1.318027251561764
 42
-1.960274751411753
  0
LINE
  5
7DE1B343D9E0116
330
7DE1B343D9E0166
100
AcDbEntity
  8
TEXT
100
AcDbLine
 10
1.222293748267685
 20
1.345194748322656
 30
0.0
 11
1.088275692336548
 21
1.345194748322656
 31
0.0
  0
LWPOLYLINE
  5
7DE1B343D9E0117
330
7DE1B343D9E0166
100
AcDbEntity
  8
TEXT
100
AcDbPolyline
 90
        2
 70
     0
 43
0.0
 10
1.222293748267685
 20
1.34519474832266
 42
-0.3328679258950098
 10
1.258075438980846
 20
1.318027251561764
 42
6.772930709997214
  0
LINE
  5
7DE1B343D9E011B
330
7DE1B343D9E0166
100
AcDbEntity
  8
TEXT
100
AcDbLine
 10
1.412157288510057
 20
1.345194748322656
 30
0.0
 11
1.412157288510057
 21
1.316872202553012
 31
0.0
  0
LWPOLYLINE
  5
7DE1B343D9E011C
330
7DE1B343D9E0166
100
AcDbEntity
  8
TEXT
100
AcDbPolyline
 90
        2
 70
     0
 43
0.0
 10
1.376375597796891
 20
1.34519474832266
 42
-0.3277054968067132
 10
1.412157288510055
 20
1.316872202553016
 42
6.667889725900311
  0
LINE
  5
7DE1B343D9E0120
330
7DE1B343D9E0166
100
AcDbEntity
  8
TEXT
100
AcDbLine
 10
1.625949136602157
 20
1.239982769769229
 30
0.0
 11
1.582198365420256
 21
1.322233045765374
 31
0.0
  0
LINE
  5
7DE1B343D9E0121
330
7DE1B343D9E0166
100
AcDbEntity
  8
TEXT
100
AcDbLine
 10
1.625949136602157
 20
1.345194748322656
 30
0.0
 11
1.625949136602157
 21
1.239982769769229
 31
0.0
  0
LINE
  5
7DE1B343D9E0122
330
7DE1B343D9E0166
100
AcDbEntity
  8
TEXT
100
AcDbLine
 10
1.853632875540526
 20
1.269329421911118
 30
0.0
 11
1.853632875540526
 21
1.410658954090257
 31
0.0
  0
LINE
  5
7DE1B343D9E0123
330
7DE1B343D9E0166
100
AcDbEntity
  8
TEXT
100
AcDbLine
 10
1.900731034096511
 20
1.345194748322656
 30
0.0
 11
1.853632875540526
 21
1.269329421911118
 31
0.0
  0
LINE
  5
7DE1B343D9E0124
330
7DE1B343D9E0166
100
AcDbEntity
  8
TEXT
100
AcDbLine
 10
1.911165750860434
 20
1.235301505381683
 30
0.0
 11
1.975722866826139
 21
1.345194748322656
 31
0.0
  0
LINE
  5
7DE1B343D9E0125
330
7DE1B343D9E0166
100
AcDbEntity
  8
TEXT
100
AcDbLine
 10
1.789797884317753
 20
1.078721715334145
 30
0.0
 11
1.854176068636374
 21
1.078721715334145
 31
0.0
  0
LWPOLYLINE
  5
7DE1B343D9E0126
330
7DE1B343D9E0166
100
AcDbEntity
  8
TEXT
100
AcDbPolyline
 90
        2
 70
     0
 43
0.0
 10
1.629888813907195
 20
1.122212660284583
 42
-0.2901071551932486
 10
1.586812881039551
 20
1.078721715334145
 42
-5.328517124445184
  0
ARC
  5
7DE1B343D9E012A
330
7DE1B343D9E0166
100
AcDbEntity
  8
TEXT
100
AcDbCircle
 10
1.517958299382636
 20
1.252558678665893
 30
0.0
 40
0.028359375
100
AcDbArc
 50
25.78218179591245
 51
90.0
  0
LINE
  5
7DE1B343D9E012B
330
7DE1B343D9E0166
100
AcDbEntity
  8
TEXT
100
AcDbLine
 10
1.553759374686759
 20
1.243643080203759
 30
0.0
 11
1.543494614273195
 21
1.264893619776453
 31
0.0
  0
LINE
  5
7DE1B343D9E012C
330
7DE1B343D9E0166
100
AcDbEntity
  8
TEXT
100
AcDbLine
 10
1.471471384903376
 20
1.243643080203759
 30
0.0
 11
1.553759374686759
 21
1.243643080203759
 31
0.0
  0
LWPOLYLINE
  5
7DE1B343D9E012D
330
7DE1B343D9E0166
100
AcDbEntity
  8
TEXT
100
AcDbPolyline
 90
        4
 70
     1
 43
0.0
 10
1.566690415969658
 20
1.18168569331817
 10
1.4780300973098
 20
1.18168569331817
 42
0.9999999999999998
 10
1.4780300973098
 20
1.13928715281431
 10
1.566690415969658
 20
1.13928715281431
 42
1.0
  0
LWPOLYLINE
  5
7DE1B343D9E0133
330
7DE1B343D9E0166
100
AcDbEntity
  8
TEXT
100
AcDbPolyline
 90
        2
 70
     0
 43
0.0
 10
1.452795463408174
 20
1.078721715334145
 10
1.586812881039551
 20
1.078721715334145
 42
0.9999999999999998
  0
LINE
  5
7DE1B343D9E0137
330
7DE1B343D9E0166
100
AcDbEntity
  8
TEXT
100
AcDbLine
 10
1.71314990302519
 20
1.280918053665891
 30
0.0
 11
1.789797884317748
 21
1.280918053665891
 31
0.0
  0
LINE
  5
7DE1B343D9E0138
330
7DE1B343D9E0166
100
AcDbEntity
  8
TEXT
100
AcDbLine
 10
1.789797884317748
 20
1.280918053665891
 30
0.0
 11
1.789797884317753
 21
1.078721715334145
 31
0.0
  0
ARC
  5
7DE1B343D9E0139
330
7DE1B343D9E0166
100
AcDbEntity
  8
TEXT
100
AcDbCircle
 10
1.713149903025188
 20
1.256012178383228
 30
0.0
 40
0.0249058752826653
100
AcDbArc
 50
89.99971217465335
 51
179.9999999999985
  0
LINE
  5
7DE1B343D9E013A
330
7DE1B343D9E0166
100
AcDbEntity
  8
TEXT
100
AcDbLine
 10
1.688244027742531
 20
1.078721715334145
 30
0.0
 11
1.688244027742526
 21
1.256012220765614
 31
0.0
  0
LWPOLYLINE
  5
7DE1B343D9E013B
330
7DE1B343D9E0166
100
AcDbEntity
  8
TEXT
100
AcDbPolyline
 90
        2
 70
     0
 43
0.0
 10
1.629888813907195
 20
1.078721715334145
 10
1.688244027742529
 20
1.078721715334145
  0
LWPOLYLINE
  5
7DE1B343D9E013F
330
7DE1B343D9E0166
100
AcDbEntity
  8
TEXT
100
AcDbPolyline
 90
        2
 70
     0
 43
0.0
 10
1.629888813907195
 20
1.122212660284583
 10
1.629888813907195
 20
1.078721715334145
  0
LINE
  5
7DE1B343D9E0143
330
7DE1B343D9E0166
100
AcDbEntity
  8
TEXT
100
AcDbLine
 10
2.006657974224044
 20
1.078721715334145
 30
0.0
 11
1.911165750860434
 21
1.235301505381683
 31
0.0
  0
LINE
  5
7DE1B343D9E0144
330
7DE1B343D9E0166
100
AcDbEntity
  8
TEXT
100
AcDbLine
 10
1.930079601847838
 20
1.078721715334145
 30
0.0
 11
2.006657974224044
 21
1.078721715334145
 31
0.0
  0
LINE
  5
7DE1B343D9E0145
330
7DE1B343D9E0166
100
AcDbEntity
  8
TEXT
100
AcDbLine
 10
1.854176068636374
 20
1.210301283810325
 30
0.0
 11
1.930079601847838
 21
1.078721715334145
 31
0.0
  0
LINE
  5
7DE1B343D9E0146
330
7DE1B343D9E0166
100
AcDbEntity
  8
TEXT
100
AcDbLine
 10
1.854176068636374
 20
1.078721715334145
 30
0.0
 11
1.854176068636374
 21
1.210301283810325
 31
0.0
  0
LINE
  5
7DE1B343D9E0147
330
7DE1B343D9E0166
100
AcDbEntity
  8
TEXT
100
AcDbLine
 10
1.853632875540526
 20
1.410658954090257
 30
0.0
 11
1.785317996991253
 21
1.410658954090257
 31
0.0
  0
ARC
  5
7DE1B343D9E0148
330
7DE1B343D9E0166
100
AcDbEntity
  8
TEXT
100
AcDbCircle
 10
1.544962257950047
 20
1.303611181201754
 30
0.0
 40
0.0416329381542859
100
AcDbArc
 50
26.56974201007528
 51
87.20939649401342
  0
LINE
  5
7DE1B343D9E0149
330
7DE1B343D9E0166
100
AcDbEntity
  8
TEXT
100
AcDbLine
 10
1.689846042901658
 20
1.345194748322656
 30
0.0
 11
1.625949136602157
 21
1.345194748322656
 31
0.0
  0
LINE
  5
7DE1B343D9E014A
330
7DE1B343D9E0166
100
AcDbEntity
  8
TEXT
100
AcDbLine
 10
1.689846042901658
 20
1.317647098461782
 30
0.0
 11
1.689846042901658
 21
1.345194748322656
 31
0.0
  0
ARC
  5
7DE1B343D9E014B
330
7DE1B343D9E0166
100
AcDbEntity
  8
TEXT
100
AcDbCircle
 10
1.721038859964766
 20
1.313949021040391
 30
0.0
 40
0.0314112657011332
100
AcDbArc
 50
95.88484768694724
 51
173.2388340632136
  0
LINE
  5
7DE1B343D9E014C
330
7DE1B343D9E0166
100
AcDbEntity
  8
TEXT
100
AcDbLine
 10
1.785317996991248
 20
1.345194748322656
 30
0.0
 11
1.717818279341731
 21
1.345194748322656
 31
0.0
  0
LINE
  5
7DE1B343D9E014D
330
7DE1B343D9E0166
100
AcDbEntity
  8
TEXT
100
AcDbLine
 10
1.785317996991253
 20
1.410658954090257
 30
0.0
 11
1.785317996991248
 21
1.345194748322656
 31
0.0
  0
LINE
  5
7DE1B343D9E014E
330
7DE1B343D9E0166
100
AcDbEntity
  8
TEXT
100
AcDbLine
 10
1.975722866826139
 20
1.345194748322656
 30
0.0
 11
1.900731034096513
 21
1.345194748322656
 31
0.0
  0
INSERT
  5
7DE1B343D9E0181
330
7DE1B343D9E0166
100
AcDbEntity
  8
ASHADE
 62
     1
100
AcDbBlockReference
  2
AVE_RENDER
 10
0.0
 20
0.0
 30
0.0
1001
AVE_RENDER
1002
{
1070
     6
1000
Pref
1070
    30
1070
    20
1070
     1
1070
     0
1000

1070
    10
1070
     1
1070
    30
1040
1.0
1070
     1
1040
0.3
1040
0.7
1040
0.0
1040
10.0
1010
-1.0
1020
-1.0
1030
-1.0
1040
0.3
1070
    49
1070
     0
1070
     0
1010
1.0
1020
1.0
1030
1.0
1040
45.0
1070
     1
1070
     0
1000
WCS
1040
0.0
1002
}
  0
INSERT
  5
7DE1B343D9E0182
330
7DE1B343D9E0166
100
AcDbEntity
  8
ASHADE
 62
     3
100
AcDbBlockReference
  2
AVE_RENDER
 10
0.0
 20
0.0
 30
0.0
1001
AVE_RENDER
1002
{
1070
     0
1000
Full Opt
1070
     0
1070
     1
1070
     1
1070
     1
1070
     0
1070
     0
1070
     0
1070
     1
1070
     1
1040
0.0001
1040
0.0001
1002
}
  0
INSERT
  5
7DE1B343D9E0183
330
7DE1B343D9E0166
100
AcDbEntity
  8
ASHADE
 62
     4
100
AcDbBlockReference
  2
AVE_RENDER
 10
0.0
 20
0.0
 30
0.0
1001
AVE_RENDER
1002
{
1070
     0
1000
Quick Opt
1070
     0
1070
     1
1070
     1
1070
     1
1070
     0
1070
     0
1070
     1
1002
}
  0
INSERT
  5
7DE1B343D9E0184
330
7DE1B343D9E0166
100
AcDbEntity
  8
ASHADE
 62
     5
100
AcDbBlockReference
  2
AVE_RENDER
 10
0.0
 20
0.0
 30
0.0
1001
AVE_RENDER
1002
{
1070
     1
1000
Scanl Opt
1070
     2
1070
     0
1070
     2
1040
2.0
1040
4.0
1070
     0
1070
     1
1070
     0
1040
0.03
1002
}
  0
INSERT
  5
7DE1B343D9E0185
330
7DE1B343D9E0166
100
AcDbEntity
  8
ASHADE
 62
     6
100
AcDbBlockReference
  2
AVE_RENDER
 10
0.0
 20
0.0
 30
0.0
1001
AVE_RENDER
1002
{
1070
     2
1000
Raytr Opt
1070
     2
1070
     0
1070
     2
1040
2.0
1040
4.0
1070
     0
1070
     1
1070
     1
1040
0.03
1070
     3
1040
0.03
1002
}
  0
INSERT
  5
7DE1B343D9E0186
330
7DE1B343D9E0166
100
AcDbEntity
  8
ASHADE
 62
     7
100
AcDbBlockReference
  2
AVE_RENDER
 10
0.0
 20
0.0
 30
0.0
1001
AVE_RENDER
1002
{
1070
     0
1000
RFile Opt
1070
     5
1070
   640
1070
   480
1070
 10000
1070
     3
1070
    32
1070
    24
1070
     0
1070
     0
1070
     0
1070
     1
1070
     0
1070
     0
1070
     0
1002
}
  0
INSERT
  5
7DE1B343D9E0187
330
7DE1B343D9E0166
100
AcDbEntity
  8
ASHADE
 62
     8
100
AcDbBlockReference
  2
AVE_RENDER
 10
0.0
 20
0.0
 30
0.0
1001
AVE_RENDER
1002
{
1070
     0
1000
Fog Opt
1070
     0
1070
     0
1040
0.0
1040
1.0
1040
0.0
1040
1.0
1010
0.5
1020
0.5
1030
0.5
1002
}
  0
INSERT
  5
7DE1B343D9E0188
330
7DE1B343D9E0166
100
AcDbEntity
  8
ASHADE
 62
     9
100
AcDbBlockReference
  2
AVE_RENDER
 10
0.0
 20
0.0
 30
0.0
1001
AVE_RENDER
1002
{
1070
     0
1000
BG Opt
1070
     0
1070
     1
1010
0.0
1020
0.0
1030
0.0
1010
1.0
1020
0.0
1030
0.0
1010
0.0
1020
1.0
1030
0.0
1010
0.0
1020
0.0
1030
1.0
1040
0.5
1040
0.33
1040
0.0
1000

1070
     1
1000

1070
     1
1070
     1
1040
1.0
1040
1.0
1040
0.0
1040
0.0
1070
     0
1002
}
  0
INSERT
  5
7DE1B343D9E018F
330
7DE1B343D9E0166
100
AcDbEntity
  8
ASHADE
 62
     1
100
AcDbBlockReference
  2
AVE_GLOBAL
 10
0.0
 20
0.0
 30
0.0
1001
AVE_MATERIAL
1002
{
1000
*GLOBAL*
1000
1
1000
Global finish.
1002
{
1002
}
1002
{
1070
    63
1002
{
1002
{
1010
-1.0
1020
-1.0
1030
-1.0
1002
}
1040
0.1000000014901161
1000

1040
0.0
1002
{
1002
}
1040
0.0
1002
{
1002
}
1040
0.0
1002
}
1002
{
1002
{
1010
-1.0
1020
-1.0
1030
-1.0
1002
}
1040
0.6999999880790711
1000

1040
0.0
1002
{
1002
}
1040
0.0
1002
{
1002
}
1040
0.0
1002
}
1002
{
1002
{
1010
-1.0
1020
-1.0
1030
-1.0
1002
}
1040
0.2000000029802322
1000

1040
0.0
1002
{
1002
}
1040
0.0
1002
{
1002
}
1040
0.0
1002
}
1002
{
1070
     0
1002
{
1070
     1
1002
{
1040
1.0
1040
1.0
1000

1040
0.0
1002
{
1002
}
1040
0.0
1002
{
1002
}
1040
0.0
1002
}
1002
}
1040
1.0
1040
0.0
1040
0.0
1002
}
1002
{
1040
1.0
1040
1.0
1000

1040
0.0
1002
{
1002
}
1040
0.0
1002
{
1002
}
1040
0.0
1002
}
1002
{
1040
0.5
1040
1.0
1000

1040
0.0
1002
{
1002
}
1040
0.0
1002
{
1002
}
1040
0.0
1002
}
1002
{
1070
     0
1040
0.0
1002
{
1002
}
1040
1.0
1002
{
1002
}
1040
0.0
1002
}
1002
{
1040
0.0
1002
{
1002
{
1010
0.0
1020
0.0
1030
0.0
1002
}
1040
1.0
1000

1040
0.0
1002
{
1002
}
1040
0.0
1002
{
1002
}
1040
0.0
1002
}
1002
}
1002
{
1002
{
1070
     1
1002
{
1040
0.0
1040
1.0
1000

1040
0.0
1002
{
1002
}
1040
0.0
1002
{
1002
}
1040
0.0
1002
}
1002
}
1040
0.0
1002
{
1002
}
1010
1.0
1020
0.0
1030
0.0
1010
0.0
1020
1.0
1030
0.0
1010
0.0
1020
0.0
1030
1.0
1070
     0
1002
}
1002
{
1002
{
1040
1.0
1040
1.0
1002
{
1070
     1
1002
{
1040
1.0
1040
1.0
1000

1040
0.0
1002
{
1002
}
1040
0.0
1002
{
1002
}
1040
0.0
1002
}
1002
}
1002
}
1070
     0
1040
0.0
1002
{
1002
}
1002
}
1002
{
1002
}
1002
}
1002
{
1071
        3
1070
     3
1070
     0
1002
{
1070
     2
1070
     0
1070
     0
1040
0.0
1002
}
1070
     0
1070
     2
1002
{
1002
}
1002
}
1002
{
1040
8030.0
1040
190.3000030517578
1040
0.3050000071525574
1040
228.0
1040
545.0
1040
14.0
1040
17.39999961853027
1040
0.4560000002384186
1002
}
1002
}
  0
ENDSEC
  0
SECTION
  2
OBJECTS
  0
DICTIONARY
  5
7DE1B343D9E015A
330
0
100
AcDbDictionary
  3
ACAD_GROUP
350
7DE1B343D9E015B
  3
ACAD_LAYOUT
350
7DE1B343D9E019B
  3
ACAD_MLINESTYLE
350
7DE1B343D9E015C
  3
ACAD_PLOTSETTINGS
350
7DE1B343D9E019C
  3
ACAD_PLOTSTYLENAME
350
7DE1B343D9E0199
  3
ACDBHEADERROUNDTRIPXREC
350
7DE1B343D9E01A6
  3
ACDBVARIABLEDICTIONARY
350
7DE1B343D9E01A3
  0
DICTIONARY
  5
7DE1B343D9E01C8
330
7DE1B343D9E0166
100
AcDbDictionary
280
     1
  3
ACAD_LAYOUTSELFREF
360
7DE1B343D9E01C9
  0
DICTIONARY
  5
7DE1B343D9E01C6
330
7DE1B343D9E0163
100
AcDbDictionary
280
     1
  3
ACAD_LAYOUTSELFREF
360
7DE1B343D9E01C7
  0
DICTIONARY
  5
7DE1B343D9E015B
102
{ACAD_REACTORS
330
7DE1B343D9E015A
102
}
330
7DE1B343D9E015A
100
AcDbDictionary
  0
DICTIONARY
  5
7DE1B343D9E019B
102
{ACAD_REACTORS
330
7DE1B343D9E015A
102
}
330
7DE1B343D9E015A
100
AcDbDictionary
  0
DICTIONARY
  5
7DE1B343D9E015C
102
{ACAD_REACTORS
330
7DE1B343D9E015A
102
}
330
7DE1B343D9E015A
100
AcDbDictionary
  3
STANDARD
350
7DE1B343D9E0169
  0
DICTIONARY
  5
7DE1B343D9E019C
102
{ACAD_REACTORS
330
7DE1B343D9E015A
102
}
330
7DE1B343D9E015A
100
AcDbDictionary
  0
ACDBDICTIONARYWDFLT
  5
7DE1B343D9E0199
102
{ACAD_REACTORS
330
7DE1B343D9E015A
102
}
330
7DE1B343D9E015A
100
AcDbDictionary
281
     1
  3
Normal
350
7DE1B343D9E019A
100
AcDbDictionaryWithDefault
340
7DE1B343D9E019A
  0
DICTIONARY
  5
7DE1B343D9E01A6
102
{ACAD_REACTORS
330
7DE1B343D9E015A
102
}
330
7DE1B343D9E015A
100
AcDbDictionary
  3
CEPSNTYPE
350
7DE1B343D9E01B0
  3
FINGERPRINTGUID
350
7DE1B343D9E01B1
  3
HYPERLINKBASE
350
7DE1B343D9E01A9
  3
INSUNITS
350
7DE1B343D9E01AF
  3
LAYOUTDICT
350
7DE1B343D9E01AB
  3
LWETCUNION
350
7DE1B343D9E01AE
  3
PLOTSETDICT
350
7DE1B343D9E01AC
  3
PLOTSTYLNAMDICT
350
7DE1B343D9E01AD
  3
PSVPSCALE
350
7DE1B343D9E01B3
  3
PUCSBASE
350
7DE1B343D9E01B6
  3
PUCSORGBACK
350
7DE1B343D9E01BC
  3
PUCSORGBOTTOM
350
7DE1B343D9E01B8
  3
PUCSORGFRONT
350
7DE1B343D9E01BB
  3
PUCSORGLEFT
350
7DE1B343D9E01B9
  3
PUCSORGRIGHT
350
7DE1B343D9E01BA
  3
PUCSORGTOP
350
7DE1B343D9E01B7
  3
PUCSORTHOREF
350
7DE1B343D9E01B4
  3
PUCSORTHOVIEW
350
7DE1B343D9E01B5
  3
STYLESHEET
350
7DE1B343D9E01AA
  3
TSTACKALIGN
350
7DE1B343D9E01A7
  3
TSTACKSIZE
350
7DE1B343D9E01A8
  3
UCSBASE
350
7DE1B343D9E01BF
  3
UCSORGBACK
350
7DE1B343D9E01C5
  3
UCSORGBOTTOM
350
7DE1B343D9E01C1
  3
UCSORGFRONT
350
7DE1B343D9E01C4
  3
UCSORGLEFT
350
7DE1B343D9E01C2
  3
UCSORGRIGHT
350
7DE1B343D9E01C3
  3
UCSORGTOP
350
7DE1B343D9E01C0
  3
UCSORTHOREF
350
7DE1B343D9E01BD
  3
UCSORTHOVIEW
350
7DE1B343D9E01BE
  3
VERSIONGUID
350
7DE1B343D9E01B2
  0
DICTIONARY
  5
7DE1B343D9E01A3
102
{ACAD_REACTORS
330
7DE1B343D9E015A
102
}
330
7DE1B343D9E015A
100
AcDbDictionary
  3
DIMASSOC
350
7DE1B343D9E01A4
  0
XRECORD
  5
7DE1B343D9E01C9
102
{ACAD_REACTORS
330
7DE1B343D9E01C8
102
}
330
7DE1B343D9E01C8
100
AcDbXrecord
340
7DE1B343D9E0166
  0
XRECORD
  5
7DE1B343D9E01C7
102
{ACAD_REACTORS
330
7DE1B343D9E01C6
102
}
330
7DE1B343D9E01C6
100
AcDbXrecord
340
7DE1B343D9E0163
  0
MLINESTYLE
  5
7DE1B343D9E0169
102
{ACAD_REACTORS
330
7DE1B343D9E015C
102
}
330
7DE1B343D9E015C
100
AcDbMlineStyle
  2
STANDARD
 70
     0
  3

 62
     0
 51
90.0
 52
90.0
 71
     2
 49
0.5
 62
   256
  6
BYLAYER
 49
-0.5
 62
   256
  6
BYLAYER
  0
ACDBPLACEHOLDER
  5
7DE1B343D9E019A
102
{ACAD_REACTORS
330
7DE1B343D9E0199
102
}
330
7DE1B343D9E0199
100
AcDbPlaceHolder
280
     0
  0
XRECORD
  5
7DE1B343D9E01B0
102
{ACAD_REACTORS
330
7DE1B343D9E01A6
102
}
330
7DE1B343D9E01A6
100
AcDbXrecord
 90
        0
  0
XRECORD
  5
7DE1B343D9E01B1
102
{ACAD_REACTORS
330
7DE1B343D9E01A6
102
}
330
7DE1B343D9E01A6
100
AcDbXrecord
  1
{CD8AB1F0-8DB6-11D6-88E6-0090279574E7}
  0
XRECORD
  5
7DE1B343D9E01A9
102
{ACAD_REACTORS
330
7DE1B343D9E01A6
102
}
330
7DE1B343D9E01A6
100
AcDbXrecord
  1

  0
XRECORD
  5
7DE1B343D9E01AF
102
{ACAD_REACTORS
330
7DE1B343D9E01A6
102
}
330
7DE1B343D9E01A6
100
AcDbXrecord
 90
        0
  0
XRECORD
  5
7DE1B343D9E01AB
102
{ACAD_REACTORS
330
7DE1B343D9E01A6
102
}
330
7DE1B343D9E01A6
100
AcDbXrecord
340
7DE1B343D9E019B
  0
XRECORD
  5
7DE1B343D9E01AE
102
{ACAD_REACTORS
330
7DE1B343D9E01A6
102
}
330
7DE1B343D9E01A6
100
AcDbXrecord
 90
    14877
  0
XRECORD
  5
7DE1B343D9E01AC
102
{ACAD_REACTORS
330
7DE1B343D9E01A6
102
}
330
7DE1B343D9E01A6
100
AcDbXrecord
340
7DE1B343D9E019C
  0
XRECORD
  5
7DE1B343D9E01AD
102
{ACAD_REACTORS
330
7DE1B343D9E01A6
102
}
330
7DE1B343D9E01A6
100
AcDbXrecord
340
7DE1B343D9E0199
  0
XRECORD
  5
7DE1B343D9E01B3
102
{ACAD_REACTORS
330
7DE1B343D9E01A6
102
}
330
7DE1B343D9E01A6
100
AcDbXrecord
 40
0.0
  0
XRECORD
  5
7DE1B343D9E01B6
102
{ACAD_REACTORS
330
7DE1B343D9E01A6
102
}
330
7DE1B343D9E01A6
100
AcDbXrecord
340
0
  0
XRECORD
  5
7DE1B343D9E01BC
102
{ACAD_REACTORS
330
7DE1B343D9E01A6
102
}
330
7DE1B343D9E01A6
100
AcDbXrecord
 10
0.0
 20
0.0
 30
0.0
  0
XRECORD
  5
7DE1B343D9E01B8
102
{ACAD_REACTORS
330
7DE1B343D9E01A6
102
}
330
7DE1B343D9E01A6
100
AcDbXrecord
 10
0.0
 20
0.0
 30
0.0
  0
XRECORD
  5
7DE1B343D9E01BB
102
{ACAD_REACTORS
330
7DE1B343D9E01A6
102
}
330
7DE1B343D9E01A6
100
AcDbXrecord
 10
0.0
 20
0.0
 30
0.0
  0
XRECORD
  5
7DE1B343D9E01B9
102
{ACAD_REACTORS
330
7DE1B343D9E01A6
102
}
330
7DE1B343D9E01A6
100
AcDbXrecord
 10
0.0
 20
0.0
 30
0.0
  0
XRECORD
  5
7DE1B343D9E01BA
102
{ACAD_REACTORS
330
7DE1B343D9E01A6
102
}
330
7DE1B343D9E01A6
100
AcDbXrecord
 10
0.0
 20
0.0
 30
0.0
  0
XRECORD
  5
7DE1B343D9E01B7
102
{ACAD_REACTORS
330
7DE1B343D9E01A6
102
}
330
7DE1B343D9E01A6
100
AcDbXrecord
 10
0.0
 20
0.0
 30
0.0
  0
XRECORD
  5
7DE1B343D9E01B4
102
{ACAD_REACTORS
330
7DE1B343D9E01A6
102
}
330
7DE1B343D9E01A6
100
AcDbXrecord
340
0
  0
XRECORD
  5
7DE1B343D9E01B5
102
{ACAD_REACTORS
330
7DE1B343D9E01A6
102
}
330
7DE1B343D9E01A6
100
AcDbXrecord
 70
     0
  0
XRECORD
  5
7DE1B343D9E01AA
102
{ACAD_REACTORS
330
7DE1B343D9E01A6
102
}
330
7DE1B343D9E01A6
100
AcDbXrecord
  1

  0
XRECORD
  5
7DE1B343D9E01A7
102
{ACAD_REACTORS
330
7DE1B343D9E01A6
102
}
330
7DE1B343D9E01A6
100
AcDbXrecord
 90
        1
  0
XRECORD
  5
7DE1B343D9E01A8
102
{ACAD_REACTORS
330
7DE1B343D9E01A6
102
}
330
7DE1B343D9E01A6
100
AcDbXrecord
 90
       70
  0
XRECORD
  5
7DE1B343D9E01BF
102
{ACAD_REACTORS
330
7DE1B343D9E01A6
102
}
330
7DE1B343D9E01A6
100
AcDbXrecord
340
0
  0
XRECORD
  5
7DE1B343D9E01C5
102
{ACAD_REACTORS
330
7DE1B343D9E01A6
102
}
330
7DE1B343D9E01A6
100
AcDbXrecord
 10
0.0
 20
0.0
 30
0.0
  0
XRECORD
  5
7DE1B343D9E01C1
102
{ACAD_REACTORS
330
7DE1B343D9E01A6
102
}
330
7DE1B343D9E01A6
100
AcDbXrecord
 10
0.0
 20
0.0
 30
0.0
  0
XRECORD
  5
7DE1B343D9E01C4
102
{ACAD_REACTORS
330
7DE1B343D9E01A6
102
}
330
7DE1B343D9E01A6
100
AcDbXrecord
 10
0.0
 20
0.0
 30
0.0
  0
XRECORD
  5
7DE1B343D9E01C2
102
{ACAD_REACTORS
330
7DE1B343D9E01A6
102
}
330
7DE1B343D9E01A6
100
AcDbXrecord
 10
0.0
 20
0.0
 30
0.0
  0
XRECORD
  5
7DE1B343D9E01C3
102
{ACAD_REACTORS
330
7DE1B343D9E01A6
102
}
330
7DE1B343D9E01A6
100
AcDbXrecord
 10
0.0
 20
0.0
 30
0.0
  0
XRECORD
  5
7DE1B343D9E01C0
102
{ACAD_REACTORS
330
7DE1B343D9E01A6
102
}
330
7DE1B343D9E01A6
100
AcDbXrecord
 10
0.0
 20
0.0
 30
0.0
  0
XRECORD
  5
7DE1B343D9E01BD
102
{ACAD_REACTORS
330
7DE1B343D9E01A6
102
}
330
7DE1B343D9E01A6
100
AcDbXrecord
340
0
  0
XRECORD
  5
7DE1B343D9E01BE
102
{ACAD_REACTORS
330
7DE1B343D9E01A6
102
}
330
7DE1B343D9E01A6
100
AcDbXrecord
 70
     0
  0
XRECORD
  5
7DE1B343D9E01B2
102
{ACAD_REACTORS
330
7DE1B343D9E01A6
102
}
330
7DE1B343D9E01A6
100
AcDbXrecord
  1
{CD8AB1F2-8DB6-11D6-88E6-0090279574E7}
  0
DICTIONARYVAR
  5
7DE1B343D9E01A4
102
{ACAD_REACTORS
330
7DE1B343D9E01A3
102
}
330
7DE1B343D9E01A3
100
DictionaryVariables
280
     0
  1
1
  0
ENDSEC
  0
EOF
