  0
SECTION
  2
HEADER
  9
$ACADVER
  1
AC1014
  9
$ACADMAINTVER
 70
     9
  9
$DWGCODEPAGE
  3
ANSI_1252
  9
$INSBASE
 10
3.345413828455008
 20
3.344853495583927
 30
0.0
  9
$EXTMIN
 10
1.913009108770972
 20
0.5191858172248521
 30
0.0
  9
$EXTMAX
 10
5.398228430518107
 20
4.281994107374703
 30
0.0
  9
$LIMMIN
 10
0.0
 20
0.0
  9
$LIMMAX
 10
18.0
 20
12.0
  9
$ORTHOMODE
 70
     1
  9
$REGENMODE
 70
     1
  9
$FILLMODE
 70
     1
  9
$QTEXTMODE
 70
     0
  9
$MIRRTEXT
 70
     0
  9
$DRAGMODE
 70
     2
  9
$LTSCALE
 40
1.0
  9
$OSMODE
 70
    39
  9
$ATTMODE
 70
     1
  9
$TEXTSIZE
 40
0.125
  9
$TRACEWID
 40
0.05
  9
$TEXTSTYLE
  7
ROMANS
  9
$CLAYER
  8
0
  9
$CELTYPE
  6
BYLAYER
  9
$CECOLOR
 62
   256
  9
$CELTSCALE
 40
1.0
  9
$DELOBJ
 70
     1
  9
$DISPSILH
 70
     1
  9
$DIMSCALE
 40
1.0
  9
$DIMASZ
 40
0.125
  9
$DIMEXO
 40
0.125
  9
$DIMDLI
 40
0.375
  9
$DIMRND
 40
0.0
  9
$DIMDLE
 40
0.0
  9
$DIMEXE
 40
0.125
  9
$DIMTP
 40
0.0
  9
$DIMTM
 40
0.0
  9
$DIMTXT
 40
0.125
  9
$DIMCEN
 40
-0.125
  9
$DIMTSZ
 40
0.0
  9
$DIMTOL
 70
     0
  9
$DIMLIM
 70
     0
  9
$DIMTIH
 70
     1
  9
$DIMTOH
 70
     1
  9
$DIMSE1
 70
     0
  9
$DIMSE2
 70
     0
  9
$DIMTAD
 70
     0
  9
$DIMZIN
 70
     4
  9
$DIMBLK
  1

  9
$DIMASO
 70
     1
  9
$DIMSHO
 70
     1
  9
$DIMPOST
  1

  9
$DIMAPOST
  1

  9
$DIMALT
 70
     0
  9
$DIMALTD
 70
     2
  9
$DIMALTF
 40
25.4
  9
$DIMLFAC
 40
1.0
  9
$DIMTOFL
 70
     0
  9
$DIMTVP
 40
0.0
  9
$DIMTIX
 70
     1
  9
$DIMSOXD
 70
     0
  9
$DIMSAH
 70
     0
  9
$DIMBLK1
  1

  9
$DIMBLK2
  1

  9
$DIMSTYLE
  2
STANDARD
  9
$DIMCLRD
 70
     0
  9
$DIMCLRE
 70
     0
  9
$DIMCLRT
 70
     0
  9
$DIMTFAC
 40
1.0
  9
$DIMGAP
 40
0.09
  9
$DIMJUST
 70
     0
  9
$DIMSD1
 70
     0
  9
$DIMSD2
 70
     0
  9
$DIMTOLJ
 70
     1
  9
$DIMTZIN
 70
     4
  9
$DIMALTZ
 70
     0
  9
$DIMALTTZ
 70
     0
  9
$DIMFIT
 70
     3
  9
$DIMUPT
 70
     0
  9
$DIMUNIT
 70
     2
  9
$DIMDEC
 70
     3
  9
$DIMTDEC
 70
     3
  9
$DIMALTU
 70
     2
  9
$DIMALTTD
 70
     2
  9
$DIMTXSTY
  7
ROMANS
  9
$DIMAUNIT
 70
     0
  9
$LUNITS
 70
     2
  9
$LUPREC
 70
     3
  9
$SKETCHINC
 40
0.1
  9
$FILLETRAD
 40
0.03125
  9
$AUNITS
 70
     0
  9
$AUPREC
 70
     0
  9
$MENU
  1
ACAD
  9
$ELEVATION
 40
0.0
  9
$PELEVATION
 40
0.0
  9
$THICKNESS
 40
0.0
  9
$LIMCHECK
 70
     0
  9
$BLIPMODE
 70
     0
  9
$CHAMFERA
 40
0.0
  9
$CHAMFERB
 40
0.0
  9
$CHAMFERC
 40
0.0
  9
$CHAMFERD
 40
0.0
  9
$SKPOLY
 70
     0
  9
$TDCREATE
 40
2448994.610254629
  9
$TDUPDATE
 40
2452458.309348495
  9
$TDINDWG
 40
0.0007294792
  9
$TDUSRTIMER
 40
0.0007294792
  9
$USRTIMER
 70
     1
  9
$ANGBASE
 50
0.0
  9
$ANGDIR
 70
     0
  9
$PDMODE
 70
     0
  9
$PDSIZE
 40
0.0
  9
$PLINEWID
 40
0.0
  9
$COORDS
 70
     2
  9
$SPLFRAME
 70
     0
  9
$SPLINETYPE
 70
     6
  9
$SPLINESEGS
 70
     8
  9
$ATTDIA
 70
     0
  9
$ATTREQ
 70
     1
  9
$HANDLING
 70
 22529
  9
$HANDSEED
  5
7DE1B343D9DFD16
  9
$SURFTAB1
 70
     6
  9
$SURFTAB2
 70
     6
  9
$SURFTYPE
 70
     6
  9
$SURFU
 70
     6
  9
$SURFV
 70
     6
  9
$UCSNAME
  2

  9
$UCSORG
 10
0.0
 20
0.0
 30
0.0
  9
$UCSXDIR
 10
1.0
 20
0.0
 30
0.0
  9
$UCSYDIR
 10
0.0
 20
1.0
 30
0.0
  9
$PUCSNAME
  2

  9
$PUCSORG
 10
0.0
 20
0.0
 30
0.0
  9
$PUCSXDIR
 10
1.0
 20
0.0
 30
0.0
  9
$PUCSYDIR
 10
0.0
 20
1.0
 30
0.0
  9
$USERI1
 70
     0
  9
$USERI2
 70
     0
  9
$USERI3
 70
     0
  9
$USERI4
 70
     0
  9
$USERI5
 70
     0
  9
$USERR1
 40
0.0
  9
$USERR2
 40
0.0
  9
$USERR3
 40
0.0
  9
$USERR4
 40
0.0
  9
$USERR5
 40
0.0
  9
$WORLDVIEW
 70
     1
  9
$SHADEDGE
 70
     3
  9
$SHADEDIF
 70
    70
  9
$TILEMODE
 70
     1
  9
$MAXACTVP
 70
    16
  9
$PINSBASE
 10
2.98966581283746
 20
50.00000000000001
 30
1.305569590923536
  9
$PLIMCHECK
 70
     0
  9
$PEXTMIN
 10
1.000000000000000E+20
 20
1.000000000000000E+20
 30
1.000000000000000E+20
  9
$PEXTMAX
 10
-1.000000000000000E+20
 20
-1.000000000000000E+20
 30
-1.000000000000000E+20
  9
$PLIMMIN
 10
0.0
 20
0.0
  9
$PLIMMAX
 10
12.0
 20
9.0
  9
$UNITMODE
 70
     0
  9
$VISRETAIN
 70
     0
  9
$PLINEGEN
 70
     1
  9
$PSLTSCALE
 70
     0
  9
$TREEDEPTH
 70
  3020
  9
$PICKSTYLE
 70
     1
  9
$CMLSTYLE
  2
STANDARD
  9
$CMLJUST
 70
     0
  9
$CMLSCALE
 40
1.0
  9
$PROXYGRAPHICS
 70
     1
  9
$MEASUREMENT
 70
     0
  0
ENDSEC
  0
SECTION
  2
CLASSES
  0
CLASS
  1
LWPOLYLINE
  2
AcDbPolyline
  3
AutoCAD 2000
 90
        0
280
     0
281
     1
  0
CLASS
  1
ACDBDICTIONARYWDFLT
  2
AcDbDictionaryWithDefault
  3
AutoCAD 2000
 90
        0
280
     0
281
     0
  0
CLASS
  1
ACDBPLACEHOLDER
  2
AcDbPlaceHolder
  3
AutoCAD 2000
 90
        0
280
     0
281
     0
  0
CLASS
  1
LAYOUT
  2
AcDbLayout
  3
AutoCAD 2000
 90
        0
280
     0
281
     0
  0
CLASS
  1
DICTIONARYVAR
  2
AcDbDictionaryVar
  3
AutoCAD 2000
 90
        0
280
     0
281
     0
  0
CLASS
  1
LONG_TRANSACTION
  2
AcDbLongTransaction
  3
AutoCAD 2000
 90
        0
280
     0
281
     0
  0
CLASS
  1
LWPOLYLINE
  2
AcDbPolyline
  3
AutoCAD 2000
 90
        0
280
     0
281
     1
  0
CLASS
  1
HATCH
  2
AcDbHatch
  3
AutoCAD 2000
 90
        0
280
     0
281
     1
  0
CLASS
  1
XRECORD
  2
AcDbXrecord
  3
AutoCAD 2000
 90
        0
280
     0
281
     0
  0
ENDSEC
  0
SECTION
  2
TABLES
  0
TABLE
  2
VPORT
  5
7DE1B343D9DFCA2
330
0
100
AcDbSymbolTable
 70
     2
  0
VPORT
  5
7DE1B343D9DFCF1
330
7DE1B343D9DFCA2
100
AcDbSymbolTableRecord
100
AcDbViewportTableRecord
  2
*ACTIVE
 70
     0
 10
0.0
 20
0.0
 11
1.0
 21
1.0
 12
9.196115110814837
 22
2.400604271796304
 13
0.0
 23
0.0
 14
0.015625
 24
0.015625
 15
0.0
 25
0.0
 16
0.0
 26
0.0
 36
1.0
 17
0.0
 27
0.0
 37
0.0
 40
4.249015158098127
 41
4.320930232558139
 42
50.0
 43
0.0
 44
0.0
 50
0.0
 51
0.0
 71
     0
 72
  2000
 73
     1
 74
     0
 75
     0
 76
     0
 77
     0
 78
     0
  0
ENDTAB
  0
TABLE
  2
LTYPE
  5
7DE1B343D9DFC9F
330
0
100
AcDbSymbolTable
 70
     1
  0
LTYPE
  5
7DE1B343D9DFCAC
330
7DE1B343D9DFC9F
100
AcDbSymbolTableRecord
100
AcDbLinetypeTableRecord
  2
BYBLOCK
 70
     0
  3

 72
    65
 73
     0
 40
0.0
  0
LTYPE
  5
7DE1B343D9DFCAD
330
7DE1B343D9DFC9F
100
AcDbSymbolTableRecord
100
AcDbLinetypeTableRecord
  2
BYLAYER
 70
     0
  3

 72
    65
 73
     0
 40
0.0
  0
LTYPE
  5
7DE1B343D9DFCAE
330
7DE1B343D9DFC9F
100
AcDbSymbolTableRecord
100
AcDbLinetypeTableRecord
  2
CONTINUOUS
 70
     0
  3
Solid line
 72
    65
 73
     0
 40
0.0
  0
ENDTAB
  0
TABLE
  2
LAYER
  5
7DE1B343D9DFC9C
330
0
100
AcDbSymbolTable
 70
     3
  0
LAYER
  5
7DE1B343D9DFCA9
330
7DE1B343D9DFC9C
100
AcDbSymbolTableRecord
100
AcDbLayerTableRecord
  2
0
 70
     0
 62
     7
  6
CONTINUOUS
  0
LAYER
  5
7DE1B343D9DFCB9
330
7DE1B343D9DFC9C
100
AcDbSymbolTableRecord
100
AcDbLayerTableRecord
  2
TEXT
 70
     0
 62
     3
  6
CONTINUOUS
  0
LAYER
  5
7DE1B343D9DFCC9
330
7DE1B343D9DFC9C
100
AcDbSymbolTableRecord
100
AcDbLayerTableRecord
  2
ASHADE
 70
     4
 62
     7
  6
CONTINUOUS
  0
ENDTAB
  0
TABLE
  2
STYLE
  5
7DE1B343D9DFC9D
330
0
100
AcDbSymbolTable
 70
     4
  0
STYLE
  5
7DE1B343D9DFCAA
330
7DE1B343D9DFC9D
100
AcDbSymbolTableRecord
100
AcDbTextStyleTableRecord
  2
STANDARD
 70
     0
 40
0.0
 41
1.0
 50
0.0
 71
     0
 42
0.3125
  3
txt
  4

  0
STYLE
  5
7DE1B343D9DFCB6
330
7DE1B343D9DFC9D
100
AcDbSymbolTableRecord
100
AcDbTextStyleTableRecord
  2
ITALICC
 70
     0
 40
0.0
 41
1.0
 50
0.0
 71
     0
 42
0.125
  3
italicc
  4

  0
STYLE
  5
7DE1B343D9DFCC6
330
7DE1B343D9DFC9D
100
AcDbSymbolTableRecord
100
AcDbTextStyleTableRecord
  2
ASHADE
 70
     0
 40
0.2
 41
1.0
 50
0.0
 71
     0
 42
0.3125
  3
simplex
  4

  0
STYLE
  5
7DE1B343D9DFCE1
330
7DE1B343D9DFC9D
100
AcDbSymbolTableRecord
100
AcDbTextStyleTableRecord
  2
ROMANS
 70
     0
 40
0.0
 41
1.0
 50
0.0
 71
     0
 42
0.125
  3
romans.shx
  4

  0
ENDTAB
  0
TABLE
  2
VIEW
  5
7DE1B343D9DFCA0
330
0
100
AcDbSymbolTable
 70
     0
  0
ENDTAB
  0
TABLE
  2
UCS
  5
7DE1B343D9DFCA1
330
0
100
AcDbSymbolTable
 70
     0
  0
ENDTAB
  0
TABLE
  2
APPID
  5
7DE1B343D9DFCA3
330
0
100
AcDbSymbolTable
 70
     6
  0
APPID
  5
7DE1B343D9DFCAB
330
7DE1B343D9DFCA3
100
AcDbSymbolTableRecord
100
AcDbRegAppTableRecord
  2
ACAD
 70
     0
  0
APPID
  5
7DE1B343D9DFCC7
330
7DE1B343D9DFCA3
100
AcDbSymbolTableRecord
100
AcDbRegAppTableRecord
  2
AVE_RENDER
 70
     0
  0
APPID
  5
7DE1B343D9DFCC8
330
7DE1B343D9DFCA3
100
AcDbSymbolTableRecord
100
AcDbRegAppTableRecord
  2
AVE_ENTITY_MATERIAL
 70
     0
  0
APPID
  5
7DE1B343D9DFCD5
330
7DE1B343D9DFCA3
100
AcDbSymbolTableRecord
100
AcDbRegAppTableRecord
  2
AVE_FINISH
 70
     0
  0
APPID
  5
7DE1B343D9DFCD6
330
7DE1B343D9DFCA3
100
AcDbSymbolTableRecord
100
AcDbRegAppTableRecord
  2
AVE_MATERIAL
 70
     0
  0
APPID
  5
7DE1B343D9DFCD7
330
7DE1B343D9DFCA3
100
AcDbSymbolTableRecord
100
AcDbRegAppTableRecord
  2
AVE_GLOBAL
 70
     0
  0
ENDTAB
  0
TABLE
  2
DIMSTYLE
  5
7DE1B343D9DFCA4
330
0
100
AcDbSymbolTable
 70
     1
  0
DIMSTYLE
105
7DE1B343D9DFCBE
330
7DE1B343D9DFCA4
100
AcDbSymbolTableRecord
100
AcDbDimStyleTableRecord
  2
STANDARD
 70
     0
  3

  4

  5

  6

  7

 40
1.0
 41
0.125
 42
0.125
 43
0.375
 44
0.125
 45
0.0
 46
0.0
 47
0.0
 48
0.0
140
0.125
141
-0.125
142
0.0
143
25.4
144
1.0
145
0.0
146
1.0
147
0.09
 71
     0
 72
     0
 73
     1
 74
     1
 75
     0
 76
     0
 77
     0
 78
     4
170
     0
171
     2
172
     0
173
     0
174
     1
175
     0
176
     0
177
     0
178
     0
270
     2
271
     3
272
     3
273
     2
274
     2
340
7DE1B343D9DFCE1
275
     0
280
     0
281
     0
282
     0
283
     1
284
     4
285
     0
286
     0
287
     3
288
     0
  0
ENDTAB
  0
TABLE
  2
BLOCK_RECORD
  5
7DE1B343D9DFC9B
330
0
100
AcDbSymbolTable
 70
     2
  0
BLOCK_RECORD
  5
7DE1B343D9DFCB2
102
{ACAD_XDICTIONARY
360
7DE1B343D9DFD14
102
}
330
7DE1B343D9DFC9B
100
AcDbSymbolTableRecord
100
AcDbBlockTableRecord
  2
*MODEL_SPACE
  0
BLOCK_RECORD
  5
7DE1B343D9DFCAF
102
{ACAD_XDICTIONARY
360
7DE1B343D9DFD12
102
}
330
7DE1B343D9DFC9B
100
AcDbSymbolTableRecord
100
AcDbBlockTableRecord
  2
*PAPER_SPACE
  0
BLOCK_RECORD
  5
7DE1B343D9DFCCA
330
7DE1B343D9DFC9B
100
AcDbSymbolTableRecord
100
AcDbBlockTableRecord
  2
AVE_RENDER
  0
BLOCK_RECORD
  5
7DE1B343D9DFCD8
330
7DE1B343D9DFC9B
100
AcDbSymbolTableRecord
100
AcDbBlockTableRecord
  2
AVE_GLOBAL
  0
ENDTAB
  0
ENDSEC
  0
SECTION
  2
BLOCKS
  0
BLOCK
  5
7DE1B343D9DFCBC
330
7DE1B343D9DFCB2
100
AcDbEntity
  8
0
100
AcDbBlockBegin
  2
*MODEL_SPACE
 70
     0
 10
0.0
 20
0.0
 30
0.0
  3
*MODEL_SPACE
  1

  0
ENDBLK
  5
7DE1B343D9DFCBD
330
7DE1B343D9DFCB2
100
AcDbEntity
  8
0
100
AcDbBlockEnd
  0
BLOCK
  5
7DE1B343D9DFCBA
330
7DE1B343D9DFCAF
100
AcDbEntity
 67
     1
  8
0
100
AcDbBlockBegin
  2
*PAPER_SPACE
 70
     0
 10
0.0
 20
0.0
 30
0.0
  3
*PAPER_SPACE
  1

  0
ENDBLK
  5
7DE1B343D9DFCBB
330
7DE1B343D9DFCAF
100
AcDbEntity
 67
     1
  8
0
100
AcDbBlockEnd
  0
BLOCK
  5
7DE1B343D9DFCCB
330
7DE1B343D9DFCCA
100
AcDbEntity
  8
0
100
AcDbBlockBegin
  2
AVE_RENDER
 70
     0
 10
0.0
 20
0.0
 30
0.0
  3
AVE_RENDER
  1
AVE_RENDER
  0
ENDBLK
  5
7DE1B343D9DFCCC
330
7DE1B343D9DFCCA
100
AcDbEntity
  8
0
100
AcDbBlockEnd
  0
BLOCK
  5
7DE1B343D9DFCD9
330
7DE1B343D9DFCD8
100
AcDbEntity
  8
0
100
AcDbBlockBegin
  2
AVE_GLOBAL
 70
     0
 10
0.0
 20
0.0
 30
0.0
  3
AVE_GLOBAL
  1
AVE_GLOBAL
  0
ENDBLK
  5
7DE1B343D9DFCDA
330
7DE1B343D9DFCD8
100
AcDbEntity
  8
0
100
AcDbBlockEnd
  0
ENDSEC
  0
SECTION
  2
ENTITIES
  0
LWPOLYLINE
  5
7DE1B343D9DE8CF
330
7DE1B343D9DFCB2
100
AcDbEntity
  8
0
100
AcDbPolyline
 90
       36
 70
     1
 43
0.0
 10
2.45286568631915
 20
3.83612069511123
 42
0.2679491924311233
 10
2.46849068631915
 20
3.809057401242966
 10
2.51536568631915
 20
3.781994107374702
 10
2.51536568631915
 20
4.219494107374703
 10
3.752734081326853
 20
4.219494107374703
 10
3.752734081326854
 20
3.432086066168687
 42
0.2485206854287459
 10
3.016100775081904
 20
1.989988742290369
 42
0.4369936190068219
 10
3.048855369768398
 20
1.960563245632035
 42
-0.2361986763822402
 10
3.179885844050538
 20
1.909464670022307
 42
-0.3850282980220345
 10
3.179885844050537
 20
1.867549867681677
 42
-0.2372354452316947
 10
3.048240908548073
 20
1.816509237377164
 42
0.4426155833939286
 10
3.01536568631915
 20
1.786647336949792
 10
3.01536568631915
 20
1.655252604562176
 42
0.4810457914519258
 10
2.704607189131676
 20
1.344494107374703
 10
2.51536568631915
 20
1.344494107374703
 10
2.51536568631915
 20
1.781994107374703
 10
2.46849068631915
 20
1.754930813506439
 42
0.2679491924311207
 10
2.45286568631915
 20
1.727867519638175
 10
2.45286568631915
 20
1.344494107374703
 10
2.42161568631915
 20
1.344494107374703
 42
1.00000000745058
 10
2.421615686784811
 20
1.281994107374703
 10
2.76536568631915
 20
1.281994107374703
 10
2.76536568631915
 20
1.375744107374703
 42
-0.4142135623730951
 10
2.98411568631915
 20
1.594494107374703
 10
3.07786568631915
 20
1.594494107374703
 10
3.07786568631915
 20
1.753768371607746
 42
0.0001078284122218
 10
3.078424889997871
 20
1.753806836431633
 42
0.2652668023674347
 10
3.259671467440698
 20
1.874501771379769
 42
0.2366361371520144
 10
3.259671467440698
 20
1.902512766324215
 42
0.2652668023674349
 10
3.078424889997871
 20
2.023207701272351
 42
-0.3621680236186488
 10
4.45286568631915
 20
3.656994107374703
 10
4.45286568631915
 20
3.844494107374703
 42
0.4142135623730951
 10
4.89036568631915
 20
4.281994107374703
 10
2.421615689677081
 20
4.281994107374703
 42
1.000000083529226
 10
2.421615688181795
 20
4.219494107374703
 10
2.45286568631915
 20
4.219494107374703
  0
LWPOLYLINE
  5
7DE1B343D9DE8C5
330
7DE1B343D9DFCB2
100
AcDbEntity
  8
0
100
AcDbPolyline
 90
        8
 70
     1
 43
0.0
 10
3.860583093323231
 20
3.50185881319222
 42
-0.581854517880168
 10
3.815234081326853
 20
3.527634922881913
 10
3.815234081326853
 20
4.219494107374703
 10
4.785234081326853
 20
4.219494107374703
 42
-0.4961442957444412
 10
4.814135680892741
 20
4.181450629113834
 42
-0.3592858198437326
 10
4.422773093726557
 20
3.908203476310927
 42
0.4379432307214981
 10
4.39036568631915
 20
3.878300225825825
 10
4.39036568631915
 20
3.708526754824456
 42
0.0827595230521282
  0
TEXT
  5
7DE1B343D9DFB5D
330
7DE1B343D9DFCB2
100
AcDbEntity
  8
TEXT
100
AcDbText
 10
2.903014497521925
 20
0.9772044213074334
 30
0.0
 40
0.125
  1
PART #110383
  7
ITALICC
 72
     1
 11
3.655990687998115
 21
0.9772044213074334
 31
0.0
100
AcDbText
  0
TEXT
  5
7DE1B343D9DFB5E
330
7DE1B343D9DFCB2
100
AcDbEntity
  8
TEXT
100
AcDbText
 10
4.069295846248436
 20
0.5302817786350582
 30
0.0
 40
0.0522247191011236
  1
Phone  1-800-328-2495
 41
1.272321428571429
 72
     5
 11
5.3982284305181
 21
0.5302817786350582
 31
0.0
100
AcDbText
  0
TEXT
  5
7DE1B343D9DFB5F
330
7DE1B343D9DFCB2
100
AcDbEntity
  8
TEXT
100
AcDbText
 10
4.069295846248436
 20
0.8100570595339346
 30
0.0
 40
0.0522247191011236
  1
Stylmark  Incorporated
 41
1.221428571428573
 72
     5
 11
5.3982284305181
 21
0.8100570595339346
 31
0.0
100
AcDbText
  0
TEXT
  5
7DE1B343D9DFB60
330
7DE1B343D9DFCB2
100
AcDbEntity
  8
TEXT
100
AcDbText
 10
4.069295846248436
 20
0.7167986325676426
 30
0.0
 40
0.0522247191011236
  1
6536 Main St. N.E. * P.O. Box 32008
 41
0.8388932496075366
 72
     5
 11
5.3982284305181
 21
0.7167986325676426
 31
0.0
100
AcDbText
  0
TEXT
  5
7DE1B343D9DFB61
330
7DE1B343D9DFCB2
100
AcDbEntity
  8
TEXT
100
AcDbText
 10
4.069295846248436
 20
0.6235402056013504
 30
0.0
 40
0.0522247191011236
  1
Minneapolis, MN 55432-0008
 41
1.11444212721585
 72
     5
 11
5.3982284305181
 21
0.6235402056013504
 31
0.0
100
AcDbText
  0
LWPOLYLINE
  5
7DE1B343D9DFB62
330
7DE1B343D9DFCB2
100
AcDbEntity
  8
TEXT
100
AcDbPolyline
 90
        3
 70
     0
 43
0.0006660908203125
 10
1.913342154181128
 20
0.6439265412724931
 10
1.913342154181128
 20
0.5306911018193654
 10
2.026577593634251
 20
0.5306911018193654
  0
LWPOLYLINE
  5
7DE1B343D9DFB67
330
7DE1B343D9DFCB2
100
AcDbEntity
  8
TEXT
100
AcDbPolyline
 90
        3
 70
     0
 43
0.0006660908203125
 10
1.939985786993626
 20
0.6439265412724931
 10
1.939985786993626
 20
0.5573347346318665
 10
2.026577593634251
 20
0.5573347346318665
  0
LWPOLYLINE
  5
7DE1B343D9DFB6C
330
7DE1B343D9DFCB2
100
AcDbEntity
  8
TEXT
100
AcDbPolyline
 90
        2
 70
     0
 43
0.0001332181640625
 10
1.986612144415503
 20
0.6539179035771783
 10
1.913342154181128
 20
0.6439265412724931
  0
LWPOLYLINE
  5
7DE1B343D9DFB70
330
7DE1B343D9DFCB2
100
AcDbEntity
  8
TEXT
100
AcDbPolyline
 90
        2
 70
     0
 43
0.0001332181640625
 10
1.939985786993626
 20
0.6439265412724931
 10
1.999933960821753
 20
0.6539179035771783
  0
LWPOLYLINE
  5
7DE1B343D9DFB74
330
7DE1B343D9DFCB2
100
AcDbEntity
  8
TEXT
100
AcDbPolyline
 90
        2
 70
     0
 43
0.0001332181640625
 10
1.939985786993626
 20
0.5573347346318665
 10
1.999933960821753
 20
0.617282908459992
  0
LWPOLYLINE
  5
7DE1B343D9DFB78
330
7DE1B343D9DFCB2
100
AcDbEntity
  8
TEXT
100
AcDbPolyline
 90
        3
 70
     0
 43
0.0006660908203125
 10
2.026577593634251
 20
0.7971274299443687
 10
1.913342154181128
 20
0.7971274299443687
 10
1.913342154181128
 20
0.6838919904912411
  0
LWPOLYLINE
  5
7DE1B343D9DFB7D
330
7DE1B343D9DFCB2
100
AcDbEntity
  8
TEXT
100
AcDbPolyline
 90
        3
 70
     0
 43
0.0006660908203125
 10
2.026577593634251
 20
0.7704837971318677
 10
1.939985786993626
 20
0.7704837971318677
 10
1.939985786993626
 20
0.6838919904912411
  0
LWPOLYLINE
  5
7DE1B343D9DFB82
330
7DE1B343D9DFCB2
100
AcDbEntity
  8
TEXT
100
AcDbPolyline
 90
        2
 70
     0
 43
0.0001332181640625
 10
1.939985786993626
 20
0.7704837971318677
 10
1.999933960821751
 20
0.7105356233037421
  0
LWPOLYLINE
  5
7DE1B343D9DFB86
330
7DE1B343D9DFCB2
100
AcDbEntity
  8
TEXT
100
AcDbPolyline
 90
        2
 70
     0
 43
0.0001332181640625
 10
1.939985786993626
 20
0.6838919904912411
 10
1.999933960821751
 20
0.6739006281865523
  0
LWPOLYLINE
  5
7DE1B343D9DFB8A
330
7DE1B343D9DFCB2
100
AcDbEntity
  8
TEXT
100
AcDbPolyline
 90
        2
 70
     0
 43
0.0001332181640625
 10
1.913342154181128
 20
0.6838919904912411
 10
1.986612144415503
 20
0.6739006281865523
  0
LWPOLYLINE
  5
7DE1B343D9DFB8E
330
7DE1B343D9DFCB2
100
AcDbEntity
  8
TEXT
100
AcDbPolyline
 90
        2
 70
     0
 43
0.0006660908203125
 10
1.939985786993626
 20
0.6439265412724931
 10
1.913342154181128
 20
0.6439265412724931
  0
LWPOLYLINE
  5
7DE1B343D9DFB92
330
7DE1B343D9DFCB2
100
AcDbEntity
  8
TEXT
100
AcDbPolyline
 90
        2
 70
     0
 43
0.0006660908203125
 10
1.939985786993626
 20
0.6838919904912411
 10
1.913342154181128
 20
0.6838919904912411
  0
LINE
  5
7DE1B343D9DFB96
330
7DE1B343D9DFCB2
100
AcDbEntity
  8
TEXT
100
AcDbLine
 10
3.428532583307626
 20
0.7328507352875997
 30
0.0
 11
3.321326309920336
 21
0.7328507352875997
 31
0.0
  0
LINE
  5
7DE1B343D9DFB97
330
7DE1B343D9DFCB2
100
AcDbEntity
  8
TEXT
100
AcDbLine
 10
3.457563481652104
 20
0.7971274299443652
 30
0.0
 11
3.322731572435045
 21
0.7971274299443652
 31
0.0
  0
ARC
  5
7DE1B343D9DFB98
330
7DE1B343D9DFCB2
100
AcDbEntity
  8
TEXT
100
AcDbCircle
 10
3.382045668828362
 20
0.6278901806813489
 30
0.0
 40
0.0676855811441166
100
AcDbArc
 50
90.0
 51
153.7768192527749
  0
LWPOLYLINE
  5
7DE1B343D9DFB99
330
7DE1B343D9DFCB2
100
AcDbEntity
  8
TEXT
100
AcDbPolyline
 90
        2
 70
     0
 43
0.0
 10
3.320293814465526
 20
0.5741453419062923
 42
0.2901071551932823
 10
3.363369747333162
 20
0.5306543969558542
 42
5.328517124445801
  0
ARC
  5
7DE1B343D9DFB9D
330
7DE1B343D9DFCB2
100
AcDbEntity
  8
TEXT
100
AcDbCircle
 10
2.676914291156876
 20
0.590446788293904
 30
0.0
 40
0.0601160179737537
100
AcDbArc
 50
180.0000000000003
 51
264.0521544866073
  0
LINE
  5
7DE1B343D9DFB9E
330
7DE1B343D9DFCB2
100
AcDbEntity
  8
TEXT
100
AcDbLine
 10
2.680429646782424
 20
0.8315153475385033
 30
0.0
 11
2.620387041938417
 21
0.8315153475385033
 31
0.0
  0
ARC
  5
7DE1B343D9DFB9F
330
7DE1B343D9DFCB2
100
AcDbEntity
  8
TEXT
100
AcDbCircle
 10
2.444655289039906
 20
0.7150399704978634
 30
0.0
 40
0.0820874594465043
100
AcDbArc
 50
90.0
 51
270.0
  0
LWPOLYLINE
  5
7DE1B343D9DFBA0
330
7DE1B343D9DFCB2
100
AcDbEntity
  8
TEXT
100
AcDbPolyline
 90
        2
 70
     0
 43
0.0001332181640625
 10
2.036568955938941
 20
0.7238574397099891
 10
2.026577593634251
 20
0.7971274299443687
  0
LWPOLYLINE
  5
7DE1B343D9DFBA4
330
7DE1B343D9DFCB2
100
AcDbEntity
  8
TEXT
100
AcDbPolyline
 90
        2
 70
     0
 43
0.0001332181640625
 10
2.026577593634251
 20
0.7704837971318677
 10
2.036568955938941
 20
0.7105356233037421
  0
LWPOLYLINE
  5
7DE1B343D9DFBA8
330
7DE1B343D9DFCB2
100
AcDbEntity
  8
TEXT
100
AcDbPolyline
 90
        3
 70
     0
 43
0.0006660908203125
 10
2.179778482306128
 20
0.6838919904912411
 10
2.179778482306128
 20
0.7971274299443687
 10
2.066543042853002
 20
0.7971274299443687
  0
LWPOLYLINE
  5
7DE1B343D9DFBAD
330
7DE1B343D9DFCB2
100
AcDbEntity
  8
TEXT
100
AcDbPolyline
 90
        3
 70
     0
 43
0.0006660908203125
 10
2.153134849493627
 20
0.6838919904912411
 10
2.153134849493627
 20
0.7704837971318677
 10
2.066543042853002
 20
0.7704837971318677
  0
LWPOLYLINE
  5
7DE1B343D9DFBB2
330
7DE1B343D9DFCB2
100
AcDbEntity
  8
TEXT
100
AcDbPolyline
 90
        2
 70
     0
 43
0.0001332181640625
 10
2.153134849493627
 20
0.7704837971318677
 10
2.093186675665503
 20
0.7105356233037421
  0
LWPOLYLINE
  5
7DE1B343D9DFBB6
330
7DE1B343D9DFCB2
100
AcDbEntity
  8
TEXT
100
AcDbPolyline
 90
        2
 70
     0
 43
0.0001332181640625
 10
2.066543042853002
 20
0.7704837971318677
 10
2.056551680548313
 20
0.7105356233037421
  0
LWPOLYLINE
  5
7DE1B343D9DFBBA
330
7DE1B343D9DFCB2
100
AcDbEntity
  8
TEXT
100
AcDbPolyline
 90
        2
 70
     0
 43
0.0001332181640625
 10
2.066543042853002
 20
0.7971274299443687
 10
2.056551680548313
 20
0.7238574397099891
  0
LWPOLYLINE
  5
7DE1B343D9DFBBE
330
7DE1B343D9DFCB2
100
AcDbEntity
  8
TEXT
100
AcDbPolyline
 90
        2
 70
     0
 43
0.0001332181640625
 10
2.106508492071752
 20
0.6739006281865523
 10
2.179778482306128
 20
0.6838919904912411
  0
LWPOLYLINE
  5
7DE1B343D9DFBC2
330
7DE1B343D9DFCB2
100
AcDbEntity
  8
TEXT
100
AcDbPolyline
 90
        2
 70
     0
 43
0.0001332181640625
 10
2.153134849493627
 20
0.6838919904912411
 10
2.093186675665503
 20
0.6739006281865523
  0
LWPOLYLINE
  5
7DE1B343D9DFBC6
330
7DE1B343D9DFCB2
100
AcDbEntity
  8
TEXT
100
AcDbPolyline
 90
        2
 70
     0
 43
0.0001332181640625
 10
2.179778482306128
 20
0.6439265412724931
 10
2.106508492071752
 20
0.6539179035771783
  0
LWPOLYLINE
  5
7DE1B343D9DFBCA
330
7DE1B343D9DFCB2
100
AcDbEntity
  8
TEXT
100
AcDbPolyline
 90
        2
 70
     0
 43
0.0001332181640625
 10
2.153134849493627
 20
0.6439265412724931
 10
2.093186675665503
 20
0.6539179035771783
  0
LWPOLYLINE
  5
7DE1B343D9DFBCE
330
7DE1B343D9DFCB2
100
AcDbEntity
  8
TEXT
100
AcDbPolyline
 90
        2
 70
     0
 43
0.0001332181640625
 10
2.153134849493627
 20
0.5573347346318665
 10
2.093186675665503
 20
0.617282908459992
  0
LWPOLYLINE
  5
7DE1B343D9DFBD2
330
7DE1B343D9DFCB2
100
AcDbEntity
  8
TEXT
100
AcDbPolyline
 90
        3
 70
     0
 43
0.0006660908203125
 10
2.066543042853002
 20
0.5573347346318665
 10
2.153134849493627
 20
0.5573347346318665
 10
2.153134849493627
 20
0.6439265412724931
  0
LWPOLYLINE
  5
7DE1B343D9DFBD7
330
7DE1B343D9DFCB2
100
AcDbEntity
  8
TEXT
100
AcDbPolyline
 90
        3
 70
     0
 43
0.0006660908203125
 10
2.066543042853002
 20
0.5306911018193654
 10
2.179778482306128
 20
0.5306911018193654
 10
2.179778482306128
 20
0.6439265412724931
  0
LWPOLYLINE
  5
7DE1B343D9DFBDC
330
7DE1B343D9DFCB2
100
AcDbEntity
  8
TEXT
100
AcDbPolyline
 90
        5
 70
     0
 43
0.0001332181640625
 10
2.036568955938941
 20
0.6039610920537415
 10
2.036568955938941
 20
0.617282908459992
 10
1.999933960821753
 20
0.617282908459992
 10
1.999933960821753
 20
0.6539179035771783
 10
1.986612144415503
 20
0.6539179035771783
  0
LWPOLYLINE
  5
7DE1B343D9DFBE3
330
7DE1B343D9DFCB2
100
AcDbEntity
  8
TEXT
100
AcDbPolyline
 90
        2
 70
     0
 43
0.0006660908203125
 10
2.026577593634251
 20
0.5573347346318665
 10
2.026577593634251
 20
0.5306911018193654
  0
LWPOLYLINE
  5
7DE1B343D9DFBE7
330
7DE1B343D9DFCB2
100
AcDbEntity
  8
TEXT
100
AcDbPolyline
 90
        2
 70
     0
 43
0.0001332181640625
 10
2.026577593634251
 20
0.5573347346318665
 10
2.036568955938941
 20
0.617282908459992
  0
LWPOLYLINE
  5
7DE1B343D9DFBEB
330
7DE1B343D9DFCB2
100
AcDbEntity
  8
TEXT
100
AcDbPolyline
 90
        2
 70
     0
 43
0.0001332181640625
 10
2.026577593634251
 20
0.5306911018193654
 10
2.036568955938941
 20
0.6039610920537415
  0
LWPOLYLINE
  5
7DE1B343D9DFBEF
330
7DE1B343D9DFCB2
100
AcDbEntity
  8
TEXT
100
AcDbPolyline
 90
        5
 70
     0
 43
0.0001332181640625
 10
1.986612144415503
 20
0.6739006281865523
 10
1.999933960821751
 20
0.6739006281865523
 10
1.999933960821751
 20
0.7105356233037421
 10
2.036568955938941
 20
0.7105356233037421
 10
2.036568955938941
 20
0.7238574397099891
  0
LWPOLYLINE
  5
7DE1B343D9DFBF6
330
7DE1B343D9DFCB2
100
AcDbEntity
  8
TEXT
100
AcDbPolyline
 90
        5
 70
     0
 43
0.0001332181640625
 10
2.056551680548313
 20
0.7238574397099891
 10
2.056551680548313
 20
0.7105356233037421
 10
2.093186675665503
 20
0.7105356233037421
 10
2.093186675665503
 20
0.6739006281865523
 10
2.106508492071752
 20
0.6739006281865523
  0
LWPOLYLINE
  5
7DE1B343D9DFBFD
330
7DE1B343D9DFCB2
100
AcDbEntity
  8
TEXT
100
AcDbPolyline
 90
        2
 70
     0
 43
0.0001332181640625
 10
2.066543042853002
 20
0.5573347346318665
 10
2.056551680548313
 20
0.617282908459992
  0
LWPOLYLINE
  5
7DE1B343D9DFC01
330
7DE1B343D9DFCB2
100
AcDbEntity
  8
TEXT
100
AcDbPolyline
 90
        2
 70
     0
 43
0.0001332181640625
 10
2.056551680548313
 20
0.6039610920537415
 10
2.066543042853002
 20
0.5306911018193654
  0
LWPOLYLINE
  5
7DE1B343D9DFC05
330
7DE1B343D9DFCB2
100
AcDbEntity
  8
TEXT
100
AcDbPolyline
 90
        2
 70
     0
 43
0.0006660908203125
 10
2.066543042853002
 20
0.5573347346318665
 10
2.066543042853002
 20
0.5306911018193654
  0
LWPOLYLINE
  5
7DE1B343D9DFC09
330
7DE1B343D9DFCB2
100
AcDbEntity
  8
TEXT
100
AcDbPolyline
 90
        5
 70
     0
 43
0.0001332181640625
 10
2.106508492071752
 20
0.6539179035771783
 10
2.093186675665503
 20
0.6539179035771783
 10
2.093186675665503
 20
0.617282908459992
 10
2.056551680548313
 20
0.617282908459992
 10
2.056551680548313
 20
0.6039610920537415
  0
LWPOLYLINE
  5
7DE1B343D9DFC10
330
7DE1B343D9DFCB2
100
AcDbEntity
  8
TEXT
100
AcDbPolyline
 90
        2
 70
     0
 43
0.0006660908203125
 10
2.153134849493627
 20
0.6838919904912411
 10
2.179778482306128
 20
0.6838919904912411
  0
LWPOLYLINE
  5
7DE1B343D9DFC14
330
7DE1B343D9DFCB2
100
AcDbEntity
  8
TEXT
100
AcDbPolyline
 90
        2
 70
     0
 43
0.0006660908203125
 10
2.153134849493627
 20
0.6439265412724931
 10
2.179778482306128
 20
0.6439265412724931
  0
LINE
  5
7DE1B343D9DFC18
330
7DE1B343D9DFCB2
100
AcDbEntity
  8
TEXT
100
AcDbLine
 10
2.449892619154153
 20
0.7328507352875997
 30
0.0
 11
2.616798273183124
 21
0.7328507352875997
 31
0.0
  0
LINE
  5
7DE1B343D9DFC19
330
7DE1B343D9DFCB2
100
AcDbEntity
  8
TEXT
100
AcDbLine
 10
2.515492755398454
 20
0.6970460136769719
 30
0.0
 11
2.449892619154153
 21
0.6970460136769719
 31
0.0
  0
LINE
  5
7DE1B343D9DFC1A
330
7DE1B343D9DFCB2
100
AcDbEntity
  8
TEXT
100
AcDbLine
 10
2.362567829593401
 20
0.5306543969558542
 30
0.0
 11
2.515492755398454
 21
0.5306543969558542
 31
0.0
  0
LINE
  5
7DE1B343D9DFC1B
330
7DE1B343D9DFCB2
100
AcDbEntity
  8
TEXT
100
AcDbLine
 10
2.520433129304734
 20
0.5990114032892935
 30
0.0
 11
2.3625678295934
 21
0.5990114032892935
 31
0.0
  0
LINE
  5
7DE1B343D9DFC1C
330
7DE1B343D9DFCB2
100
AcDbEntity
  8
TEXT
100
AcDbLine
 10
2.444655289039905
 20
0.6329525110513581
 30
0.0
 11
2.520433129304734
 21
0.6329525110513581
 31
0.0
  0
ARC
  5
7DE1B343D9DFC1D
330
7DE1B343D9DFCB2
100
AcDbEntity
  8
TEXT
100
AcDbCircle
 10
2.449892619154154
 20
0.7149483744822876
 30
0.0
 40
0.017902360805315
100
AcDbArc
 50
90.0
 51
270.0
  0
LINE
  5
7DE1B343D9DFC1E
330
7DE1B343D9DFCB2
100
AcDbEntity
  8
TEXT
100
AcDbLine
 10
2.3625678295934
 20
0.5990114032892935
 30
0.0
 11
2.362567829593401
 21
0.5306543969558542
 31
0.0
  0
LINE
  5
7DE1B343D9DFC1F
330
7DE1B343D9DFCB2
100
AcDbEntity
  8
TEXT
100
AcDbLine
 10
2.616798273183124
 20
0.7328507352875997
 30
0.0
 11
2.616798273183124
 21
0.590446788293904
 31
0.0
  0
ARC
  5
7DE1B343D9DFC20
330
7DE1B343D9DFCB2
100
AcDbEntity
  8
TEXT
100
AcDbCircle
 10
2.515492755398455
 20
0.6138502053164113
 30
0.0
 40
0.0831958083605586
100
AcDbArc
 50
270.0
 51
90.0
  0
ARC
  5
7DE1B343D9DFC21
330
7DE1B343D9DFCB2
100
AcDbEntity
  8
TEXT
100
AcDbCircle
 10
2.520433129304735
 20
0.6159819571703276
 30
0.0
 40
0.0169705538810321
100
AcDbArc
 50
270.0
 51
90.0
  0
LWPOLYLINE
  5
7DE1B343D9DFC22
330
7DE1B343D9DFCB2
100
AcDbEntity
  8
TEXT
100
AcDbPolyline
 90
        2
 70
     0
 43
0.0006660908203125
 10
2.026577593634251
 20
0.7704837971318677
 10
2.026577593634251
 20
0.7971274299443687
  0
LWPOLYLINE
  5
7DE1B343D9DFC26
330
7DE1B343D9DFCB2
100
AcDbEntity
  8
TEXT
100
AcDbPolyline
 90
        2
 70
     0
 43
0.0006660908203125
 10
2.066543042853002
 20
0.7704837971318677
 10
2.066543042853002
 20
0.7971274299443687
  0
LINE
  5
7DE1B343D9DFC2A
330
7DE1B343D9DFCB2
100
AcDbEntity
  8
TEXT
100
AcDbLine
 10
2.620387041938417
 20
0.7971274299443652
 30
0.0
 11
2.444655289039905
 21
0.7971274299443652
 31
0.0
  0
LINE
  5
7DE1B343D9DFC2B
330
7DE1B343D9DFCB2
100
AcDbEntity
  8
TEXT
100
AcDbLine
 10
2.620387041938417
 20
0.8315153475385033
 30
0.0
 11
2.620387041938417
 21
0.7971274299443652
 31
0.0
  0
LINE
  5
7DE1B343D9DFC2C
330
7DE1B343D9DFCB2
100
AcDbEntity
  8
TEXT
100
AcDbLine
 10
2.81085893395827
 20
0.6962554338312446
 30
0.0
 11
2.752228612926332
 21
0.7971274299443652
 31
0.0
  0
LINE
  5
7DE1B343D9DFC2D
330
7DE1B343D9DFCB2
100
AcDbEntity
  8
TEXT
100
AcDbLine
 10
2.869607496764135
 20
0.7971274299443652
 30
0.0
 11
2.81085893395827
 21
0.6962554338312446
 31
0.0
  0
LINE
  5
7DE1B343D9DFC2E
330
7DE1B343D9DFCB2
100
AcDbEntity
  8
TEXT
100
AcDbLine
 10
2.966538122123876
 20
0.6130422350588534
 30
0.0
 11
2.966538122123876
 21
0.8651389076831756
 31
0.0
  0
LINE
  5
7DE1B343D9DFC2F
330
7DE1B343D9DFCB2
100
AcDbEntity
  8
TEXT
100
AcDbLine
 10
2.998849976261536
 20
0.7971274299443652
 30
0.0
 11
2.998849976261536
 21
0.5962632232119569
 31
0.0
  0
LINE
  5
7DE1B343D9DFC30
330
7DE1B343D9DFCB2
100
AcDbEntity
  8
TEXT
100
AcDbLine
 10
2.998849976261536
 20
0.5962632232119569
 30
0.0
 11
2.981856339376935
 21
0.5962632232119569
 31
0.0
  0
LINE
  5
7DE1B343D9DFC31
330
7DE1B343D9DFCB2
100
AcDbEntity
  8
TEXT
100
AcDbLine
 10
2.967677695620071
 20
0.5306543969558542
 30
0.0
 11
3.065681029319506
 21
0.5306543969558542
 31
0.0
  0
LINE
  5
7DE1B343D9DFC32
330
7DE1B343D9DFCB2
100
AcDbEntity
  8
TEXT
100
AcDbLine
 10
2.801258696961315
 20
0.5506129030608671
 30
0.0
 11
2.89855840305476
 21
0.7149631139961353
 31
0.0
  0
ARC
  5
7DE1B343D9DFC33
330
7DE1B343D9DFCB2
100
AcDbEntity
  8
TEXT
100
AcDbCircle
 10
2.767215137049101
 20
0.5702021192295499
 30
0.0
 40
0.0392772371940762
100
AcDbArc
 50
270.1604552698595
 51
330.0831797321295
  0
LINE
  5
7DE1B343D9DFC34
330
7DE1B343D9DFCB2
100
AcDbEntity
  8
TEXT
100
AcDbLine
 10
2.67068488066323
 20
0.5306543969558542
 30
0.0
 11
2.767325131738224
 21
0.5309250360541365
 31
0.0
  0
LWPOLYLINE
  5
7DE1B343D9DFC35
330
7DE1B343D9DFCB2
100
AcDbEntity
  8
TEXT
100
AcDbPolyline
 90
        6
 70
     1
 43
0.0
 10
2.71320868423838
 20
0.7328507352875997
 10
2.682892090018171
 20
0.7328507352875997
 10
2.682892090018171
 20
0.6097397372327054
 42
0.407328721240804
 10
2.694435741179648
 20
0.5979208225563193
 10
2.755057440224379
 20
0.5979208225563193
 10
2.772522780631696
 20
0.6307330515997985
  0
LINE
  5
7DE1B343D9DFC3D
330
7DE1B343D9DFCB2
100
AcDbEntity
  8
TEXT
100
AcDbLine
 10
2.89855840305476
 20
0.7149631139961353
 30
0.0
 11
2.89855840305476
 21
0.5822057391707789
 31
0.0
  0
ARC
  5
7DE1B343D9DFC3E
330
7DE1B343D9DFCB2
100
AcDbEntity
  8
TEXT
100
AcDbCircle
 10
2.981856339376933
 20
0.6116450294553824
 30
0.0
 40
0.0153818062434269
100
AcDbArc
 50
174.7883570302258
 51
270.0
  0
LWPOLYLINE
  5
7DE1B343D9DFC3F
330
7DE1B343D9DFCB2
100
AcDbEntity
  8
TEXT
100
AcDbPolyline
 90
        2
 70
     0
 43
0.0
 10
2.898558403054758
 20
0.5822057391707825
 42
0.3318488747599744
 10
2.967677695620071
 20
0.5306543969558542
 42
-6.868794160588311
  0
LINE
  5
7DE1B343D9DFC43
330
7DE1B343D9DFCB2
100
AcDbEntity
  8
TEXT
100
AcDbLine
 10
3.123070098308767
 20
0.5306543969558542
 30
0.0
 11
3.190128145090607
 21
0.5306543969558542
 31
0.0
  0
LINE
  5
7DE1B343D9DFC44
330
7DE1B343D9DFCB2
100
AcDbEntity
  8
TEXT
100
AcDbLine
 10
3.123070098308767
 20
0.7252969461214898
 30
0.0
 11
3.123070098308767
 21
0.5306543969558542
 31
0.0
  0
LINE
  5
7DE1B343D9DFC45
330
7DE1B343D9DFCB2
100
AcDbEntity
  8
TEXT
100
AcDbLine
 10
3.065681029319506
 20
0.7328507352875997
 30
0.0
 11
3.115516309142653
 21
0.7328507352875997
 31
0.0
  0
LINE
  5
7DE1B343D9DFC46
330
7DE1B343D9DFCB2
100
AcDbEntity
  8
TEXT
100
AcDbLine
 10
3.065681029319506
 20
0.5306543969558542
 30
0.0
 11
3.065681029319506
 21
0.7328507352875997
 31
0.0
  0
LWPOLYLINE
  5
7DE1B343D9DFC47
330
7DE1B343D9DFCB2
100
AcDbEntity
  8
TEXT
100
AcDbPolyline
 90
        2
 70
     0
 43
0.0
 10
3.115516309142651
 20
0.7328507352875997
 42
-0.4142135623731017
 10
3.123070098308765
 20
0.7252969461214898
 42
-0.9999999999999998
  0
LINE
  5
7DE1B343D9DFC4B
330
7DE1B343D9DFCB2
100
AcDbEntity
  8
TEXT
100
AcDbLine
 10
3.321326309920336
 20
0.7328507352875997
 30
0.0
 11
3.321326309920336
 21
0.6577983292133931
 31
0.0
  0
LINE
  5
7DE1B343D9DFC4C
330
7DE1B343D9DFCB2
100
AcDbEntity
  8
TEXT
100
AcDbLine
 10
3.190128145090607
 20
0.7328507352875997
 30
0.0
 11
3.244261742011557
 21
0.7328507352875997
 31
0.0
  0
LINE
  5
7DE1B343D9DFC4D
330
7DE1B343D9DFCB2
100
AcDbEntity
  8
TEXT
100
AcDbLine
 10
3.190128145090607
 20
0.5306543969558542
 30
0.0
 11
3.190128145090607
 21
0.7328507352875997
 31
0.0
  0
LWPOLYLINE
  5
7DE1B343D9DFC4E
330
7DE1B343D9DFCB2
100
AcDbEntity
  8
TEXT
100
AcDbPolyline
 90
        2
 70
     0
 43
0.0
 10
3.244261742011555
 20
0.7328507352875997
 42
-0.4142135623731017
 10
3.251815531177669
 20
0.7252969461214898
 42
-0.9999999999999998
  0
LWPOLYLINE
  5
7DE1B343D9DFC52
330
7DE1B343D9DFCB2
100
AcDbEntity
  8
TEXT
100
AcDbPolyline
 90
        4
 70
     0
 43
0.0
 10
3.251815531177669
 20
0.7252969461214898
 10
3.251815531177669
 20
0.5306543969558542
 10
3.320293814465526
 20
0.5306543969558542
 10
3.320293814465526
 20
0.5741453419062923
 42
-1.714843617202739
  0
LINE
  5
7DE1B343D9DFC58
330
7DE1B343D9DFCB2
100
AcDbEntity
  8
TEXT
100
AcDbLine
 10
2.680429646782424
 20
0.7971274299443652
 30
0.0
 11
2.680429646782424
 21
0.8315153475385033
 31
0.0
  0
LINE
  5
7DE1B343D9DFC59
330
7DE1B343D9DFCB2
100
AcDbEntity
  8
TEXT
100
AcDbLine
 10
2.752228612926332
 20
0.7971274299443652
 30
0.0
 11
2.680429646782424
 21
0.7971274299443652
 31
0.0
  0
LINE
  5
7DE1B343D9DFC5A
330
7DE1B343D9DFCB2
100
AcDbEntity
  8
TEXT
100
AcDbLine
 10
2.899729409557511
 20
0.7971274299443652
 30
0.0
 11
2.869607496764135
 21
0.7971274299443652
 31
0.0
  0
LINE
  5
7DE1B343D9DFC5B
330
7DE1B343D9DFCB2
100
AcDbEntity
  8
TEXT
100
AcDbLine
 10
2.899729409557511
 20
0.8651389076831756
 30
0.0
 11
2.899729409557511
 21
0.7971274299443652
 31
0.0
  0
LINE
  5
7DE1B343D9DFC5C
330
7DE1B343D9DFCB2
100
AcDbEntity
  8
TEXT
100
AcDbLine
 10
2.966538122123876
 20
0.8651389076831756
 30
0.0
 11
2.899729409557511
 21
0.8651389076831756
 31
0.0
  0
LWPOLYLINE
  5
7DE1B343D9DFC5D
330
7DE1B343D9DFCB2
100
AcDbEntity
  8
TEXT
100
AcDbPolyline
 90
        3
 70
     0
 43
0.0
 10
3.286949881721878
 20
0.7971274299443687
 10
3.168649722905834
 20
0.7971274299443687
 10
3.168649722905834
 20
0.7699599331834728
 42
-1.960274751411753
  0
LINE
  5
7DE1B343D9DFC62
330
7DE1B343D9DFCB2
100
AcDbEntity
  8
TEXT
100
AcDbLine
 10
3.132868032192673
 20
0.7971274299443652
 30
0.0
 11
2.998849976261536
 21
0.7971274299443652
 31
0.0
  0
LWPOLYLINE
  5
7DE1B343D9DFC63
330
7DE1B343D9DFCB2
100
AcDbEntity
  8
TEXT
100
AcDbPolyline
 90
        2
 70
     0
 43
0.0
 10
3.132868032192673
 20
0.7971274299443687
 42
-0.3328679258950098
 10
3.168649722905834
 20
0.7699599331834728
 42
6.772930709997214
  0
LINE
  5
7DE1B343D9DFC67
330
7DE1B343D9DFCB2
100
AcDbEntity
  8
TEXT
100
AcDbLine
 10
3.322731572435045
 20
0.7971274299443652
 30
0.0
 11
3.322731572435045
 21
0.7688048841747213
 31
0.0
  0
LWPOLYLINE
  5
7DE1B343D9DFC68
330
7DE1B343D9DFCB2
100
AcDbEntity
  8
TEXT
100
AcDbPolyline
 90
        2
 70
     0
 43
0.0
 10
3.286949881721878
 20
0.7971274299443687
 42
-0.3277054968067132
 10
3.322731572435043
 20
0.7688048841747249
 42
6.667889725900311
  0
LINE
  5
7DE1B343D9DFC6C
330
7DE1B343D9DFCB2
100
AcDbEntity
  8
TEXT
100
AcDbLine
 10
3.536523420527145
 20
0.6919154513909378
 30
0.0
 11
3.492772649345244
 21
0.774165727387083
 31
0.0
  0
LINE
  5
7DE1B343D9DFC6D
330
7DE1B343D9DFCB2
100
AcDbEntity
  8
TEXT
100
AcDbLine
 10
3.536523420527145
 20
0.7971274299443652
 30
0.0
 11
3.536523420527145
 21
0.6919154513909378
 31
0.0
  0
LINE
  5
7DE1B343D9DFC6E
330
7DE1B343D9DFCB2
100
AcDbEntity
  8
TEXT
100
AcDbLine
 10
3.764207159465514
 20
0.7212621035328271
 30
0.0
 11
3.764207159465514
 21
0.8625916357119658
 31
0.0
  0
LINE
  5
7DE1B343D9DFC6F
330
7DE1B343D9DFCB2
100
AcDbEntity
  8
TEXT
100
AcDbLine
 10
3.811305318021499
 20
0.7971274299443652
 30
0.0
 11
3.764207159465514
 21
0.7212621035328271
 31
0.0
  0
LINE
  5
7DE1B343D9DFC70
330
7DE1B343D9DFCB2
100
AcDbEntity
  8
TEXT
100
AcDbLine
 10
3.821740034785422
 20
0.6872341870033916
 30
0.0
 11
3.886297150751127
 21
0.7971274299443652
 31
0.0
  0
LINE
  5
7DE1B343D9DFC71
330
7DE1B343D9DFCB2
100
AcDbEntity
  8
TEXT
100
AcDbLine
 10
3.700372168242741
 20
0.5306543969558542
 30
0.0
 11
3.764750352561362
 21
0.5306543969558542
 31
0.0
  0
LWPOLYLINE
  5
7DE1B343D9DFC72
330
7DE1B343D9DFCB2
100
AcDbEntity
  8
TEXT
100
AcDbPolyline
 90
        2
 70
     0
 43
0.0
 10
3.540463097832183
 20
0.5741453419062923
 42
-0.2901071551932486
 10
3.497387164964539
 20
0.5306543969558542
 42
-5.328517124445184
  0
ARC
  5
7DE1B343D9DFC76
330
7DE1B343D9DFCB2
100
AcDbEntity
  8
TEXT
100
AcDbCircle
 10
3.428532583307624
 20
0.7044913602876024
 30
0.0
 40
0.028359375
100
AcDbArc
 50
25.78218179591245
 51
90.0
  0
LINE
  5
7DE1B343D9DFC77
330
7DE1B343D9DFCB2
100
AcDbEntity
  8
TEXT
100
AcDbLine
 10
3.464333658611747
 20
0.6955757618254675
 30
0.0
 11
3.454068898198183
 21
0.7168263013981618
 31
0.0
  0
LINE
  5
7DE1B343D9DFC78
330
7DE1B343D9DFCB2
100
AcDbEntity
  8
TEXT
100
AcDbLine
 10
3.382045668828364
 20
0.6955757618254675
 30
0.0
 11
3.464333658611747
 21
0.6955757618254675
 31
0.0
  0
LWPOLYLINE
  5
7DE1B343D9DFC79
330
7DE1B343D9DFCB2
100
AcDbEntity
  8
TEXT
100
AcDbPolyline
 90
        4
 70
     1
 43
0.0
 10
3.477264699894646
 20
0.6336183749398794
 10
3.388604381234788
 20
0.6336183749398794
 42
0.9999999999999998
 10
3.388604381234788
 20
0.5912198344360187
 10
3.477264699894646
 20
0.5912198344360187
 42
1.0
  0
LWPOLYLINE
  5
7DE1B343D9DFC7F
330
7DE1B343D9DFCB2
100
AcDbEntity
  8
TEXT
100
AcDbPolyline
 90
        2
 70
     0
 43
0.0
 10
3.363369747333162
 20
0.5306543969558542
 10
3.497387164964539
 20
0.5306543969558542
 42
0.9999999999999998
  0
LINE
  5
7DE1B343D9DFC83
330
7DE1B343D9DFCB2
100
AcDbEntity
  8
TEXT
100
AcDbLine
 10
3.623724186950178
 20
0.7328507352875997
 30
0.0
 11
3.700372168242736
 21
0.7328507352875997
 31
0.0
  0
LINE
  5
7DE1B343D9DFC84
330
7DE1B343D9DFCB2
100
AcDbEntity
  8
TEXT
100
AcDbLine
 10
3.700372168242736
 20
0.7328507352875997
 30
0.0
 11
3.700372168242741
 21
0.5306543969558542
 31
0.0
  0
ARC
  5
7DE1B343D9DFC85
330
7DE1B343D9DFCB2
100
AcDbEntity
  8
TEXT
100
AcDbCircle
 10
3.623724186950176
 20
0.707944860004937
 30
0.0
 40
0.0249058752826653
100
AcDbArc
 50
89.99971217465335
 51
179.9999999999985
  0
LINE
  5
7DE1B343D9DFC86
330
7DE1B343D9DFCB2
100
AcDbEntity
  8
TEXT
100
AcDbLine
 10
3.598818311667519
 20
0.5306543969558542
 30
0.0
 11
3.598818311667514
 21
0.7079449023873226
 31
0.0
  0
LWPOLYLINE
  5
7DE1B343D9DFC87
330
7DE1B343D9DFCB2
100
AcDbEntity
  8
TEXT
100
AcDbPolyline
 90
        2
 70
     0
 43
0.0
 10
3.540463097832183
 20
0.5306543969558542
 10
3.598818311667517
 20
0.5306543969558542
  0
LWPOLYLINE
  5
7DE1B343D9DFC8B
330
7DE1B343D9DFCB2
100
AcDbEntity
  8
TEXT
100
AcDbPolyline
 90
        2
 70
     0
 43
0.0
 10
3.540463097832183
 20
0.5741453419062923
 10
3.540463097832183
 20
0.5306543969558542
  0
LINE
  5
7DE1B343D9DFC8F
330
7DE1B343D9DFCB2
100
AcDbEntity
  8
TEXT
100
AcDbLine
 10
3.917232258149032
 20
0.5306543969558542
 30
0.0
 11
3.821740034785422
 21
0.6872341870033916
 31
0.0
  0
LINE
  5
7DE1B343D9DFC90
330
7DE1B343D9DFCB2
100
AcDbEntity
  8
TEXT
100
AcDbLine
 10
3.840653885772826
 20
0.5306543969558542
 30
0.0
 11
3.917232258149032
 21
0.5306543969558542
 31
0.0
  0
LINE
  5
7DE1B343D9DFC91
330
7DE1B343D9DFCB2
100
AcDbEntity
  8
TEXT
100
AcDbLine
 10
3.764750352561362
 20
0.6622339654320344
 30
0.0
 11
3.840653885772826
 21
0.5306543969558542
 31
0.0
  0
LINE
  5
7DE1B343D9DFC92
330
7DE1B343D9DFCB2
100
AcDbEntity
  8
TEXT
100
AcDbLine
 10
3.764750352561362
 20
0.5306543969558542
 30
0.0
 11
3.764750352561362
 21
0.6622339654320344
 31
0.0
  0
LINE
  5
7DE1B343D9DFC93
330
7DE1B343D9DFCB2
100
AcDbEntity
  8
TEXT
100
AcDbLine
 10
3.764207159465514
 20
0.8625916357119658
 30
0.0
 11
3.695892280916241
 21
0.8625916357119658
 31
0.0
  0
ARC
  5
7DE1B343D9DFC94
330
7DE1B343D9DFCB2
100
AcDbEntity
  8
TEXT
100
AcDbCircle
 10
3.455536541875035
 20
0.7555438628234628
 30
0.0
 40
0.0416329381542859
100
AcDbArc
 50
26.56974201007528
 51
87.20939649401342
  0
LINE
  5
7DE1B343D9DFC95
330
7DE1B343D9DFCB2
100
AcDbEntity
  8
TEXT
100
AcDbLine
 10
3.600420326826646
 20
0.7971274299443652
 30
0.0
 11
3.536523420527145
 21
0.7971274299443652
 31
0.0
  0
LINE
  5
7DE1B343D9DFC96
330
7DE1B343D9DFCB2
100
AcDbEntity
  8
TEXT
100
AcDbLine
 10
3.600420326826646
 20
0.7695797800834905
 30
0.0
 11
3.600420326826646
 21
0.7971274299443652
 31
0.0
  0
ARC
  5
7DE1B343D9DFC97
330
7DE1B343D9DFCB2
100
AcDbEntity
  8
TEXT
100
AcDbCircle
 10
3.631613143889754
 20
0.7658817026621004
 30
0.0
 40
0.0314112657011332
100
AcDbArc
 50
95.88484768694724
 51
173.2388340632136
  0
LINE
  5
7DE1B343D9DFC98
330
7DE1B343D9DFCB2
100
AcDbEntity
  8
TEXT
100
AcDbLine
 10
3.695892280916236
 20
0.7971274299443652
 30
0.0
 11
3.628392563266719
 21
0.7971274299443652
 31
0.0
  0
LINE
  5
7DE1B343D9DFC99
330
7DE1B343D9DFCB2
100
AcDbEntity
  8
TEXT
100
AcDbLine
 10
3.695892280916241
 20
0.8625916357119658
 30
0.0
 11
3.695892280916236
 21
0.7971274299443652
 31
0.0
  0
LINE
  5
7DE1B343D9DFC9A
330
7DE1B343D9DFCB2
100
AcDbEntity
  8
TEXT
100
AcDbLine
 10
3.886297150751127
 20
0.7971274299443652
 30
0.0
 11
3.811305318021501
 21
0.7971274299443652
 31
0.0
  0
INSERT
  5
7DE1B343D9DFCCD
330
7DE1B343D9DFCB2
100
AcDbEntity
  8
ASHADE
 62
     1
100
AcDbBlockReference
  2
AVE_RENDER
 10
0.0
 20
0.0
 30
0.0
1001
AVE_RENDER
1002
{
1070
     6
1000
Pref
1070
    30
1070
    20
1070
     1
1070
     0
1000

1070
    10
1070
     1
1070
    30
1040
1.0
1070
     1
1040
0.3
1040
0.7
1040
0.0
1040
10.0
1010
-1.0
1020
-1.0
1030
-1.0
1040
0.3
1070
    49
1070
     0
1070
     0
1010
1.0
1020
1.0
1030
1.0
1040
45.0
1070
     1
1070
     0
1000
WCS
1040
0.0
1002
}
  0
INSERT
  5
7DE1B343D9DFCCE
330
7DE1B343D9DFCB2
100
AcDbEntity
  8
ASHADE
 62
     3
100
AcDbBlockReference
  2
AVE_RENDER
 10
0.0
 20
0.0
 30
0.0
1001
AVE_RENDER
1002
{
1070
     0
1000
Full Opt
1070
     0
1070
     1
1070
     1
1070
     1
1070
     0
1070
     0
1070
     0
1070
     1
1070
     1
1040
0.0001
1040
0.0001
1002
}
  0
INSERT
  5
7DE1B343D9DFCCF
330
7DE1B343D9DFCB2
100
AcDbEntity
  8
ASHADE
 62
     4
100
AcDbBlockReference
  2
AVE_RENDER
 10
0.0
 20
0.0
 30
0.0
1001
AVE_RENDER
1002
{
1070
     0
1000
Quick Opt
1070
     0
1070
     1
1070
     1
1070
     1
1070
     0
1070
     0
1070
     1
1002
}
  0
INSERT
  5
7DE1B343D9DFCD0
330
7DE1B343D9DFCB2
100
AcDbEntity
  8
ASHADE
 62
     5
100
AcDbBlockReference
  2
AVE_RENDER
 10
0.0
 20
0.0
 30
0.0
1001
AVE_RENDER
1002
{
1070
     1
1000
Scanl Opt
1070
     2
1070
     0
1070
     2
1040
2.0
1040
4.0
1070
     0
1070
     1
1070
     0
1040
0.03
1002
}
  0
INSERT
  5
7DE1B343D9DFCD1
330
7DE1B343D9DFCB2
100
AcDbEntity
  8
ASHADE
 62
     6
100
AcDbBlockReference
  2
AVE_RENDER
 10
0.0
 20
0.0
 30
0.0
1001
AVE_RENDER
1002
{
1070
     2
1000
Raytr Opt
1070
     2
1070
     0
1070
     2
1040
2.0
1040
4.0
1070
     0
1070
     1
1070
     1
1040
0.03
1070
     3
1040
0.03
1002
}
  0
INSERT
  5
7DE1B343D9DFCD2
330
7DE1B343D9DFCB2
100
AcDbEntity
  8
ASHADE
 62
     7
100
AcDbBlockReference
  2
AVE_RENDER
 10
0.0
 20
0.0
 30
0.0
1001
AVE_RENDER
1002
{
1070
     0
1000
RFile Opt
1070
     5
1070
   640
1070
   480
1070
 10000
1070
     3
1070
    32
1070
    24
1070
     0
1070
     0
1070
     0
1070
     1
1070
     0
1070
     0
1070
     0
1002
}
  0
INSERT
  5
7DE1B343D9DFCD3
330
7DE1B343D9DFCB2
100
AcDbEntity
  8
ASHADE
 62
     8
100
AcDbBlockReference
  2
AVE_RENDER
 10
0.0
 20
0.0
 30
0.0
1001
AVE_RENDER
1002
{
1070
     0
1000
Fog Opt
1070
     0
1070
     0
1040
0.0
1040
1.0
1040
0.0
1040
1.0
1010
0.5
1020
0.5
1030
0.5
1002
}
  0
INSERT
  5
7DE1B343D9DFCD4
330
7DE1B343D9DFCB2
100
AcDbEntity
  8
ASHADE
 62
     9
100
AcDbBlockReference
  2
AVE_RENDER
 10
0.0
 20
0.0
 30
0.0
1001
AVE_RENDER
1002
{
1070
     0
1000
BG Opt
1070
     0
1070
     1
1010
0.0
1020
0.0
1030
0.0
1010
1.0
1020
0.0
1030
0.0
1010
0.0
1020
1.0
1030
0.0
1010
0.0
1020
0.0
1030
1.0
1040
0.5
1040
0.33
1040
0.0
1000

1070
     1
1000

1070
     1
1070
     1
1040
1.0
1040
1.0
1040
0.0
1040
0.0
1070
     0
1002
}
  0
INSERT
  5
7DE1B343D9DFCDB
330
7DE1B343D9DFCB2
100
AcDbEntity
  8
ASHADE
 62
     1
100
AcDbBlockReference
  2
AVE_GLOBAL
 10
0.0
 20
0.0
 30
0.0
1001
AVE_MATERIAL
1002
{
1000
*GLOBAL*
1000
1
1000
Global finish.
1002
{
1002
}
1002
{
1070
    63
1002
{
1002
{
1010
-1.0
1020
-1.0
1030
-1.0
1002
}
1040
0.1000000014901161
1000

1040
0.0
1002
{
1002
}
1040
0.0
1002
{
1002
}
1040
0.0
1002
}
1002
{
1002
{
1010
-1.0
1020
-1.0
1030
-1.0
1002
}
1040
0.6999999880790711
1000

1040
0.0
1002
{
1002
}
1040
0.0
1002
{
1002
}
1040
0.0
1002
}
1002
{
1002
{
1010
-1.0
1020
-1.0
1030
-1.0
1002
}
1040
0.2000000029802322
1000

1040
0.0
1002
{
1002
}
1040
0.0
1002
{
1002
}
1040
0.0
1002
}
1002
{
1070
     0
1002
{
1070
     1
1002
{
1040
1.0
1040
1.0
1000

1040
0.0
1002
{
1002
}
1040
0.0
1002
{
1002
}
1040
0.0
1002
}
1002
}
1040
1.0
1040
0.0
1040
0.0
1002
}
1002
{
1040
1.0
1040
1.0
1000

1040
0.0
1002
{
1002
}
1040
0.0
1002
{
1002
}
1040
0.0
1002
}
1002
{
1040
0.5
1040
1.0
1000

1040
0.0
1002
{
1002
}
1040
0.0
1002
{
1002
}
1040
0.0
1002
}
1002
{
1070
     0
1040
0.0
1002
{
1002
}
1040
1.0
1002
{
1002
}
1040
0.0
1002
}
1002
{
1040
0.0
1002
{
1002
{
1010
0.0
1020
0.0
1030
0.0
1002
}
1040
1.0
1000

1040
0.0
1002
{
1002
}
1040
0.0
1002
{
1002
}
1040
0.0
1002
}
1002
}
1002
{
1002
{
1070
     1
1002
{
1040
0.0
1040
1.0
1000

1040
0.0
1002
{
1002
}
1040
0.0
1002
{
1002
}
1040
0.0
1002
}
1002
}
1040
0.0
1002
{
1002
}
1010
1.0
1020
0.0
1030
0.0
1010
0.0
1020
1.0
1030
0.0
1010
0.0
1020
0.0
1030
1.0
1070
     0
1002
}
1002
{
1002
{
1040
1.0
1040
1.0
1002
{
1070
     1
1002
{
1040
1.0
1040
1.0
1000

1040
0.0
1002
{
1002
}
1040
0.0
1002
{
1002
}
1040
0.0
1002
}
1002
}
1002
}
1070
     0
1040
0.0
1002
{
1002
}
1002
}
1002
{
1002
}
1002
}
1002
{
1071
        3
1070
     3
1070
     0
1002
{
1070
     2
1070
     0
1070
     0
1040
0.0
1002
}
1070
     0
1070
     2
1002
{
1002
}
1002
}
1002
{
1040
8030.0
1040
190.3000030517578
1040
0.3050000071525574
1040
228.0
1040
545.0
1040
14.0
1040
17.39999961853027
1040
0.4560000002384186
1002
}
1002
}
  0
ENDSEC
  0
SECTION
  2
OBJECTS
  0
DICTIONARY
  5
7DE1B343D9DFCA6
330
0
100
AcDbDictionary
  3
ACAD_GROUP
350
7DE1B343D9DFCA7
  3
ACAD_LAYOUT
350
7DE1B343D9DFCE7
  3
ACAD_MLINESTYLE
350
7DE1B343D9DFCA8
  3
ACAD_PLOTSETTINGS
350
7DE1B343D9DFCE8
  3
ACAD_PLOTSTYLENAME
350
7DE1B343D9DFCE5
  3
ACDBHEADERROUNDTRIPXREC
350
7DE1B343D9DFCF2
  3
ACDBVARIABLEDICTIONARY
350
7DE1B343D9DFCEF
  0
DICTIONARY
  5
7DE1B343D9DFD14
330
7DE1B343D9DFCB2
100
AcDbDictionary
280
     1
  3
ACAD_LAYOUTSELFREF
360
7DE1B343D9DFD15
  0
DICTIONARY
  5
7DE1B343D9DFD12
330
7DE1B343D9DFCAF
100
AcDbDictionary
280
     1
  3
ACAD_LAYOUTSELFREF
360
7DE1B343D9DFD13
  0
DICTIONARY
  5
7DE1B343D9DFCA7
102
{ACAD_REACTORS
330
7DE1B343D9DFCA6
102
}
330
7DE1B343D9DFCA6
100
AcDbDictionary
  0
DICTIONARY
  5
7DE1B343D9DFCE7
102
{ACAD_REACTORS
330
7DE1B343D9DFCA6
102
}
330
7DE1B343D9DFCA6
100
AcDbDictionary
  0
DICTIONARY
  5
7DE1B343D9DFCA8
102
{ACAD_REACTORS
330
7DE1B343D9DFCA6
102
}
330
7DE1B343D9DFCA6
100
AcDbDictionary
  3
STANDARD
350
7DE1B343D9DFCB5
  0
DICTIONARY
  5
7DE1B343D9DFCE8
102
{ACAD_REACTORS
330
7DE1B343D9DFCA6
102
}
330
7DE1B343D9DFCA6
100
AcDbDictionary
  0
ACDBDICTIONARYWDFLT
  5
7DE1B343D9DFCE5
102
{ACAD_REACTORS
330
7DE1B343D9DFCA6
102
}
330
7DE1B343D9DFCA6
100
AcDbDictionary
281
     1
  3
Normal
350
7DE1B343D9DFCE6
100
AcDbDictionaryWithDefault
340
7DE1B343D9DFCE6
  0
DICTIONARY
  5
7DE1B343D9DFCF2
102
{ACAD_REACTORS
330
7DE1B343D9DFCA6
102
}
330
7DE1B343D9DFCA6
100
AcDbDictionary
  3
CEPSNTYPE
350
7DE1B343D9DFCFC
  3
FINGERPRINTGUID
350
7DE1B343D9DFCFD
  3
HYPERLINKBASE
350
7DE1B343D9DFCF5
  3
INSUNITS
350
7DE1B343D9DFCFB
  3
LAYOUTDICT
350
7DE1B343D9DFCF7
  3
LWETCUNION
350
7DE1B343D9DFCFA
  3
PLOTSETDICT
350
7DE1B343D9DFCF8
  3
PLOTSTYLNAMDICT
350
7DE1B343D9DFCF9
  3
PSVPSCALE
350
7DE1B343D9DFCFF
  3
PUCSBASE
350
7DE1B343D9DFD02
  3
PUCSORGBACK
350
7DE1B343D9DFD08
  3
PUCSORGBOTTOM
350
7DE1B343D9DFD04
  3
PUCSORGFRONT
350
7DE1B343D9DFD07
  3
PUCSORGLEFT
350
7DE1B343D9DFD05
  3
PUCSORGRIGHT
350
7DE1B343D9DFD06
  3
PUCSORGTOP
350
7DE1B343D9DFD03
  3
PUCSORTHOREF
350
7DE1B343D9DFD00
  3
PUCSORTHOVIEW
350
7DE1B343D9DFD01
  3
STYLESHEET
350
7DE1B343D9DFCF6
  3
TSTACKALIGN
350
7DE1B343D9DFCF3
  3
TSTACKSIZE
350
7DE1B343D9DFCF4
  3
UCSBASE
350
7DE1B343D9DFD0B
  3
UCSORGBACK
350
7DE1B343D9DFD11
  3
UCSORGBOTTOM
350
7DE1B343D9DFD0D
  3
UCSORGFRONT
350
7DE1B343D9DFD10
  3
UCSORGLEFT
350
7DE1B343D9DFD0E
  3
UCSORGRIGHT
350
7DE1B343D9DFD0F
  3
UCSORGTOP
350
7DE1B343D9DFD0C
  3
UCSORTHOREF
350
7DE1B343D9DFD09
  3
UCSORTHOVIEW
350
7DE1B343D9DFD0A
  3
VERSIONGUID
350
7DE1B343D9DFCFE
  0
DICTIONARY
  5
7DE1B343D9DFCEF
102
{ACAD_REACTORS
330
7DE1B343D9DFCA6
102
}
330
7DE1B343D9DFCA6
100
AcDbDictionary
  3
DIMASSOC
350
7DE1B343D9DFCF0
  0
XRECORD
  5
7DE1B343D9DFD15
102
{ACAD_REACTORS
330
7DE1B343D9DFD14
102
}
330
7DE1B343D9DFD14
100
AcDbXrecord
340
7DE1B343D9DFCB2
  0
XRECORD
  5
7DE1B343D9DFD13
102
{ACAD_REACTORS
330
7DE1B343D9DFD12
102
}
330
7DE1B343D9DFD12
100
AcDbXrecord
340
7DE1B343D9DFCAF
  0
MLINESTYLE
  5
7DE1B343D9DFCB5
102
{ACAD_REACTORS
330
7DE1B343D9DFCA8
102
}
330
7DE1B343D9DFCA8
100
AcDbMlineStyle
  2
STANDARD
 70
     0
  3

 62
     0
 51
90.0
 52
90.0
 71
     2
 49
0.5
 62
   256
  6
BYLAYER
 49
-0.5
 62
   256
  6
BYLAYER
  0
ACDBPLACEHOLDER
  5
7DE1B343D9DFCE6
102
{ACAD_REACTORS
330
7DE1B343D9DFCE5
102
}
330
7DE1B343D9DFCE5
100
AcDbPlaceHolder
280
     0
  0
XRECORD
  5
7DE1B343D9DFCFC
102
{ACAD_REACTORS
330
7DE1B343D9DFCF2
102
}
330
7DE1B343D9DFCF2
100
AcDbXrecord
 90
        0
  0
XRECORD
  5
7DE1B343D9DFCFD
102
{ACAD_REACTORS
330
7DE1B343D9DFCF2
102
}
330
7DE1B343D9DFCF2
100
AcDbXrecord
  1
{C905F100-8DB6-11D6-88E6-0090279574E7}
  0
XRECORD
  5
7DE1B343D9DFCF5
102
{ACAD_REACTORS
330
7DE1B343D9DFCF2
102
}
330
7DE1B343D9DFCF2
100
AcDbXrecord
  1

  0
XRECORD
  5
7DE1B343D9DFCFB
102
{ACAD_REACTORS
330
7DE1B343D9DFCF2
102
}
330
7DE1B343D9DFCF2
100
AcDbXrecord
 90
        0
  0
XRECORD
  5
7DE1B343D9DFCF7
102
{ACAD_REACTORS
330
7DE1B343D9DFCF2
102
}
330
7DE1B343D9DFCF2
100
AcDbXrecord
340
7DE1B343D9DFCE7
  0
XRECORD
  5
7DE1B343D9DFCFA
102
{ACAD_REACTORS
330
7DE1B343D9DFCF2
102
}
330
7DE1B343D9DFCF2
100
AcDbXrecord
 90
    14877
  0
XRECORD
  5
7DE1B343D9DFCF8
102
{ACAD_REACTORS
330
7DE1B343D9DFCF2
102
}
330
7DE1B343D9DFCF2
100
AcDbXrecord
340
7DE1B343D9DFCE8
  0
XRECORD
  5
7DE1B343D9DFCF9
102
{ACAD_REACTORS
330
7DE1B343D9DFCF2
102
}
330
7DE1B343D9DFCF2
100
AcDbXrecord
340
7DE1B343D9DFCE5
  0
XRECORD
  5
7DE1B343D9DFCFF
102
{ACAD_REACTORS
330
7DE1B343D9DFCF2
102
}
330
7DE1B343D9DFCF2
100
AcDbXrecord
 40
0.0
  0
XRECORD
  5
7DE1B343D9DFD02
102
{ACAD_REACTORS
330
7DE1B343D9DFCF2
102
}
330
7DE1B343D9DFCF2
100
AcDbXrecord
340
0
  0
XRECORD
  5
7DE1B343D9DFD08
102
{ACAD_REACTORS
330
7DE1B343D9DFCF2
102
}
330
7DE1B343D9DFCF2
100
AcDbXrecord
 10
0.0
 20
0.0
 30
0.0
  0
XRECORD
  5
7DE1B343D9DFD04
102
{ACAD_REACTORS
330
7DE1B343D9DFCF2
102
}
330
7DE1B343D9DFCF2
100
AcDbXrecord
 10
0.0
 20
0.0
 30
0.0
  0
XRECORD
  5
7DE1B343D9DFD07
102
{ACAD_REACTORS
330
7DE1B343D9DFCF2
102
}
330
7DE1B343D9DFCF2
100
AcDbXrecord
 10
0.0
 20
0.0
 30
0.0
  0
XRECORD
  5
7DE1B343D9DFD05
102
{ACAD_REACTORS
330
7DE1B343D9DFCF2
102
}
330
7DE1B343D9DFCF2
100
AcDbXrecord
 10
0.0
 20
0.0
 30
0.0
  0
XRECORD
  5
7DE1B343D9DFD06
102
{ACAD_REACTORS
330
7DE1B343D9DFCF2
102
}
330
7DE1B343D9DFCF2
100
AcDbXrecord
 10
0.0
 20
0.0
 30
0.0
  0
XRECORD
  5
7DE1B343D9DFD03
102
{ACAD_REACTORS
330
7DE1B343D9DFCF2
102
}
330
7DE1B343D9DFCF2
100
AcDbXrecord
 10
0.0
 20
0.0
 30
0.0
  0
XRECORD
  5
7DE1B343D9DFD00
102
{ACAD_REACTORS
330
7DE1B343D9DFCF2
102
}
330
7DE1B343D9DFCF2
100
AcDbXrecord
340
0
  0
XRECORD
  5
7DE1B343D9DFD01
102
{ACAD_REACTORS
330
7DE1B343D9DFCF2
102
}
330
7DE1B343D9DFCF2
100
AcDbXrecord
 70
     0
  0
XRECORD
  5
7DE1B343D9DFCF6
102
{ACAD_REACTORS
330
7DE1B343D9DFCF2
102
}
330
7DE1B343D9DFCF2
100
AcDbXrecord
  1

  0
XRECORD
  5
7DE1B343D9DFCF3
102
{ACAD_REACTORS
330
7DE1B343D9DFCF2
102
}
330
7DE1B343D9DFCF2
100
AcDbXrecord
 90
        1
  0
XRECORD
  5
7DE1B343D9DFCF4
102
{ACAD_REACTORS
330
7DE1B343D9DFCF2
102
}
330
7DE1B343D9DFCF2
100
AcDbXrecord
 90
       70
  0
XRECORD
  5
7DE1B343D9DFD0B
102
{ACAD_REACTORS
330
7DE1B343D9DFCF2
102
}
330
7DE1B343D9DFCF2
100
AcDbXrecord
340
0
  0
XRECORD
  5
7DE1B343D9DFD11
102
{ACAD_REACTORS
330
7DE1B343D9DFCF2
102
}
330
7DE1B343D9DFCF2
100
AcDbXrecord
 10
0.0
 20
0.0
 30
0.0
  0
XRECORD
  5
7DE1B343D9DFD0D
102
{ACAD_REACTORS
330
7DE1B343D9DFCF2
102
}
330
7DE1B343D9DFCF2
100
AcDbXrecord
 10
0.0
 20
0.0
 30
0.0
  0
XRECORD
  5
7DE1B343D9DFD10
102
{ACAD_REACTORS
330
7DE1B343D9DFCF2
102
}
330
7DE1B343D9DFCF2
100
AcDbXrecord
 10
0.0
 20
0.0
 30
0.0
  0
XRECORD
  5
7DE1B343D9DFD0E
102
{ACAD_REACTORS
330
7DE1B343D9DFCF2
102
}
330
7DE1B343D9DFCF2
100
AcDbXrecord
 10
0.0
 20
0.0
 30
0.0
  0
XRECORD
  5
7DE1B343D9DFD0F
102
{ACAD_REACTORS
330
7DE1B343D9DFCF2
102
}
330
7DE1B343D9DFCF2
100
AcDbXrecord
 10
0.0
 20
0.0
 30
0.0
  0
XRECORD
  5
7DE1B343D9DFD0C
102
{ACAD_REACTORS
330
7DE1B343D9DFCF2
102
}
330
7DE1B343D9DFCF2
100
AcDbXrecord
 10
0.0
 20
0.0
 30
0.0
  0
XRECORD
  5
7DE1B343D9DFD09
102
{ACAD_REACTORS
330
7DE1B343D9DFCF2
102
}
330
7DE1B343D9DFCF2
100
AcDbXrecord
340
0
  0
XRECORD
  5
7DE1B343D9DFD0A
102
{ACAD_REACTORS
330
7DE1B343D9DFCF2
102
}
330
7DE1B343D9DFCF2
100
AcDbXrecord
 70
     0
  0
XRECORD
  5
7DE1B343D9DFCFE
102
{ACAD_REACTORS
330
7DE1B343D9DFCF2
102
}
330
7DE1B343D9DFCF2
100
AcDbXrecord
  1
{C905F102-8DB6-11D6-88E6-0090279574E7}
  0
DICTIONARYVAR
  5
7DE1B343D9DFCF0
102
{ACAD_REACTORS
330
7DE1B343D9DFCEF
102
}
330
7DE1B343D9DFCEF
100
DictionaryVariables
280
     0
  1
1
  0
ENDSEC
  0
EOF
