  0
SECTION
  2
HEADER
  9
$ACADVER
  1
AC1014
  9
$ACADMAINTVER
 70
     9
  9
$DWGCODEPAGE
  3
ANSI_1252
  9
$INSBASE
 10
2.206490974602361
 20
3.583104652758799
 30
0.0
  9
$EXTMIN
 10
0.693375131381808
 20
1.460190526082552
 30
0.0
  9
$EXTMAX
 10
4.178594453128936
 20
4.819962570608976
 30
0.0
  9
$LIMMIN
 10
0.0
 20
0.0
  9
$LIMMAX
 10
18.0
 20
12.0
  9
$ORTHOMODE
 70
     1
  9
$REGENMODE
 70
     1
  9
$FILLMODE
 70
     1
  9
$QTEXTMODE
 70
     0
  9
$MIRRTEXT
 70
     0
  9
$DRAGMODE
 70
     2
  9
$LTSCALE
 40
1.0
  9
$OSMODE
 70
    39
  9
$ATTMODE
 70
     1
  9
$TEXTSIZE
 40
0.125
  9
$TRACEWID
 40
0.05
  9
$TEXTSTYLE
  7
ROMANS
  9
$CLAYER
  8
0
  9
$CELTYPE
  6
BYLAYER
  9
$CECOLOR
 62
   256
  9
$CELTSCALE
 40
1.0
  9
$DELOBJ
 70
     1
  9
$DISPSILH
 70
     1
  9
$DIMSCALE
 40
1.0
  9
$DIMASZ
 40
0.125
  9
$DIMEXO
 40
0.125
  9
$DIMDLI
 40
0.375
  9
$DIMRND
 40
0.0
  9
$DIMDLE
 40
0.0
  9
$DIMEXE
 40
0.125
  9
$DIMTP
 40
0.0
  9
$DIMTM
 40
0.0
  9
$DIMTXT
 40
0.125
  9
$DIMCEN
 40
-0.125
  9
$DIMTSZ
 40
0.0
  9
$DIMTOL
 70
     0
  9
$DIMLIM
 70
     0
  9
$DIMTIH
 70
     1
  9
$DIMTOH
 70
     1
  9
$DIMSE1
 70
     0
  9
$DIMSE2
 70
     0
  9
$DIMTAD
 70
     0
  9
$DIMZIN
 70
     4
  9
$DIMBLK
  1

  9
$DIMASO
 70
     1
  9
$DIMSHO
 70
     1
  9
$DIMPOST
  1

  9
$DIMAPOST
  1

  9
$DIMALT
 70
     0
  9
$DIMALTD
 70
     2
  9
$DIMALTF
 40
25.4
  9
$DIMLFAC
 40
1.0
  9
$DIMTOFL
 70
     0
  9
$DIMTVP
 40
0.0
  9
$DIMTIX
 70
     1
  9
$DIMSOXD
 70
     0
  9
$DIMSAH
 70
     0
  9
$DIMBLK1
  1

  9
$DIMBLK2
  1

  9
$DIMSTYLE
  2
STANDARD
  9
$DIMCLRD
 70
     0
  9
$DIMCLRE
 70
     0
  9
$DIMCLRT
 70
     0
  9
$DIMTFAC
 40
1.0
  9
$DIMGAP
 40
0.09
  9
$DIMJUST
 70
     0
  9
$DIMSD1
 70
     0
  9
$DIMSD2
 70
     0
  9
$DIMTOLJ
 70
     1
  9
$DIMTZIN
 70
     4
  9
$DIMALTZ
 70
     0
  9
$DIMALTTZ
 70
     0
  9
$DIMFIT
 70
     3
  9
$DIMUPT
 70
     0
  9
$DIMUNIT
 70
     2
  9
$DIMDEC
 70
     3
  9
$DIMTDEC
 70
     3
  9
$DIMALTU
 70
     2
  9
$DIMALTTD
 70
     2
  9
$DIMTXSTY
  7
ROMANS
  9
$DIMAUNIT
 70
     0
  9
$LUNITS
 70
     2
  9
$LUPREC
 70
     3
  9
$SKETCHINC
 40
0.1
  9
$FILLETRAD
 40
0.03125
  9
$AUNITS
 70
     0
  9
$AUPREC
 70
     0
  9
$MENU
  1
ACAD
  9
$ELEVATION
 40
0.0
  9
$PELEVATION
 40
0.0
  9
$THICKNESS
 40
0.0
  9
$LIMCHECK
 70
     0
  9
$BLIPMODE
 70
     0
  9
$CHAMFERA
 40
0.0
  9
$CHAMFERB
 40
0.0
  9
$CHAMFERC
 40
0.0
  9
$CHAMFERD
 40
0.0
  9
$SKPOLY
 70
     0
  9
$TDCREATE
 40
2448994.609205671
  9
$TDUPDATE
 40
2452458.309262141
  9
$TDINDWG
 40
0.0008463194
  9
$TDUSRTIMER
 40
0.0008463194
  9
$USRTIMER
 70
     1
  9
$ANGBASE
 50
0.0
  9
$ANGDIR
 70
     0
  9
$PDMODE
 70
     0
  9
$PDSIZE
 40
0.0
  9
$PLINEWID
 40
0.0
  9
$COORDS
 70
     2
  9
$SPLFRAME
 70
     0
  9
$SPLINETYPE
 70
     6
  9
$SPLINESEGS
 70
     8
  9
$ATTDIA
 70
     0
  9
$ATTREQ
 70
     1
  9
$HANDLING
 70
 22529
  9
$HANDSEED
  5
7DE1B343D9E057D
  9
$SURFTAB1
 70
     6
  9
$SURFTAB2
 70
     6
  9
$SURFTYPE
 70
     6
  9
$SURFU
 70
     6
  9
$SURFV
 70
     6
  9
$UCSNAME
  2

  9
$UCSORG
 10
0.0
 20
0.0
 30
0.0
  9
$UCSXDIR
 10
1.0
 20
0.0
 30
0.0
  9
$UCSYDIR
 10
0.0
 20
1.0
 30
0.0
  9
$PUCSNAME
  2

  9
$PUCSORG
 10
0.0
 20
0.0
 30
0.0
  9
$PUCSXDIR
 10
1.0
 20
0.0
 30
0.0
  9
$PUCSYDIR
 10
0.0
 20
1.0
 30
0.0
  9
$USERI1
 70
     0
  9
$USERI2
 70
     0
  9
$USERI3
 70
     0
  9
$USERI4
 70
     0
  9
$USERI5
 70
     0
  9
$USERR1
 40
0.0
  9
$USERR2
 40
0.0
  9
$USERR3
 40
0.0
  9
$USERR4
 40
0.0
  9
$USERR5
 40
0.0
  9
$WORLDVIEW
 70
     1
  9
$SHADEDGE
 70
     3
  9
$SHADEDIF
 70
    70
  9
$TILEMODE
 70
     1
  9
$MAXACTVP
 70
    16
  9
$PINSBASE
 10
5.546697211115216
 20
50.00000000000001
 30
6.507477819750783
  9
$PLIMCHECK
 70
     0
  9
$PEXTMIN
 10
1.000000000000000E+20
 20
1.000000000000000E+20
 30
1.000000000000000E+20
  9
$PEXTMAX
 10
-1.000000000000000E+20
 20
-1.000000000000000E+20
 30
-1.000000000000000E+20
  9
$PLIMMIN
 10
0.0
 20
0.0
  9
$PLIMMAX
 10
12.0
 20
9.0
  9
$UNITMODE
 70
     0
  9
$VISRETAIN
 70
     0
  9
$PLINEGEN
 70
     1
  9
$PSLTSCALE
 70
     0
  9
$TREEDEPTH
 70
  3020
  9
$PICKSTYLE
 70
     1
  9
$CMLSTYLE
  2
STANDARD
  9
$CMLJUST
 70
     0
  9
$CMLSCALE
 40
1.0
  9
$PROXYGRAPHICS
 70
     1
  9
$MEASUREMENT
 70
     0
  0
ENDSEC
  0
SECTION
  2
CLASSES
  0
CLASS
  1
LWPOLYLINE
  2
AcDbPolyline
  3
AutoCAD 2000
 90
        0
280
     0
281
     1
  0
CLASS
  1
ACDBDICTIONARYWDFLT
  2
AcDbDictionaryWithDefault
  3
AutoCAD 2000
 90
        0
280
     0
281
     0
  0
CLASS
  1
ACDBPLACEHOLDER
  2
AcDbPlaceHolder
  3
AutoCAD 2000
 90
        0
280
     0
281
     0
  0
CLASS
  1
LAYOUT
  2
AcDbLayout
  3
AutoCAD 2000
 90
        0
280
     0
281
     0
  0
CLASS
  1
DICTIONARYVAR
  2
AcDbDictionaryVar
  3
AutoCAD 2000
 90
        0
280
     0
281
     0
  0
CLASS
  1
LONG_TRANSACTION
  2
AcDbLongTransaction
  3
AutoCAD 2000
 90
        0
280
     0
281
     0
  0
CLASS
  1
LWPOLYLINE
  2
AcDbPolyline
  3
AutoCAD 2000
 90
        0
280
     0
281
     1
  0
CLASS
  1
HATCH
  2
AcDbHatch
  3
AutoCAD 2000
 90
        0
280
     0
281
     1
  0
CLASS
  1
XRECORD
  2
AcDbXrecord
  3
AutoCAD 2000
 90
        0
280
     0
281
     0
  0
ENDSEC
  0
SECTION
  2
TABLES
  0
TABLE
  2
VPORT
  5
7DE1B343D9E0509
330
0
100
AcDbSymbolTable
 70
     2
  0
VPORT
  5
7DE1B343D9E0558
330
7DE1B343D9E0509
100
AcDbSymbolTableRecord
100
AcDbViewportTableRecord
  2
*ACTIVE
 70
     0
 10
0.0
 20
0.0
 11
1.0
 21
1.0
 12
7.383657276058748
 22
3.140350366407481
 13
0.0
 23
0.0
 14
0.015625
 24
0.015625
 15
0.0
 25
0.0
 16
0.0
 26
0.0
 36
1.0
 17
0.0
 27
0.0
 37
0.0
 40
3.794243405117722
 41
4.320930232558139
 42
50.0
 43
0.0
 44
0.0
 50
0.0
 51
0.0
 71
     0
 72
  2000
 73
     1
 74
     0
 75
     0
 76
     0
 77
     0
 78
     0
  0
ENDTAB
  0
TABLE
  2
LTYPE
  5
7DE1B343D9E0506
330
0
100
AcDbSymbolTable
 70
     1
  0
LTYPE
  5
7DE1B343D9E0513
330
7DE1B343D9E0506
100
AcDbSymbolTableRecord
100
AcDbLinetypeTableRecord
  2
BYBLOCK
 70
     0
  3

 72
    65
 73
     0
 40
0.0
  0
LTYPE
  5
7DE1B343D9E0514
330
7DE1B343D9E0506
100
AcDbSymbolTableRecord
100
AcDbLinetypeTableRecord
  2
BYLAYER
 70
     0
  3

 72
    65
 73
     0
 40
0.0
  0
LTYPE
  5
7DE1B343D9E0515
330
7DE1B343D9E0506
100
AcDbSymbolTableRecord
100
AcDbLinetypeTableRecord
  2
CONTINUOUS
 70
     0
  3
Solid line
 72
    65
 73
     0
 40
0.0
  0
ENDTAB
  0
TABLE
  2
LAYER
  5
7DE1B343D9E0503
330
0
100
AcDbSymbolTable
 70
     3
  0
LAYER
  5
7DE1B343D9E0510
330
7DE1B343D9E0503
100
AcDbSymbolTableRecord
100
AcDbLayerTableRecord
  2
0
 70
     0
 62
     7
  6
CONTINUOUS
  0
LAYER
  5
7DE1B343D9E0520
330
7DE1B343D9E0503
100
AcDbSymbolTableRecord
100
AcDbLayerTableRecord
  2
TEXT
 70
     0
 62
     3
  6
CONTINUOUS
  0
LAYER
  5
7DE1B343D9E0530
330
7DE1B343D9E0503
100
AcDbSymbolTableRecord
100
AcDbLayerTableRecord
  2
ASHADE
 70
     4
 62
     7
  6
CONTINUOUS
  0
ENDTAB
  0
TABLE
  2
STYLE
  5
7DE1B343D9E0504
330
0
100
AcDbSymbolTable
 70
     4
  0
STYLE
  5
7DE1B343D9E0511
330
7DE1B343D9E0504
100
AcDbSymbolTableRecord
100
AcDbTextStyleTableRecord
  2
STANDARD
 70
     0
 40
0.0
 41
1.0
 50
0.0
 71
     0
 42
0.3125
  3
txt
  4

  0
STYLE
  5
7DE1B343D9E051D
330
7DE1B343D9E0504
100
AcDbSymbolTableRecord
100
AcDbTextStyleTableRecord
  2
ITALICC
 70
     0
 40
0.0
 41
1.0
 50
0.0
 71
     0
 42
0.125
  3
italicc
  4

  0
STYLE
  5
7DE1B343D9E052D
330
7DE1B343D9E0504
100
AcDbSymbolTableRecord
100
AcDbTextStyleTableRecord
  2
ASHADE
 70
     0
 40
0.2
 41
1.0
 50
0.0
 71
     0
 42
0.3125
  3
simplex
  4

  0
STYLE
  5
7DE1B343D9E0548
330
7DE1B343D9E0504
100
AcDbSymbolTableRecord
100
AcDbTextStyleTableRecord
  2
ROMANS
 70
     0
 40
0.0
 41
1.0
 50
0.0
 71
     0
 42
0.125
  3
romans.shx
  4

  0
ENDTAB
  0
TABLE
  2
VIEW
  5
7DE1B343D9E0507
330
0
100
AcDbSymbolTable
 70
     0
  0
ENDTAB
  0
TABLE
  2
UCS
  5
7DE1B343D9E0508
330
0
100
AcDbSymbolTable
 70
     0
  0
ENDTAB
  0
TABLE
  2
APPID
  5
7DE1B343D9E050A
330
0
100
AcDbSymbolTable
 70
     6
  0
APPID
  5
7DE1B343D9E0512
330
7DE1B343D9E050A
100
AcDbSymbolTableRecord
100
AcDbRegAppTableRecord
  2
ACAD
 70
     0
  0
APPID
  5
7DE1B343D9E052E
330
7DE1B343D9E050A
100
AcDbSymbolTableRecord
100
AcDbRegAppTableRecord
  2
AVE_RENDER
 70
     0
  0
APPID
  5
7DE1B343D9E052F
330
7DE1B343D9E050A
100
AcDbSymbolTableRecord
100
AcDbRegAppTableRecord
  2
AVE_ENTITY_MATERIAL
 70
     0
  0
APPID
  5
7DE1B343D9E053C
330
7DE1B343D9E050A
100
AcDbSymbolTableRecord
100
AcDbRegAppTableRecord
  2
AVE_FINISH
 70
     0
  0
APPID
  5
7DE1B343D9E053D
330
7DE1B343D9E050A
100
AcDbSymbolTableRecord
100
AcDbRegAppTableRecord
  2
AVE_MATERIAL
 70
     0
  0
APPID
  5
7DE1B343D9E053E
330
7DE1B343D9E050A
100
AcDbSymbolTableRecord
100
AcDbRegAppTableRecord
  2
AVE_GLOBAL
 70
     0
  0
ENDTAB
  0
TABLE
  2
DIMSTYLE
  5
7DE1B343D9E050B
330
0
100
AcDbSymbolTable
 70
     1
  0
DIMSTYLE
105
7DE1B343D9E0525
330
7DE1B343D9E050B
100
AcDbSymbolTableRecord
100
AcDbDimStyleTableRecord
  2
STANDARD
 70
     0
  3

  4

  5

  6

  7

 40
1.0
 41
0.125
 42
0.125
 43
0.375
 44
0.125
 45
0.0
 46
0.0
 47
0.0
 48
0.0
140
0.125
141
-0.125
142
0.0
143
25.4
144
1.0
145
0.0
146
1.0
147
0.09
 71
     0
 72
     0
 73
     1
 74
     1
 75
     0
 76
     0
 77
     0
 78
     4
170
     0
171
     2
172
     0
173
     0
174
     1
175
     0
176
     0
177
     0
178
     0
270
     2
271
     3
272
     3
273
     2
274
     2
340
7DE1B343D9E0548
275
     0
280
     0
281
     0
282
     0
283
     1
284
     4
285
     0
286
     0
287
     3
288
     0
  0
ENDTAB
  0
TABLE
  2
BLOCK_RECORD
  5
7DE1B343D9E0502
330
0
100
AcDbSymbolTable
 70
     2
  0
BLOCK_RECORD
  5
7DE1B343D9E0519
102
{ACAD_XDICTIONARY
360
7DE1B343D9E057B
102
}
330
7DE1B343D9E0502
100
AcDbSymbolTableRecord
100
AcDbBlockTableRecord
  2
*MODEL_SPACE
  0
BLOCK_RECORD
  5
7DE1B343D9E0516
102
{ACAD_XDICTIONARY
360
7DE1B343D9E0579
102
}
330
7DE1B343D9E0502
100
AcDbSymbolTableRecord
100
AcDbBlockTableRecord
  2
*PAPER_SPACE
  0
BLOCK_RECORD
  5
7DE1B343D9E0531
330
7DE1B343D9E0502
100
AcDbSymbolTableRecord
100
AcDbBlockTableRecord
  2
AVE_RENDER
  0
BLOCK_RECORD
  5
7DE1B343D9E053F
330
7DE1B343D9E0502
100
AcDbSymbolTableRecord
100
AcDbBlockTableRecord
  2
AVE_GLOBAL
  0
ENDTAB
  0
ENDSEC
  0
SECTION
  2
BLOCKS
  0
BLOCK
  5
7DE1B343D9E0523
330
7DE1B343D9E0519
100
AcDbEntity
  8
0
100
AcDbBlockBegin
  2
*MODEL_SPACE
 70
     0
 10
0.0
 20
0.0
 30
0.0
  3
*MODEL_SPACE
  1

  0
ENDBLK
  5
7DE1B343D9E0524
330
7DE1B343D9E0519
100
AcDbEntity
  8
0
100
AcDbBlockEnd
  0
BLOCK
  5
7DE1B343D9E0521
330
7DE1B343D9E0516
100
AcDbEntity
 67
     1
  8
0
100
AcDbBlockBegin
  2
*PAPER_SPACE
 70
     0
 10
0.0
 20
0.0
 30
0.0
  3
*PAPER_SPACE
  1

  0
ENDBLK
  5
7DE1B343D9E0522
330
7DE1B343D9E0516
100
AcDbEntity
 67
     1
  8
0
100
AcDbBlockEnd
  0
BLOCK
  5
7DE1B343D9E0532
330
7DE1B343D9E0531
100
AcDbEntity
  8
0
100
AcDbBlockBegin
  2
AVE_RENDER
 70
     0
 10
0.0
 20
0.0
 30
0.0
  3
AVE_RENDER
  1
AVE_RENDER
  0
ENDBLK
  5
7DE1B343D9E0533
330
7DE1B343D9E0531
100
AcDbEntity
  8
0
100
AcDbBlockEnd
  0
BLOCK
  5
7DE1B343D9E0540
330
7DE1B343D9E053F
100
AcDbEntity
  8
0
100
AcDbBlockBegin
  2
AVE_GLOBAL
 70
     0
 10
0.0
 20
0.0
 30
0.0
  3
AVE_GLOBAL
  1
AVE_GLOBAL
  0
ENDBLK
  5
7DE1B343D9E0541
330
7DE1B343D9E053F
100
AcDbEntity
  8
0
100
AcDbBlockEnd
  0
ENDSEC
  0
SECTION
  2
ENTITIES
  0
LWPOLYLINE
  5
7DE1B343D9DF0D4
330
7DE1B343D9E0519
100
AcDbEntity
  8
0
100
AcDbPolyline
 90
       41
 70
     1
 43
0.0
 10
1.608231709064527
 20
4.757462570608976
 10
1.608231709064527
 20
4.561355252580693
 42
0.2679491924311255
 10
1.623856709064527
 20
4.53429195871243
 10
1.670731709064527
 20
4.507228664844167
 10
1.670731709064527
 20
4.757462570608976
 10
3.233231709064527
 20
4.757462570608976
 10
3.233231709064527
 20
4.439244619529377
 42
0.3730073626822126
 10
2.750731709064527
 20
3.882462570608976
 10
2.750731709064527
 20
3.581962570608976
 42
-0.278686660463173
 10
2.483231709064527
 20
3.139307230643445
 10
2.483231709064527
 20
2.782060500342127
 10
2.295709522496386
 20
2.782060500342127
 10
2.295709522496386
 20
2.719560500342127
 10
2.295709522496386
 20
2.601999826518395
 42
-0.4142135623730951
 10
2.201959522496386
 20
2.508249826518395
 10
2.170731709064527
 20
2.508249826518395
 10
2.139481709064527
 20
2.508249826518395
 42
0.4142135623730951
 10
1.920731709064527
 20
2.289499826518395
 10
1.920731709064527
 20
2.256994759079359
 10
1.670731709064527
 20
2.256994759079359
 10
1.670731709064527
 20
2.507228664844167
 10
1.623856709064527
 20
2.480165370975904
 42
0.2679491924311238
 10
1.608231709064527
 20
2.453102077107639
 10
1.608231709064527
 20
2.256994759079359
 10
1.576981710105777
 20
2.256994759079359
 42
1.000000025785066
 10
1.576981709634843
 20
2.194494759079359
 10
1.983231709064527
 20
2.194494759079359
 10
1.983231709064527
 20
2.289499826518395
 42
-0.4142135623730951
 10
2.139481709064527
 20
2.445749826518395
 10
2.170731709064527
 20
2.445749826518395
 10
2.201959522496386
 20
2.445749826518395
 42
0.4142135623730951
 10
2.358209522496386
 20
2.601999826518395
 10
2.358209522496386
 20
2.719560500342127
 10
2.545731709064527
 20
2.719560500342127
 10
2.545731709064527
 20
3.103024944189836
 42
0.2603367477314087
 10
2.813231709064527
 20
3.581962570608976
 10
2.813231709064527
 20
3.882462570608976
 42
-0.403996980972109
 10
3.295731709064527
 20
4.382156226762424
 10
3.295731709064527
 20
4.819962570608976
 10
1.576981712153374
 20
4.819962570608976
 42
1.000000098843126
 10
1.576981712153374
 20
4.757462570608976
  0
TEXT
  5
7DE1B343D9E03C4
330
7DE1B343D9E0519
100
AcDbEntity
  8
TEXT
100
AcDbText
 10
1.68338052013276
 20
1.918209130165134
 30
0.0
 40
0.125
  1
PART #110382
  7
ITALICC
 72
     1
 11
2.436356710608951
 21
1.918209130165134
 31
0.0
100
AcDbText
  0
TEXT
  5
7DE1B343D9E03C5
330
7DE1B343D9E0519
100
AcDbEntity
  8
TEXT
100
AcDbText
 10
2.849661868859271
 20
1.471286487492759
 30
0.0
 40
0.0522247191011236
  1
Phone  1-800-328-2495
 41
1.272321428571429
 72
     5
 11
4.178594453128935
 21
1.471286487492759
 31
0.0
100
AcDbText
  0
TEXT
  5
7DE1B343D9E03C6
330
7DE1B343D9E0519
100
AcDbEntity
  8
TEXT
100
AcDbText
 10
2.849661868859271
 20
1.751061768391635
 30
0.0
 40
0.0522247191011236
  1
Stylmark  Incorporated
 41
1.221428571428573
 72
     5
 11
4.178594453128935
 21
1.751061768391635
 31
0.0
100
AcDbText
  0
TEXT
  5
7DE1B343D9E03C7
330
7DE1B343D9E0519
100
AcDbEntity
  8
TEXT
100
AcDbText
 10
2.849661868859271
 20
1.657803341425343
 30
0.0
 40
0.0522247191011236
  1
6536 Main St. N.E. * P.O. Box 32008
 41
0.8388932496075366
 72
     5
 11
4.178594453128935
 21
1.657803341425343
 31
0.0
100
AcDbText
  0
TEXT
  5
7DE1B343D9E03C8
330
7DE1B343D9E0519
100
AcDbEntity
  8
TEXT
100
AcDbText
 10
2.849661868859271
 20
1.564544914459051
 30
0.0
 40
0.0522247191011236
  1
Minneapolis, MN 55432-0008
 41
1.11444212721585
 72
     5
 11
4.178594453128935
 21
1.564544914459051
 31
0.0
100
AcDbText
  0
LWPOLYLINE
  5
7DE1B343D9E03C9
330
7DE1B343D9E0519
100
AcDbEntity
  8
TEXT
100
AcDbPolyline
 90
        3
 70
     0
 43
0.0006660908203125
 10
0.6937081767919642
 20
1.584931250130193
 10
0.6937081767919642
 20
1.471695810677066
 10
0.8069436162450864
 20
1.471695810677066
  0
LWPOLYLINE
  5
7DE1B343D9E03CE
330
7DE1B343D9E0519
100
AcDbEntity
  8
TEXT
100
AcDbPolyline
 90
        3
 70
     0
 43
0.0006660908203125
 10
0.7203518096044617
 20
1.584931250130193
 10
0.7203518096044617
 20
1.498339443489567
 10
0.8069436162450864
 20
1.498339443489567
  0
LWPOLYLINE
  5
7DE1B343D9E03D3
330
7DE1B343D9E0519
100
AcDbEntity
  8
TEXT
100
AcDbPolyline
 90
        2
 70
     0
 43
0.0001332181640625
 10
0.7669781670263385
 20
1.594922612434879
 10
0.6937081767919642
 20
1.584931250130193
  0
LWPOLYLINE
  5
7DE1B343D9E03D7
330
7DE1B343D9E0519
100
AcDbEntity
  8
TEXT
100
AcDbPolyline
 90
        2
 70
     0
 43
0.0001332181640625
 10
0.7203518096044617
 20
1.584931250130193
 10
0.780299983432589
 20
1.594922612434879
  0
LWPOLYLINE
  5
7DE1B343D9E03DB
330
7DE1B343D9E0519
100
AcDbEntity
  8
TEXT
100
AcDbPolyline
 90
        2
 70
     0
 43
0.0001332181640625
 10
0.7203518096044617
 20
1.498339443489567
 10
0.780299983432589
 20
1.558287617317692
  0
LWPOLYLINE
  5
7DE1B343D9E03DF
330
7DE1B343D9E0519
100
AcDbEntity
  8
TEXT
100
AcDbPolyline
 90
        3
 70
     0
 43
0.0006660908203125
 10
0.8069436162450864
 20
1.738132138802069
 10
0.6937081767919642
 20
1.738132138802069
 10
0.6937081767919642
 20
1.624896699348941
  0
LWPOLYLINE
  5
7DE1B343D9E03E4
330
7DE1B343D9E0519
100
AcDbEntity
  8
TEXT
100
AcDbPolyline
 90
        3
 70
     0
 43
0.0006660908203125
 10
0.8069436162450864
 20
1.711488505989568
 10
0.7203518096044617
 20
1.711488505989568
 10
0.7203518096044617
 20
1.624896699348941
  0
LWPOLYLINE
  5
7DE1B343D9E03E9
330
7DE1B343D9E0519
100
AcDbEntity
  8
TEXT
100
AcDbPolyline
 90
        2
 70
     0
 43
0.0001332181640625
 10
0.7203518096044617
 20
1.711488505989568
 10
0.7802999834325873
 20
1.651540332161443
  0
LWPOLYLINE
  5
7DE1B343D9E03ED
330
7DE1B343D9E0519
100
AcDbEntity
  8
TEXT
100
AcDbPolyline
 90
        2
 70
     0
 43
0.0001332181640625
 10
0.7203518096044617
 20
1.624896699348941
 10
0.7802999834325873
 20
1.614905337044253
  0
LWPOLYLINE
  5
7DE1B343D9E03F1
330
7DE1B343D9E0519
100
AcDbEntity
  8
TEXT
100
AcDbPolyline
 90
        2
 70
     0
 43
0.0001332181640625
 10
0.6937081767919642
 20
1.624896699348941
 10
0.7669781670263385
 20
1.614905337044253
  0
LWPOLYLINE
  5
7DE1B343D9E03F5
330
7DE1B343D9E0519
100
AcDbEntity
  8
TEXT
100
AcDbPolyline
 90
        2
 70
     0
 43
0.0006660908203125
 10
0.7203518096044617
 20
1.584931250130193
 10
0.6937081767919642
 20
1.584931250130193
  0
LWPOLYLINE
  5
7DE1B343D9E03F9
330
7DE1B343D9E0519
100
AcDbEntity
  8
TEXT
100
AcDbPolyline
 90
        2
 70
     0
 43
0.0006660908203125
 10
0.7203518096044617
 20
1.624896699348941
 10
0.6937081767919642
 20
1.624896699348941
  0
LINE
  5
7DE1B343D9E03FD
330
7DE1B343D9E0519
100
AcDbEntity
  8
TEXT
100
AcDbLine
 10
2.208898605918461
 20
1.6738554441453
 30
0.0
 11
2.101692332531172
 21
1.6738554441453
 31
0.0
  0
LINE
  5
7DE1B343D9E03FE
330
7DE1B343D9E0519
100
AcDbEntity
  8
TEXT
100
AcDbLine
 10
2.23792950426294
 20
1.738132138802066
 30
0.0
 11
2.103097595045881
 21
1.738132138802066
 31
0.0
  0
ARC
  5
7DE1B343D9E03FF
330
7DE1B343D9E0519
100
AcDbEntity
  8
TEXT
100
AcDbCircle
 10
2.162411691439197
 20
1.568894889539049
 30
0.0
 40
0.0676855811441166
100
AcDbArc
 50
90.0
 51
153.7768192527749
  0
LWPOLYLINE
  5
7DE1B343D9E0400
330
7DE1B343D9E0519
100
AcDbEntity
  8
TEXT
100
AcDbPolyline
 90
        2
 70
     0
 43
0.0
 10
2.100659837076362
 20
1.515150050763993
 42
0.2901071551932823
 10
2.143735769943997
 20
1.471659105813555
 42
5.328517124445801
  0
ARC
  5
7DE1B343D9E0404
330
7DE1B343D9E0519
100
AcDbEntity
  8
TEXT
100
AcDbCircle
 10
1.457280313767712
 20
1.531451497151604
 30
0.0
 40
0.0601160179737537
100
AcDbArc
 50
180.0000000000003
 51
264.0521544866073
  0
LINE
  5
7DE1B343D9E0405
330
7DE1B343D9E0519
100
AcDbEntity
  8
TEXT
100
AcDbLine
 10
1.460795669393259
 20
1.772520056396204
 30
0.0
 11
1.400753064549252
 21
1.772520056396204
 31
0.0
  0
ARC
  5
7DE1B343D9E0406
330
7DE1B343D9E0519
100
AcDbEntity
  8
TEXT
100
AcDbCircle
 10
1.225021311650741
 20
1.656044679355564
 30
0.0
 40
0.0820874594465043
100
AcDbArc
 50
90.0
 51
270.0
  0
LWPOLYLINE
  5
7DE1B343D9E0407
330
7DE1B343D9E0519
100
AcDbEntity
  8
TEXT
100
AcDbPolyline
 90
        2
 70
     0
 43
0.0001332181640625
 10
0.816934978549777
 20
1.664862148567689
 10
0.8069436162450864
 20
1.738132138802069
  0
LWPOLYLINE
  5
7DE1B343D9E040B
330
7DE1B343D9E0519
100
AcDbEntity
  8
TEXT
100
AcDbPolyline
 90
        2
 70
     0
 43
0.0001332181640625
 10
0.8069436162450864
 20
1.711488505989568
 10
0.816934978549777
 20
1.651540332161443
  0
LWPOLYLINE
  5
7DE1B343D9E040F
330
7DE1B343D9E0519
100
AcDbEntity
  8
TEXT
100
AcDbPolyline
 90
        3
 70
     0
 43
0.0006660908203125
 10
0.9601445049169639
 20
1.624896699348941
 10
0.9601445049169639
 20
1.738132138802069
 10
0.846909065463838
 20
1.738132138802069
  0
LWPOLYLINE
  5
7DE1B343D9E0414
330
7DE1B343D9E0519
100
AcDbEntity
  8
TEXT
100
AcDbPolyline
 90
        3
 70
     0
 43
0.0006660908203125
 10
0.9335008721044628
 20
1.624896699348941
 10
0.9335008721044628
 20
1.711488505989568
 10
0.846909065463838
 20
1.711488505989568
  0
LWPOLYLINE
  5
7DE1B343D9E0419
330
7DE1B343D9E0519
100
AcDbEntity
  8
TEXT
100
AcDbPolyline
 90
        2
 70
     0
 43
0.0001332181640625
 10
0.9335008721044628
 20
1.711488505989568
 10
0.873552698276339
 20
1.651540332161443
  0
LWPOLYLINE
  5
7DE1B343D9E041D
330
7DE1B343D9E0519
100
AcDbEntity
  8
TEXT
100
AcDbPolyline
 90
        2
 70
     0
 43
0.0001332181640625
 10
0.846909065463838
 20
1.711488505989568
 10
0.8369177031591492
 20
1.651540332161443
  0
LWPOLYLINE
  5
7DE1B343D9E0421
330
7DE1B343D9E0519
100
AcDbEntity
  8
TEXT
100
AcDbPolyline
 90
        2
 70
     0
 43
0.0001332181640625
 10
0.846909065463838
 20
1.738132138802069
 10
0.8369177031591492
 20
1.664862148567689
  0
LWPOLYLINE
  5
7DE1B343D9E0425
330
7DE1B343D9E0519
100
AcDbEntity
  8
TEXT
100
AcDbPolyline
 90
        2
 70
     0
 43
0.0001332181640625
 10
0.8868745146825878
 20
1.614905337044253
 10
0.9601445049169639
 20
1.624896699348941
  0
LWPOLYLINE
  5
7DE1B343D9E0429
330
7DE1B343D9E0519
100
AcDbEntity
  8
TEXT
100
AcDbPolyline
 90
        2
 70
     0
 43
0.0001332181640625
 10
0.9335008721044628
 20
1.624896699348941
 10
0.873552698276339
 20
1.614905337044253
  0
LWPOLYLINE
  5
7DE1B343D9E042D
330
7DE1B343D9E0519
100
AcDbEntity
  8
TEXT
100
AcDbPolyline
 90
        2
 70
     0
 43
0.0001332181640625
 10
0.9601445049169639
 20
1.584931250130193
 10
0.8868745146825878
 20
1.594922612434879
  0
LWPOLYLINE
  5
7DE1B343D9E0431
330
7DE1B343D9E0519
100
AcDbEntity
  8
TEXT
100
AcDbPolyline
 90
        2
 70
     0
 43
0.0001332181640625
 10
0.9335008721044628
 20
1.584931250130193
 10
0.873552698276339
 20
1.594922612434879
  0
LWPOLYLINE
  5
7DE1B343D9E0435
330
7DE1B343D9E0519
100
AcDbEntity
  8
TEXT
100
AcDbPolyline
 90
        2
 70
     0
 43
0.0001332181640625
 10
0.9335008721044628
 20
1.498339443489567
 10
0.873552698276339
 20
1.558287617317692
  0
LWPOLYLINE
  5
7DE1B343D9E0439
330
7DE1B343D9E0519
100
AcDbEntity
  8
TEXT
100
AcDbPolyline
 90
        3
 70
     0
 43
0.0006660908203125
 10
0.846909065463838
 20
1.498339443489567
 10
0.9335008721044628
 20
1.498339443489567
 10
0.9335008721044628
 20
1.584931250130193
  0
LWPOLYLINE
  5
7DE1B343D9E043E
330
7DE1B343D9E0519
100
AcDbEntity
  8
TEXT
100
AcDbPolyline
 90
        3
 70
     0
 43
0.0006660908203125
 10
0.846909065463838
 20
1.471695810677066
 10
0.9601445049169639
 20
1.471695810677066
 10
0.9601445049169639
 20
1.584931250130193
  0
LWPOLYLINE
  5
7DE1B343D9E0443
330
7DE1B343D9E0519
100
AcDbEntity
  8
TEXT
100
AcDbPolyline
 90
        5
 70
     0
 43
0.0001332181640625
 10
0.816934978549777
 20
1.544965800911442
 10
0.816934978549777
 20
1.558287617317692
 10
0.780299983432589
 20
1.558287617317692
 10
0.780299983432589
 20
1.594922612434879
 10
0.7669781670263385
 20
1.594922612434879
  0
LWPOLYLINE
  5
7DE1B343D9E044A
330
7DE1B343D9E0519
100
AcDbEntity
  8
TEXT
100
AcDbPolyline
 90
        2
 70
     0
 43
0.0006660908203125
 10
0.8069436162450864
 20
1.498339443489567
 10
0.8069436162450864
 20
1.471695810677066
  0
LWPOLYLINE
  5
7DE1B343D9E044E
330
7DE1B343D9E0519
100
AcDbEntity
  8
TEXT
100
AcDbPolyline
 90
        2
 70
     0
 43
0.0001332181640625
 10
0.8069436162450864
 20
1.498339443489567
 10
0.816934978549777
 20
1.558287617317692
  0
LWPOLYLINE
  5
7DE1B343D9E0452
330
7DE1B343D9E0519
100
AcDbEntity
  8
TEXT
100
AcDbPolyline
 90
        2
 70
     0
 43
0.0001332181640625
 10
0.8069436162450864
 20
1.471695810677066
 10
0.816934978549777
 20
1.544965800911442
  0
LWPOLYLINE
  5
7DE1B343D9E0456
330
7DE1B343D9E0519
100
AcDbEntity
  8
TEXT
100
AcDbPolyline
 90
        5
 70
     0
 43
0.0001332181640625
 10
0.7669781670263385
 20
1.614905337044253
 10
0.7802999834325873
 20
1.614905337044253
 10
0.7802999834325873
 20
1.651540332161443
 10
0.816934978549777
 20
1.651540332161443
 10
0.816934978549777
 20
1.664862148567689
  0
LWPOLYLINE
  5
7DE1B343D9E045D
330
7DE1B343D9E0519
100
AcDbEntity
  8
TEXT
100
AcDbPolyline
 90
        5
 70
     0
 43
0.0001332181640625
 10
0.8369177031591492
 20
1.664862148567689
 10
0.8369177031591492
 20
1.651540332161443
 10
0.873552698276339
 20
1.651540332161443
 10
0.873552698276339
 20
1.614905337044253
 10
0.8868745146825878
 20
1.614905337044253
  0
LWPOLYLINE
  5
7DE1B343D9E0464
330
7DE1B343D9E0519
100
AcDbEntity
  8
TEXT
100
AcDbPolyline
 90
        2
 70
     0
 43
0.0001332181640625
 10
0.846909065463838
 20
1.498339443489567
 10
0.8369177031591492
 20
1.558287617317692
  0
LWPOLYLINE
  5
7DE1B343D9E0468
330
7DE1B343D9E0519
100
AcDbEntity
  8
TEXT
100
AcDbPolyline
 90
        2
 70
     0
 43
0.0001332181640625
 10
0.8369177031591492
 20
1.544965800911442
 10
0.846909065463838
 20
1.471695810677066
  0
LWPOLYLINE
  5
7DE1B343D9E046C
330
7DE1B343D9E0519
100
AcDbEntity
  8
TEXT
100
AcDbPolyline
 90
        2
 70
     0
 43
0.0006660908203125
 10
0.846909065463838
 20
1.498339443489567
 10
0.846909065463838
 20
1.471695810677066
  0
LWPOLYLINE
  5
7DE1B343D9E0470
330
7DE1B343D9E0519
100
AcDbEntity
  8
TEXT
100
AcDbPolyline
 90
        5
 70
     0
 43
0.0001332181640625
 10
0.8868745146825878
 20
1.594922612434879
 10
0.873552698276339
 20
1.594922612434879
 10
0.873552698276339
 20
1.558287617317692
 10
0.8369177031591492
 20
1.558287617317692
 10
0.8369177031591492
 20
1.544965800911442
  0
LWPOLYLINE
  5
7DE1B343D9E0477
330
7DE1B343D9E0519
100
AcDbEntity
  8
TEXT
100
AcDbPolyline
 90
        2
 70
     0
 43
0.0006660908203125
 10
0.9335008721044628
 20
1.624896699348941
 10
0.9601445049169639
 20
1.624896699348941
  0
LWPOLYLINE
  5
7DE1B343D9E047B
330
7DE1B343D9E0519
100
AcDbEntity
  8
TEXT
100
AcDbPolyline
 90
        2
 70
     0
 43
0.0006660908203125
 10
0.9335008721044628
 20
1.584931250130193
 10
0.9601445049169639
 20
1.584931250130193
  0
LINE
  5
7DE1B343D9E047F
330
7DE1B343D9E0519
100
AcDbEntity
  8
TEXT
100
AcDbLine
 10
1.230258641764988
 20
1.6738554441453
 30
0.0
 11
1.39716429579396
 21
1.6738554441453
 31
0.0
  0
LINE
  5
7DE1B343D9E0480
330
7DE1B343D9E0519
100
AcDbEntity
  8
TEXT
100
AcDbLine
 10
1.295858778009289
 20
1.638050722534672
 30
0.0
 11
1.230258641764988
 21
1.638050722534672
 31
0.0
  0
LINE
  5
7DE1B343D9E0481
330
7DE1B343D9E0519
100
AcDbEntity
  8
TEXT
100
AcDbLine
 10
1.142933852204237
 20
1.471659105813555
 30
0.0
 11
1.295858778009289
 21
1.471659105813555
 31
0.0
  0
LINE
  5
7DE1B343D9E0482
330
7DE1B343D9E0519
100
AcDbEntity
  8
TEXT
100
AcDbLine
 10
1.300799151915569
 20
1.540016112146994
 30
0.0
 11
1.142933852204235
 21
1.540016112146994
 31
0.0
  0
LINE
  5
7DE1B343D9E0483
330
7DE1B343D9E0519
100
AcDbEntity
  8
TEXT
100
AcDbLine
 10
1.22502131165074
 20
1.573957219909059
 30
0.0
 11
1.300799151915569
 21
1.573957219909059
 31
0.0
  0
ARC
  5
7DE1B343D9E0484
330
7DE1B343D9E0519
100
AcDbEntity
  8
TEXT
100
AcDbCircle
 10
1.230258641764989
 20
1.655953083339988
 30
0.0
 40
0.017902360805315
100
AcDbArc
 50
90.0
 51
270.0
  0
LINE
  5
7DE1B343D9E0485
330
7DE1B343D9E0519
100
AcDbEntity
  8
TEXT
100
AcDbLine
 10
1.142933852204235
 20
1.540016112146994
 30
0.0
 11
1.142933852204237
 21
1.471659105813555
 31
0.0
  0
LINE
  5
7DE1B343D9E0486
330
7DE1B343D9E0519
100
AcDbEntity
  8
TEXT
100
AcDbLine
 10
1.39716429579396
 20
1.6738554441453
 30
0.0
 11
1.39716429579396
 21
1.531451497151604
 31
0.0
  0
ARC
  5
7DE1B343D9E0487
330
7DE1B343D9E0519
100
AcDbEntity
  8
TEXT
100
AcDbCircle
 10
1.29585877800929
 20
1.554854914174112
 30
0.0
 40
0.0831958083605586
100
AcDbArc
 50
270.0
 51
90.0
  0
ARC
  5
7DE1B343D9E0488
330
7DE1B343D9E0519
100
AcDbEntity
  8
TEXT
100
AcDbCircle
 10
1.30079915191557
 20
1.556986666028028
 30
0.0
 40
0.0169705538810321
100
AcDbArc
 50
270.0
 51
90.0
  0
LWPOLYLINE
  5
7DE1B343D9E0489
330
7DE1B343D9E0519
100
AcDbEntity
  8
TEXT
100
AcDbPolyline
 90
        2
 70
     0
 43
0.0006660908203125
 10
0.8069436162450864
 20
1.711488505989568
 10
0.8069436162450864
 20
1.738132138802069
  0
LWPOLYLINE
  5
7DE1B343D9E048D
330
7DE1B343D9E0519
100
AcDbEntity
  8
TEXT
100
AcDbPolyline
 90
        2
 70
     0
 43
0.0006660908203125
 10
0.846909065463838
 20
1.711488505989568
 10
0.846909065463838
 20
1.738132138802069
  0
LINE
  5
7DE1B343D9E0491
330
7DE1B343D9E0519
100
AcDbEntity
  8
TEXT
100
AcDbLine
 10
1.400753064549252
 20
1.738132138802066
 30
0.0
 11
1.22502131165074
 21
1.738132138802066
 31
0.0
  0
LINE
  5
7DE1B343D9E0492
330
7DE1B343D9E0519
100
AcDbEntity
  8
TEXT
100
AcDbLine
 10
1.400753064549252
 20
1.772520056396204
 30
0.0
 11
1.400753064549252
 21
1.738132138802066
 31
0.0
  0
LINE
  5
7DE1B343D9E0493
330
7DE1B343D9E0519
100
AcDbEntity
  8
TEXT
100
AcDbLine
 10
1.591224956569105
 20
1.637260142688945
 30
0.0
 11
1.532594635537167
 21
1.738132138802066
 31
0.0
  0
LINE
  5
7DE1B343D9E0494
330
7DE1B343D9E0519
100
AcDbEntity
  8
TEXT
100
AcDbLine
 10
1.64997351937497
 20
1.738132138802066
 30
0.0
 11
1.591224956569105
 21
1.637260142688945
 31
0.0
  0
LINE
  5
7DE1B343D9E0495
330
7DE1B343D9E0519
100
AcDbEntity
  8
TEXT
100
AcDbLine
 10
1.746904144734712
 20
1.554046943916554
 30
0.0
 11
1.746904144734712
 21
1.806143616540876
 31
0.0
  0
LINE
  5
7DE1B343D9E0496
330
7DE1B343D9E0519
100
AcDbEntity
  8
TEXT
100
AcDbLine
 10
1.779215998872372
 20
1.738132138802066
 30
0.0
 11
1.779215998872372
 21
1.537267932069657
 31
0.0
  0
LINE
  5
7DE1B343D9E0497
330
7DE1B343D9E0519
100
AcDbEntity
  8
TEXT
100
AcDbLine
 10
1.779215998872372
 20
1.537267932069657
 30
0.0
 11
1.76222236198777
 21
1.537267932069657
 31
0.0
  0
LINE
  5
7DE1B343D9E0498
330
7DE1B343D9E0519
100
AcDbEntity
  8
TEXT
100
AcDbLine
 10
1.748043718230906
 20
1.471659105813555
 30
0.0
 11
1.846047051930341
 21
1.471659105813555
 31
0.0
  0
LINE
  5
7DE1B343D9E0499
330
7DE1B343D9E0519
100
AcDbEntity
  8
TEXT
100
AcDbLine
 10
1.58162471957215
 20
1.491617611918568
 30
0.0
 11
1.678924425665595
 21
1.655967822853836
 31
0.0
  0
ARC
  5
7DE1B343D9E049A
330
7DE1B343D9E0519
100
AcDbEntity
  8
TEXT
100
AcDbCircle
 10
1.547581159659936
 20
1.51120682808725
 30
0.0
 40
0.0392772371940762
100
AcDbArc
 50
270.1604552698595
 51
330.0831797321295
  0
LINE
  5
7DE1B343D9E049B
330
7DE1B343D9E0519
100
AcDbEntity
  8
TEXT
100
AcDbLine
 10
1.451050903274065
 20
1.471659105813555
 30
0.0
 11
1.54769115434906
 21
1.471929744911837
 31
0.0
  0
LWPOLYLINE
  5
7DE1B343D9E049C
330
7DE1B343D9E0519
100
AcDbEntity
  8
TEXT
100
AcDbPolyline
 90
        6
 70
     1
 43
0.0
 10
1.493574706849215
 20
1.6738554441453
 10
1.463258112629007
 20
1.6738554441453
 10
1.463258112629007
 20
1.550744446090406
 42
0.407328721240804
 10
1.474801763790483
 20
1.53892553141402
 10
1.535423462835214
 20
1.53892553141402
 10
1.552888803242532
 20
1.571737760457499
  0
LINE
  5
7DE1B343D9E04A4
330
7DE1B343D9E0519
100
AcDbEntity
  8
TEXT
100
AcDbLine
 10
1.678924425665595
 20
1.655967822853836
 30
0.0
 11
1.678924425665595
 21
1.523210448028479
 31
0.0
  0
ARC
  5
7DE1B343D9E04A5
330
7DE1B343D9E0519
100
AcDbEntity
  8
TEXT
100
AcDbCircle
 10
1.762222361987769
 20
1.552649738313083
 30
0.0
 40
0.0153818062434269
100
AcDbArc
 50
174.7883570302258
 51
270.0
  0
LWPOLYLINE
  5
7DE1B343D9E04A6
330
7DE1B343D9E0519
100
AcDbEntity
  8
TEXT
100
AcDbPolyline
 90
        2
 70
     0
 43
0.0
 10
1.678924425665593
 20
1.523210448028483
 42
0.3318488747599744
 10
1.748043718230906
 20
1.471659105813555
 42
-6.868794160588311
  0
LINE
  5
7DE1B343D9E04AA
330
7DE1B343D9E0519
100
AcDbEntity
  8
TEXT
100
AcDbLine
 10
1.903436120919602
 20
1.471659105813555
 30
0.0
 11
1.970494167701442
 21
1.471659105813555
 31
0.0
  0
LINE
  5
7DE1B343D9E04AB
330
7DE1B343D9E0519
100
AcDbEntity
  8
TEXT
100
AcDbLine
 10
1.903436120919602
 20
1.66630165497919
 30
0.0
 11
1.903436120919602
 21
1.471659105813555
 31
0.0
  0
LINE
  5
7DE1B343D9E04AC
330
7DE1B343D9E0519
100
AcDbEntity
  8
TEXT
100
AcDbLine
 10
1.846047051930341
 20
1.6738554441453
 30
0.0
 11
1.895882331753488
 21
1.6738554441453
 31
0.0
  0
LINE
  5
7DE1B343D9E04AD
330
7DE1B343D9E0519
100
AcDbEntity
  8
TEXT
100
AcDbLine
 10
1.846047051930341
 20
1.471659105813555
 30
0.0
 11
1.846047051930341
 21
1.6738554441453
 31
0.0
  0
LWPOLYLINE
  5
7DE1B343D9E04AE
330
7DE1B343D9E0519
100
AcDbEntity
  8
TEXT
100
AcDbPolyline
 90
        2
 70
     0
 43
0.0
 10
1.895882331753487
 20
1.6738554441453
 42
-0.4142135623731017
 10
1.9034361209196
 20
1.66630165497919
 42
-0.9999999999999998
  0
LINE
  5
7DE1B343D9E04B2
330
7DE1B343D9E0519
100
AcDbEntity
  8
TEXT
100
AcDbLine
 10
2.101692332531172
 20
1.6738554441453
 30
0.0
 11
2.101692332531172
 21
1.598803038071094
 31
0.0
  0
LINE
  5
7DE1B343D9E04B3
330
7DE1B343D9E0519
100
AcDbEntity
  8
TEXT
100
AcDbLine
 10
1.970494167701442
 20
1.6738554441453
 30
0.0
 11
2.024627764622392
 21
1.6738554441453
 31
0.0
  0
LINE
  5
7DE1B343D9E04B4
330
7DE1B343D9E0519
100
AcDbEntity
  8
TEXT
100
AcDbLine
 10
1.970494167701442
 20
1.471659105813555
 30
0.0
 11
1.970494167701442
 21
1.6738554441453
 31
0.0
  0
LWPOLYLINE
  5
7DE1B343D9E04B5
330
7DE1B343D9E0519
100
AcDbEntity
  8
TEXT
100
AcDbPolyline
 90
        2
 70
     0
 43
0.0
 10
2.02462776462239
 20
1.6738554441453
 42
-0.4142135623731017
 10
2.032181553788504
 20
1.66630165497919
 42
-0.9999999999999998
  0
LWPOLYLINE
  5
7DE1B343D9E04B9
330
7DE1B343D9E0519
100
AcDbEntity
  8
TEXT
100
AcDbPolyline
 90
        4
 70
     0
 43
0.0
 10
2.032181553788504
 20
1.66630165497919
 10
2.032181553788504
 20
1.471659105813555
 10
2.100659837076362
 20
1.471659105813555
 10
2.100659837076362
 20
1.515150050763993
 42
-1.714843617202739
  0
LINE
  5
7DE1B343D9E04BF
330
7DE1B343D9E0519
100
AcDbEntity
  8
TEXT
100
AcDbLine
 10
1.460795669393259
 20
1.738132138802066
 30
0.0
 11
1.460795669393259
 21
1.772520056396204
 31
0.0
  0
LINE
  5
7DE1B343D9E04C0
330
7DE1B343D9E0519
100
AcDbEntity
  8
TEXT
100
AcDbLine
 10
1.532594635537167
 20
1.738132138802066
 30
0.0
 11
1.460795669393259
 21
1.738132138802066
 31
0.0
  0
LINE
  5
7DE1B343D9E04C1
330
7DE1B343D9E0519
100
AcDbEntity
  8
TEXT
100
AcDbLine
 10
1.680095432168347
 20
1.738132138802066
 30
0.0
 11
1.64997351937497
 21
1.738132138802066
 31
0.0
  0
LINE
  5
7DE1B343D9E04C2
330
7DE1B343D9E0519
100
AcDbEntity
  8
TEXT
100
AcDbLine
 10
1.680095432168347
 20
1.806143616540876
 30
0.0
 11
1.680095432168347
 21
1.738132138802066
 31
0.0
  0
LINE
  5
7DE1B343D9E04C3
330
7DE1B343D9E0519
100
AcDbEntity
  8
TEXT
100
AcDbLine
 10
1.746904144734712
 20
1.806143616540876
 30
0.0
 11
1.680095432168347
 21
1.806143616540876
 31
0.0
  0
LWPOLYLINE
  5
7DE1B343D9E04C4
330
7DE1B343D9E0519
100
AcDbEntity
  8
TEXT
100
AcDbPolyline
 90
        3
 70
     0
 43
0.0
 10
2.067315904332714
 20
1.738132138802069
 10
1.949015745516669
 20
1.738132138802069
 10
1.949015745516669
 20
1.710964642041173
 42
-1.960274751411753
  0
LINE
  5
7DE1B343D9E04C9
330
7DE1B343D9E0519
100
AcDbEntity
  8
TEXT
100
AcDbLine
 10
1.913234054803508
 20
1.738132138802066
 30
0.0
 11
1.779215998872372
 21
1.738132138802066
 31
0.0
  0
LWPOLYLINE
  5
7DE1B343D9E04CA
330
7DE1B343D9E0519
100
AcDbEntity
  8
TEXT
100
AcDbPolyline
 90
        2
 70
     0
 43
0.0
 10
1.913234054803508
 20
1.738132138802069
 42
-0.3328679258950098
 10
1.949015745516669
 20
1.710964642041173
 42
6.772930709997214
  0
LINE
  5
7DE1B343D9E04CE
330
7DE1B343D9E0519
100
AcDbEntity
  8
TEXT
100
AcDbLine
 10
2.103097595045881
 20
1.738132138802066
 30
0.0
 11
2.103097595045881
 21
1.709809593032422
 31
0.0
  0
LWPOLYLINE
  5
7DE1B343D9E04CF
330
7DE1B343D9E0519
100
AcDbEntity
  8
TEXT
100
AcDbPolyline
 90
        2
 70
     0
 43
0.0
 10
2.067315904332714
 20
1.738132138802069
 42
-0.3277054968067132
 10
2.103097595045879
 20
1.709809593032425
 42
6.667889725900311
  0
LINE
  5
7DE1B343D9E04D3
330
7DE1B343D9E0519
100
AcDbEntity
  8
TEXT
100
AcDbLine
 10
2.316889443137981
 20
1.632920160248638
 30
0.0
 11
2.273138671956079
 21
1.715170436244783
 31
0.0
  0
LINE
  5
7DE1B343D9E04D4
330
7DE1B343D9E0519
100
AcDbEntity
  8
TEXT
100
AcDbLine
 10
2.316889443137981
 20
1.738132138802066
 30
0.0
 11
2.316889443137981
 21
1.632920160248638
 31
0.0
  0
LINE
  5
7DE1B343D9E04D5
330
7DE1B343D9E0519
100
AcDbEntity
  8
TEXT
100
AcDbLine
 10
2.54457318207635
 20
1.662266812390527
 30
0.0
 11
2.54457318207635
 21
1.803596344569666
 31
0.0
  0
LINE
  5
7DE1B343D9E04D6
330
7DE1B343D9E0519
100
AcDbEntity
  8
TEXT
100
AcDbLine
 10
2.591671340632334
 20
1.738132138802066
 30
0.0
 11
2.54457318207635
 21
1.662266812390527
 31
0.0
  0
LINE
  5
7DE1B343D9E04D7
330
7DE1B343D9E0519
100
AcDbEntity
  8
TEXT
100
AcDbLine
 10
2.602106057396257
 20
1.628238895861092
 30
0.0
 11
2.666663173361962
 21
1.738132138802066
 31
0.0
  0
LINE
  5
7DE1B343D9E04D8
330
7DE1B343D9E0519
100
AcDbEntity
  8
TEXT
100
AcDbLine
 10
2.480738190853577
 20
1.471659105813555
 30
0.0
 11
2.545116375172197
 21
1.471659105813555
 31
0.0
  0
LWPOLYLINE
  5
7DE1B343D9E04D9
330
7DE1B343D9E0519
100
AcDbEntity
  8
TEXT
100
AcDbPolyline
 90
        2
 70
     0
 43
0.0
 10
2.320829120443018
 20
1.515150050763993
 42
-0.2901071551932486
 10
2.277753187575374
 20
1.471659105813555
 42
-5.328517124445184
  0
ARC
  5
7DE1B343D9E04DD
330
7DE1B343D9E0519
100
AcDbEntity
  8
TEXT
100
AcDbCircle
 10
2.208898605918459
 20
1.645496069145303
 30
0.0
 40
0.028359375
100
AcDbArc
 50
25.78218179591245
 51
90.0
  0
LINE
  5
7DE1B343D9E04DE
330
7DE1B343D9E0519
100
AcDbEntity
  8
TEXT
100
AcDbLine
 10
2.244699681222583
 20
1.636580470683168
 30
0.0
 11
2.234434920809018
 21
1.657831010255862
 31
0.0
  0
LINE
  5
7DE1B343D9E04DF
330
7DE1B343D9E0519
100
AcDbEntity
  8
TEXT
100
AcDbLine
 10
2.162411691439199
 20
1.636580470683168
 30
0.0
 11
2.244699681222583
 21
1.636580470683168
 31
0.0
  0
LWPOLYLINE
  5
7DE1B343D9E04E0
330
7DE1B343D9E0519
100
AcDbEntity
  8
TEXT
100
AcDbPolyline
 90
        4
 70
     1
 43
0.0
 10
2.257630722505481
 20
1.57462308379758
 10
2.168970403845623
 20
1.57462308379758
 42
0.9999999999999998
 10
2.168970403845623
 20
1.532224543293719
 10
2.257630722505481
 20
1.532224543293719
 42
1.0
  0
LWPOLYLINE
  5
7DE1B343D9E04E6
330
7DE1B343D9E0519
100
AcDbEntity
  8
TEXT
100
AcDbPolyline
 90
        2
 70
     0
 43
0.0
 10
2.143735769943997
 20
1.471659105813555
 10
2.277753187575374
 20
1.471659105813555
 42
0.9999999999999998
  0
LINE
  5
7DE1B343D9E04EA
330
7DE1B343D9E0519
100
AcDbEntity
  8
TEXT
100
AcDbLine
 10
2.404090209561013
 20
1.6738554441453
 30
0.0
 11
2.480738190853571
 21
1.6738554441453
 31
0.0
  0
LINE
  5
7DE1B343D9E04EB
330
7DE1B343D9E0519
100
AcDbEntity
  8
TEXT
100
AcDbLine
 10
2.480738190853571
 20
1.6738554441453
 30
0.0
 11
2.480738190853577
 21
1.471659105813555
 31
0.0
  0
ARC
  5
7DE1B343D9E04EC
330
7DE1B343D9E0519
100
AcDbEntity
  8
TEXT
100
AcDbCircle
 10
2.404090209561012
 20
1.648949568862637
 30
0.0
 40
0.0249058752826653
100
AcDbArc
 50
89.99971217465335
 51
179.9999999999985
  0
LINE
  5
7DE1B343D9E04ED
330
7DE1B343D9E0519
100
AcDbEntity
  8
TEXT
100
AcDbLine
 10
2.379184334278354
 20
1.471659105813555
 30
0.0
 11
2.379184334278349
 21
1.648949611245023
 31
0.0
  0
LWPOLYLINE
  5
7DE1B343D9E04EE
330
7DE1B343D9E0519
100
AcDbEntity
  8
TEXT
100
AcDbPolyline
 90
        2
 70
     0
 43
0.0
 10
2.320829120443018
 20
1.471659105813555
 10
2.379184334278352
 20
1.471659105813555
  0
LWPOLYLINE
  5
7DE1B343D9E04F2
330
7DE1B343D9E0519
100
AcDbEntity
  8
TEXT
100
AcDbPolyline
 90
        2
 70
     0
 43
0.0
 10
2.320829120443018
 20
1.515150050763993
 10
2.320829120443018
 20
1.471659105813555
  0
LINE
  5
7DE1B343D9E04F6
330
7DE1B343D9E0519
100
AcDbEntity
  8
TEXT
100
AcDbLine
 10
2.697598280759867
 20
1.471659105813555
 30
0.0
 11
2.602106057396257
 21
1.628238895861092
 31
0.0
  0
LINE
  5
7DE1B343D9E04F7
330
7DE1B343D9E0519
100
AcDbEntity
  8
TEXT
100
AcDbLine
 10
2.621019908383662
 20
1.471659105813555
 30
0.0
 11
2.697598280759867
 21
1.471659105813555
 31
0.0
  0
LINE
  5
7DE1B343D9E04F8
330
7DE1B343D9E0519
100
AcDbEntity
  8
TEXT
100
AcDbLine
 10
2.545116375172197
 20
1.603238674289735
 30
0.0
 11
2.621019908383662
 21
1.471659105813555
 31
0.0
  0
LINE
  5
7DE1B343D9E04F9
330
7DE1B343D9E0519
100
AcDbEntity
  8
TEXT
100
AcDbLine
 10
2.545116375172197
 20
1.471659105813555
 30
0.0
 11
2.545116375172197
 21
1.603238674289735
 31
0.0
  0
LINE
  5
7DE1B343D9E04FA
330
7DE1B343D9E0519
100
AcDbEntity
  8
TEXT
100
AcDbLine
 10
2.54457318207635
 20
1.803596344569666
 30
0.0
 11
2.476258303527076
 21
1.803596344569666
 31
0.0
  0
ARC
  5
7DE1B343D9E04FB
330
7DE1B343D9E0519
100
AcDbEntity
  8
TEXT
100
AcDbCircle
 10
2.23590256448587
 20
1.696548571681163
 30
0.0
 40
0.0416329381542859
100
AcDbArc
 50
26.56974201007528
 51
87.20939649401342
  0
LINE
  5
7DE1B343D9E04FC
330
7DE1B343D9E0519
100
AcDbEntity
  8
TEXT
100
AcDbLine
 10
2.380786349437482
 20
1.738132138802066
 30
0.0
 11
2.316889443137981
 21
1.738132138802066
 31
0.0
  0
LINE
  5
7DE1B343D9E04FD
330
7DE1B343D9E0519
100
AcDbEntity
  8
TEXT
100
AcDbLine
 10
2.380786349437482
 20
1.710584488941191
 30
0.0
 11
2.380786349437482
 21
1.738132138802066
 31
0.0
  0
ARC
  5
7DE1B343D9E04FE
330
7DE1B343D9E0519
100
AcDbEntity
  8
TEXT
100
AcDbCircle
 10
2.411979166500589
 20
1.706886411519801
 30
0.0
 40
0.0314112657011332
100
AcDbArc
 50
95.88484768694724
 51
173.2388340632136
  0
LINE
  5
7DE1B343D9E04FF
330
7DE1B343D9E0519
100
AcDbEntity
  8
TEXT
100
AcDbLine
 10
2.476258303527071
 20
1.738132138802066
 30
0.0
 11
2.408758585877555
 21
1.738132138802066
 31
0.0
  0
LINE
  5
7DE1B343D9E0500
330
7DE1B343D9E0519
100
AcDbEntity
  8
TEXT
100
AcDbLine
 10
2.476258303527076
 20
1.803596344569666
 30
0.0
 11
2.476258303527071
 21
1.738132138802066
 31
0.0
  0
LINE
  5
7DE1B343D9E0501
330
7DE1B343D9E0519
100
AcDbEntity
  8
TEXT
100
AcDbLine
 10
2.666663173361962
 20
1.738132138802066
 30
0.0
 11
2.591671340632336
 21
1.738132138802066
 31
0.0
  0
INSERT
  5
7DE1B343D9E0534
330
7DE1B343D9E0519
100
AcDbEntity
  8
ASHADE
 62
     1
100
AcDbBlockReference
  2
AVE_RENDER
 10
0.0
 20
0.0
 30
0.0
1001
AVE_RENDER
1002
{
1070
     6
1000
Pref
1070
    30
1070
    20
1070
     1
1070
     0
1000

1070
    10
1070
     1
1070
    30
1040
1.0
1070
     1
1040
0.3
1040
0.7
1040
0.0
1040
10.0
1010
-1.0
1020
-1.0
1030
-1.0
1040
0.3
1070
    49
1070
     0
1070
     0
1010
1.0
1020
1.0
1030
1.0
1040
45.0
1070
     1
1070
     0
1000
WCS
1040
0.0
1002
}
  0
INSERT
  5
7DE1B343D9E0535
330
7DE1B343D9E0519
100
AcDbEntity
  8
ASHADE
 62
     3
100
AcDbBlockReference
  2
AVE_RENDER
 10
0.0
 20
0.0
 30
0.0
1001
AVE_RENDER
1002
{
1070
     0
1000
Full Opt
1070
     0
1070
     1
1070
     1
1070
     1
1070
     0
1070
     0
1070
     0
1070
     1
1070
     1
1040
0.0001
1040
0.0001
1002
}
  0
INSERT
  5
7DE1B343D9E0536
330
7DE1B343D9E0519
100
AcDbEntity
  8
ASHADE
 62
     4
100
AcDbBlockReference
  2
AVE_RENDER
 10
0.0
 20
0.0
 30
0.0
1001
AVE_RENDER
1002
{
1070
     0
1000
Quick Opt
1070
     0
1070
     1
1070
     1
1070
     1
1070
     0
1070
     0
1070
     1
1002
}
  0
INSERT
  5
7DE1B343D9E0537
330
7DE1B343D9E0519
100
AcDbEntity
  8
ASHADE
 62
     5
100
AcDbBlockReference
  2
AVE_RENDER
 10
0.0
 20
0.0
 30
0.0
1001
AVE_RENDER
1002
{
1070
     1
1000
Scanl Opt
1070
     2
1070
     0
1070
     2
1040
2.0
1040
4.0
1070
     0
1070
     1
1070
     0
1040
0.03
1002
}
  0
INSERT
  5
7DE1B343D9E0538
330
7DE1B343D9E0519
100
AcDbEntity
  8
ASHADE
 62
     6
100
AcDbBlockReference
  2
AVE_RENDER
 10
0.0
 20
0.0
 30
0.0
1001
AVE_RENDER
1002
{
1070
     2
1000
Raytr Opt
1070
     2
1070
     0
1070
     2
1040
2.0
1040
4.0
1070
     0
1070
     1
1070
     1
1040
0.03
1070
     3
1040
0.03
1002
}
  0
INSERT
  5
7DE1B343D9E0539
330
7DE1B343D9E0519
100
AcDbEntity
  8
ASHADE
 62
     7
100
AcDbBlockReference
  2
AVE_RENDER
 10
0.0
 20
0.0
 30
0.0
1001
AVE_RENDER
1002
{
1070
     0
1000
RFile Opt
1070
     5
1070
   640
1070
   480
1070
 10000
1070
     3
1070
    32
1070
    24
1070
     0
1070
     0
1070
     0
1070
     1
1070
     0
1070
     0
1070
     0
1002
}
  0
INSERT
  5
7DE1B343D9E053A
330
7DE1B343D9E0519
100
AcDbEntity
  8
ASHADE
 62
     8
100
AcDbBlockReference
  2
AVE_RENDER
 10
0.0
 20
0.0
 30
0.0
1001
AVE_RENDER
1002
{
1070
     0
1000
Fog Opt
1070
     0
1070
     0
1040
0.0
1040
1.0
1040
0.0
1040
1.0
1010
0.5
1020
0.5
1030
0.5
1002
}
  0
INSERT
  5
7DE1B343D9E053B
330
7DE1B343D9E0519
100
AcDbEntity
  8
ASHADE
 62
     9
100
AcDbBlockReference
  2
AVE_RENDER
 10
0.0
 20
0.0
 30
0.0
1001
AVE_RENDER
1002
{
1070
     0
1000
BG Opt
1070
     0
1070
     1
1010
0.0
1020
0.0
1030
0.0
1010
1.0
1020
0.0
1030
0.0
1010
0.0
1020
1.0
1030
0.0
1010
0.0
1020
0.0
1030
1.0
1040
0.5
1040
0.33
1040
0.0
1000

1070
     1
1000

1070
     1
1070
     1
1040
1.0
1040
1.0
1040
0.0
1040
0.0
1070
     0
1002
}
  0
INSERT
  5
7DE1B343D9E0542
330
7DE1B343D9E0519
100
AcDbEntity
  8
ASHADE
 62
     1
100
AcDbBlockReference
  2
AVE_GLOBAL
 10
0.0
 20
0.0
 30
0.0
1001
AVE_MATERIAL
1002
{
1000
*GLOBAL*
1000
1
1000
Global finish.
1002
{
1002
}
1002
{
1070
    63
1002
{
1002
{
1010
-1.0
1020
-1.0
1030
-1.0
1002
}
1040
0.1000000014901161
1000

1040
0.0
1002
{
1002
}
1040
0.0
1002
{
1002
}
1040
0.0
1002
}
1002
{
1002
{
1010
-1.0
1020
-1.0
1030
-1.0
1002
}
1040
0.6999999880790711
1000

1040
0.0
1002
{
1002
}
1040
0.0
1002
{
1002
}
1040
0.0
1002
}
1002
{
1002
{
1010
-1.0
1020
-1.0
1030
-1.0
1002
}
1040
0.2000000029802322
1000

1040
0.0
1002
{
1002
}
1040
0.0
1002
{
1002
}
1040
0.0
1002
}
1002
{
1070
     0
1002
{
1070
     1
1002
{
1040
1.0
1040
1.0
1000

1040
0.0
1002
{
1002
}
1040
0.0
1002
{
1002
}
1040
0.0
1002
}
1002
}
1040
1.0
1040
0.0
1040
0.0
1002
}
1002
{
1040
1.0
1040
1.0
1000

1040
0.0
1002
{
1002
}
1040
0.0
1002
{
1002
}
1040
0.0
1002
}
1002
{
1040
0.5
1040
1.0
1000

1040
0.0
1002
{
1002
}
1040
0.0
1002
{
1002
}
1040
0.0
1002
}
1002
{
1070
     0
1040
0.0
1002
{
1002
}
1040
1.0
1002
{
1002
}
1040
0.0
1002
}
1002
{
1040
0.0
1002
{
1002
{
1010
0.0
1020
0.0
1030
0.0
1002
}
1040
1.0
1000

1040
0.0
1002
{
1002
}
1040
0.0
1002
{
1002
}
1040
0.0
1002
}
1002
}
1002
{
1002
{
1070
     1
1002
{
1040
0.0
1040
1.0
1000

1040
0.0
1002
{
1002
}
1040
0.0
1002
{
1002
}
1040
0.0
1002
}
1002
}
1040
0.0
1002
{
1002
}
1010
1.0
1020
0.0
1030
0.0
1010
0.0
1020
1.0
1030
0.0
1010
0.0
1020
0.0
1030
1.0
1070
     0
1002
}
1002
{
1002
{
1040
1.0
1040
1.0
1002
{
1070
     1
1002
{
1040
1.0
1040
1.0
1000

1040
0.0
1002
{
1002
}
1040
0.0
1002
{
1002
}
1040
0.0
1002
}
1002
}
1002
}
1070
     0
1040
0.0
1002
{
1002
}
1002
}
1002
{
1002
}
1002
}
1002
{
1071
        3
1070
     3
1070
     0
1002
{
1070
     2
1070
     0
1070
     0
1040
0.0
1002
}
1070
     0
1070
     2
1002
{
1002
}
1002
}
1002
{
1040
8030.0
1040
190.3000030517578
1040
0.3050000071525574
1040
228.0
1040
545.0
1040
14.0
1040
17.39999961853027
1040
0.4560000002384186
1002
}
1002
}
  0
ENDSEC
  0
SECTION
  2
OBJECTS
  0
DICTIONARY
  5
7DE1B343D9E050D
330
0
100
AcDbDictionary
  3
ACAD_GROUP
350
7DE1B343D9E050E
  3
ACAD_LAYOUT
350
7DE1B343D9E054E
  3
ACAD_MLINESTYLE
350
7DE1B343D9E050F
  3
ACAD_PLOTSETTINGS
350
7DE1B343D9E054F
  3
ACAD_PLOTSTYLENAME
350
7DE1B343D9E054C
  3
ACDBHEADERROUNDTRIPXREC
350
7DE1B343D9E0559
  3
ACDBVARIABLEDICTIONARY
350
7DE1B343D9E0556
  0
DICTIONARY
  5
7DE1B343D9E057B
330
7DE1B343D9E0519
100
AcDbDictionary
280
     1
  3
ACAD_LAYOUTSELFREF
360
7DE1B343D9E057C
  0
DICTIONARY
  5
7DE1B343D9E0579
330
7DE1B343D9E0516
100
AcDbDictionary
280
     1
  3
ACAD_LAYOUTSELFREF
360
7DE1B343D9E057A
  0
DICTIONARY
  5
7DE1B343D9E050E
102
{ACAD_REACTORS
330
7DE1B343D9E050D
102
}
330
7DE1B343D9E050D
100
AcDbDictionary
  0
DICTIONARY
  5
7DE1B343D9E054E
102
{ACAD_REACTORS
330
7DE1B343D9E050D
102
}
330
7DE1B343D9E050D
100
AcDbDictionary
  0
DICTIONARY
  5
7DE1B343D9E050F
102
{ACAD_REACTORS
330
7DE1B343D9E050D
102
}
330
7DE1B343D9E050D
100
AcDbDictionary
  3
STANDARD
350
7DE1B343D9E051C
  0
DICTIONARY
  5
7DE1B343D9E054F
102
{ACAD_REACTORS
330
7DE1B343D9E050D
102
}
330
7DE1B343D9E050D
100
AcDbDictionary
  0
ACDBDICTIONARYWDFLT
  5
7DE1B343D9E054C
102
{ACAD_REACTORS
330
7DE1B343D9E050D
102
}
330
7DE1B343D9E050D
100
AcDbDictionary
281
     1
  3
Normal
350
7DE1B343D9E054D
100
AcDbDictionaryWithDefault
340
7DE1B343D9E054D
  0
DICTIONARY
  5
7DE1B343D9E0559
102
{ACAD_REACTORS
330
7DE1B343D9E050D
102
}
330
7DE1B343D9E050D
100
AcDbDictionary
  3
CEPSNTYPE
350
7DE1B343D9E0563
  3
FINGERPRINTGUID
350
7DE1B343D9E0564
  3
HYPERLINKBASE
350
7DE1B343D9E055C
  3
INSUNITS
350
7DE1B343D9E0562
  3
LAYOUTDICT
350
7DE1B343D9E055E
  3
LWETCUNION
350
7DE1B343D9E0561
  3
PLOTSETDICT
350
7DE1B343D9E055F
  3
PLOTSTYLNAMDICT
350
7DE1B343D9E0560
  3
PSVPSCALE
350
7DE1B343D9E0566
  3
PUCSBASE
350
7DE1B343D9E0569
  3
PUCSORGBACK
350
7DE1B343D9E056F
  3
PUCSORGBOTTOM
350
7DE1B343D9E056B
  3
PUCSORGFRONT
350
7DE1B343D9E056E
  3
PUCSORGLEFT
350
7DE1B343D9E056C
  3
PUCSORGRIGHT
350
7DE1B343D9E056D
  3
PUCSORGTOP
350
7DE1B343D9E056A
  3
PUCSORTHOREF
350
7DE1B343D9E0567
  3
PUCSORTHOVIEW
350
7DE1B343D9E0568
  3
STYLESHEET
350
7DE1B343D9E055D
  3
TSTACKALIGN
350
7DE1B343D9E055A
  3
TSTACKSIZE
350
7DE1B343D9E055B
  3
UCSBASE
350
7DE1B343D9E0572
  3
UCSORGBACK
350
7DE1B343D9E0578
  3
UCSORGBOTTOM
350
7DE1B343D9E0574
  3
UCSORGFRONT
350
7DE1B343D9E0577
  3
UCSORGLEFT
350
7DE1B343D9E0575
  3
UCSORGRIGHT
350
7DE1B343D9E0576
  3
UCSORGTOP
350
7DE1B343D9E0573
  3
UCSORTHOREF
350
7DE1B343D9E0570
  3
UCSORTHOVIEW
350
7DE1B343D9E0571
  3
VERSIONGUID
350
7DE1B343D9E0565
  0
DICTIONARY
  5
7DE1B343D9E0556
102
{ACAD_REACTORS
330
7DE1B343D9E050D
102
}
330
7DE1B343D9E050D
100
AcDbDictionary
  3
DIMASSOC
350
7DE1B343D9E0557
  0
XRECORD
  5
7DE1B343D9E057C
102
{ACAD_REACTORS
330
7DE1B343D9E057B
102
}
330
7DE1B343D9E057B
100
AcDbXrecord
340
7DE1B343D9E0519
  0
XRECORD
  5
7DE1B343D9E057A
102
{ACAD_REACTORS
330
7DE1B343D9E0579
102
}
330
7DE1B343D9E0579
100
AcDbXrecord
340
7DE1B343D9E0516
  0
MLINESTYLE
  5
7DE1B343D9E051C
102
{ACAD_REACTORS
330
7DE1B343D9E050F
102
}
330
7DE1B343D9E050F
100
AcDbMlineStyle
  2
STANDARD
 70
     0
  3

 62
     0
 51
90.0
 52
90.0
 71
     2
 49
0.5
 62
   256
  6
BYLAYER
 49
-0.5
 62
   256
  6
BYLAYER
  0
ACDBPLACEHOLDER
  5
7DE1B343D9E054D
102
{ACAD_REACTORS
330
7DE1B343D9E054C
102
}
330
7DE1B343D9E054C
100
AcDbPlaceHolder
280
     0
  0
XRECORD
  5
7DE1B343D9E0563
102
{ACAD_REACTORS
330
7DE1B343D9E0559
102
}
330
7DE1B343D9E0559
100
AcDbXrecord
 90
        0
  0
XRECORD
  5
7DE1B343D9E0564
102
{ACAD_REACTORS
330
7DE1B343D9E0559
102
}
330
7DE1B343D9E0559
100
AcDbXrecord
  1
{C49077F0-8DB6-11D6-88E6-0090279574E7}
  0
XRECORD
  5
7DE1B343D9E055C
102
{ACAD_REACTORS
330
7DE1B343D9E0559
102
}
330
7DE1B343D9E0559
100
AcDbXrecord
  1

  0
XRECORD
  5
7DE1B343D9E0562
102
{ACAD_REACTORS
330
7DE1B343D9E0559
102
}
330
7DE1B343D9E0559
100
AcDbXrecord
 90
        0
  0
XRECORD
  5
7DE1B343D9E055E
102
{ACAD_REACTORS
330
7DE1B343D9E0559
102
}
330
7DE1B343D9E0559
100
AcDbXrecord
340
7DE1B343D9E054E
  0
XRECORD
  5
7DE1B343D9E0561
102
{ACAD_REACTORS
330
7DE1B343D9E0559
102
}
330
7DE1B343D9E0559
100
AcDbXrecord
 90
    14877
  0
XRECORD
  5
7DE1B343D9E055F
102
{ACAD_REACTORS
330
7DE1B343D9E0559
102
}
330
7DE1B343D9E0559
100
AcDbXrecord
340
7DE1B343D9E054F
  0
XRECORD
  5
7DE1B343D9E0560
102
{ACAD_REACTORS
330
7DE1B343D9E0559
102
}
330
7DE1B343D9E0559
100
AcDbXrecord
340
7DE1B343D9E054C
  0
XRECORD
  5
7DE1B343D9E0566
102
{ACAD_REACTORS
330
7DE1B343D9E0559
102
}
330
7DE1B343D9E0559
100
AcDbXrecord
 40
0.0
  0
XRECORD
  5
7DE1B343D9E0569
102
{ACAD_REACTORS
330
7DE1B343D9E0559
102
}
330
7DE1B343D9E0559
100
AcDbXrecord
340
0
  0
XRECORD
  5
7DE1B343D9E056F
102
{ACAD_REACTORS
330
7DE1B343D9E0559
102
}
330
7DE1B343D9E0559
100
AcDbXrecord
 10
0.0
 20
0.0
 30
0.0
  0
XRECORD
  5
7DE1B343D9E056B
102
{ACAD_REACTORS
330
7DE1B343D9E0559
102
}
330
7DE1B343D9E0559
100
AcDbXrecord
 10
0.0
 20
0.0
 30
0.0
  0
XRECORD
  5
7DE1B343D9E056E
102
{ACAD_REACTORS
330
7DE1B343D9E0559
102
}
330
7DE1B343D9E0559
100
AcDbXrecord
 10
0.0
 20
0.0
 30
0.0
  0
XRECORD
  5
7DE1B343D9E056C
102
{ACAD_REACTORS
330
7DE1B343D9E0559
102
}
330
7DE1B343D9E0559
100
AcDbXrecord
 10
0.0
 20
0.0
 30
0.0
  0
XRECORD
  5
7DE1B343D9E056D
102
{ACAD_REACTORS
330
7DE1B343D9E0559
102
}
330
7DE1B343D9E0559
100
AcDbXrecord
 10
0.0
 20
0.0
 30
0.0
  0
XRECORD
  5
7DE1B343D9E056A
102
{ACAD_REACTORS
330
7DE1B343D9E0559
102
}
330
7DE1B343D9E0559
100
AcDbXrecord
 10
0.0
 20
0.0
 30
0.0
  0
XRECORD
  5
7DE1B343D9E0567
102
{ACAD_REACTORS
330
7DE1B343D9E0559
102
}
330
7DE1B343D9E0559
100
AcDbXrecord
340
0
  0
XRECORD
  5
7DE1B343D9E0568
102
{ACAD_REACTORS
330
7DE1B343D9E0559
102
}
330
7DE1B343D9E0559
100
AcDbXrecord
 70
     0
  0
XRECORD
  5
7DE1B343D9E055D
102
{ACAD_REACTORS
330
7DE1B343D9E0559
102
}
330
7DE1B343D9E0559
100
AcDbXrecord
  1

  0
XRECORD
  5
7DE1B343D9E055A
102
{ACAD_REACTORS
330
7DE1B343D9E0559
102
}
330
7DE1B343D9E0559
100
AcDbXrecord
 90
        1
  0
XRECORD
  5
7DE1B343D9E055B
102
{ACAD_REACTORS
330
7DE1B343D9E0559
102
}
330
7DE1B343D9E0559
100
AcDbXrecord
 90
       70
  0
XRECORD
  5
7DE1B343D9E0572
102
{ACAD_REACTORS
330
7DE1B343D9E0559
102
}
330
7DE1B343D9E0559
100
AcDbXrecord
340
0
  0
XRECORD
  5
7DE1B343D9E0578
102
{ACAD_REACTORS
330
7DE1B343D9E0559
102
}
330
7DE1B343D9E0559
100
AcDbXrecord
 10
0.0
 20
0.0
 30
0.0
  0
XRECORD
  5
7DE1B343D9E0574
102
{ACAD_REACTORS
330
7DE1B343D9E0559
102
}
330
7DE1B343D9E0559
100
AcDbXrecord
 10
0.0
 20
0.0
 30
0.0
  0
XRECORD
  5
7DE1B343D9E0577
102
{ACAD_REACTORS
330
7DE1B343D9E0559
102
}
330
7DE1B343D9E0559
100
AcDbXrecord
 10
0.0
 20
0.0
 30
0.0
  0
XRECORD
  5
7DE1B343D9E0575
102
{ACAD_REACTORS
330
7DE1B343D9E0559
102
}
330
7DE1B343D9E0559
100
AcDbXrecord
 10
0.0
 20
0.0
 30
0.0
  0
XRECORD
  5
7DE1B343D9E0576
102
{ACAD_REACTORS
330
7DE1B343D9E0559
102
}
330
7DE1B343D9E0559
100
AcDbXrecord
 10
0.0
 20
0.0
 30
0.0
  0
XRECORD
  5
7DE1B343D9E0573
102
{ACAD_REACTORS
330
7DE1B343D9E0559
102
}
330
7DE1B343D9E0559
100
AcDbXrecord
 10
0.0
 20
0.0
 30
0.0
  0
XRECORD
  5
7DE1B343D9E0570
102
{ACAD_REACTORS
330
7DE1B343D9E0559
102
}
330
7DE1B343D9E0559
100
AcDbXrecord
340
0
  0
XRECORD
  5
7DE1B343D9E0571
102
{ACAD_REACTORS
330
7DE1B343D9E0559
102
}
330
7DE1B343D9E0559
100
AcDbXrecord
 70
     0
  0
XRECORD
  5
7DE1B343D9E0565
102
{ACAD_REACTORS
330
7DE1B343D9E0559
102
}
330
7DE1B343D9E0559
100
AcDbXrecord
  1
{C49077F2-8DB6-11D6-88E6-0090279574E7}
  0
DICTIONARYVAR
  5
7DE1B343D9E0557
102
{ACAD_REACTORS
330
7DE1B343D9E0556
102
}
330
7DE1B343D9E0556
100
DictionaryVariables
280
     0
  1
1
  0
ENDSEC
  0
EOF
