  0
SECTION
  2
HEADER
  9
$ACADVER
  1
AC1014
  9
$ACADMAINTVER
 70
     9
  9
$DWGCODEPAGE
  3
ANSI_1252
  9
$INSBASE
 10
1.715919990913987
 20
1.873475150766946
 30
0.0
  9
$EXTMIN
 10
-0.0868807621373161
 20
0.7878313487019364
 30
0.0
  9
$EXTMAX
 10
3.398338559609811
 20
2.002266411503185
 30
0.0
  9
$LIMMIN
 10
0.0
 20
0.0
  9
$LIMMAX
 10
18.0
 20
12.0
  9
$ORTHOMODE
 70
     1
  9
$REGENMODE
 70
     1
  9
$FILLMODE
 70
     1
  9
$QTEXTMODE
 70
     0
  9
$MIRRTEXT
 70
     0
  9
$DRAGMODE
 70
     2
  9
$LTSCALE
 40
1.0
  9
$OSMODE
 70
    39
  9
$ATTMODE
 70
     1
  9
$TEXTSIZE
 40
0.125
  9
$TRACEWID
 40
0.05
  9
$TEXTSTYLE
  7
ROMANS
  9
$CLAYER
  8
0
  9
$CELTYPE
  6
BYLAYER
  9
$CECOLOR
 62
   256
  9
$CELTSCALE
 40
1.0
  9
$DELOBJ
 70
     1
  9
$DISPSILH
 70
     1
  9
$DIMSCALE
 40
1.0
  9
$DIMASZ
 40
0.125
  9
$DIMEXO
 40
0.125
  9
$DIMDLI
 40
0.375
  9
$DIMRND
 40
0.0
  9
$DIMDLE
 40
0.0
  9
$DIMEXE
 40
0.125
  9
$DIMTP
 40
0.0
  9
$DIMTM
 40
0.0
  9
$DIMTXT
 40
0.125
  9
$DIMCEN
 40
-0.125
  9
$DIMTSZ
 40
0.0
  9
$DIMTOL
 70
     0
  9
$DIMLIM
 70
     0
  9
$DIMTIH
 70
     1
  9
$DIMTOH
 70
     1
  9
$DIMSE1
 70
     0
  9
$DIMSE2
 70
     0
  9
$DIMTAD
 70
     0
  9
$DIMZIN
 70
     4
  9
$DIMBLK
  1

  9
$DIMASO
 70
     1
  9
$DIMSHO
 70
     1
  9
$DIMPOST
  1

  9
$DIMAPOST
  1

  9
$DIMALT
 70
     0
  9
$DIMALTD
 70
     2
  9
$DIMALTF
 40
25.4
  9
$DIMLFAC
 40
1.0
  9
$DIMTOFL
 70
     0
  9
$DIMTVP
 40
0.0
  9
$DIMTIX
 70
     1
  9
$DIMSOXD
 70
     0
  9
$DIMSAH
 70
     0
  9
$DIMBLK1
  1

  9
$DIMBLK2
  1

  9
$DIMSTYLE
  2
STANDARD
  9
$DIMCLRD
 70
     0
  9
$DIMCLRE
 70
     0
  9
$DIMCLRT
 70
     0
  9
$DIMTFAC
 40
1.0
  9
$DIMGAP
 40
0.09
  9
$DIMJUST
 70
     0
  9
$DIMSD1
 70
     0
  9
$DIMSD2
 70
     0
  9
$DIMTOLJ
 70
     1
  9
$DIMTZIN
 70
     4
  9
$DIMALTZ
 70
     0
  9
$DIMALTTZ
 70
     0
  9
$DIMFIT
 70
     3
  9
$DIMUPT
 70
     0
  9
$DIMUNIT
 70
     2
  9
$DIMDEC
 70
     3
  9
$DIMTDEC
 70
     3
  9
$DIMALTU
 70
     2
  9
$DIMALTTD
 70
     2
  9
$DIMTXSTY
  7
ROMANS
  9
$DIMAUNIT
 70
     0
  9
$LUNITS
 70
     2
  9
$LUPREC
 70
     3
  9
$SKETCHINC
 40
0.1
  9
$FILLETRAD
 40
0.03125
  9
$AUNITS
 70
     0
  9
$AUPREC
 70
     0
  9
$MENU
  1
ACAD
  9
$ELEVATION
 40
0.0
  9
$PELEVATION
 40
0.0
  9
$THICKNESS
 40
0.0
  9
$LIMCHECK
 70
     0
  9
$BLIPMODE
 70
     0
  9
$CHAMFERA
 40
0.0
  9
$CHAMFERB
 40
0.0
  9
$CHAMFERC
 40
0.0
  9
$CHAMFERD
 40
0.0
  9
$SKPOLY
 70
     0
  9
$TDCREATE
 40
2448994.608633565
  9
$TDUPDATE
 40
2452458.309175682
  9
$TDINDWG
 40
0.0007687037
  9
$TDUSRTIMER
 40
0.0007687037
  9
$USRTIMER
 70
     1
  9
$ANGBASE
 50
0.0
  9
$ANGDIR
 70
     0
  9
$PDMODE
 70
     0
  9
$PDSIZE
 40
0.0
  9
$PLINEWID
 40
0.0
  9
$COORDS
 70
     2
  9
$SPLFRAME
 70
     0
  9
$SPLINETYPE
 70
     6
  9
$SPLINESEGS
 70
     8
  9
$ATTDIA
 70
     0
  9
$ATTREQ
 70
     1
  9
$HANDLING
 70
 22529
  9
$HANDSEED
  5
7DE1B343D9E0017
  9
$SURFTAB1
 70
     6
  9
$SURFTAB2
 70
     6
  9
$SURFTYPE
 70
     6
  9
$SURFU
 70
     6
  9
$SURFV
 70
     6
  9
$UCSNAME
  2

  9
$UCSORG
 10
0.0
 20
0.0
 30
0.0
  9
$UCSXDIR
 10
1.0
 20
0.0
 30
0.0
  9
$UCSYDIR
 10
0.0
 20
1.0
 30
0.0
  9
$PUCSNAME
  2

  9
$PUCSORG
 10
0.0
 20
0.0
 30
0.0
  9
$PUCSXDIR
 10
1.0
 20
0.0
 30
0.0
  9
$PUCSYDIR
 10
0.0
 20
1.0
 30
0.0
  9
$USERI1
 70
     0
  9
$USERI2
 70
     0
  9
$USERI3
 70
     0
  9
$USERI4
 70
     0
  9
$USERI5
 70
     0
  9
$USERR1
 40
0.0
  9
$USERR2
 40
0.0
  9
$USERR3
 40
0.0
  9
$USERR4
 40
0.0
  9
$USERR5
 40
0.0
  9
$WORLDVIEW
 70
     1
  9
$SHADEDGE
 70
     3
  9
$SHADEDIF
 70
    70
  9
$TILEMODE
 70
     1
  9
$MAXACTVP
 70
    16
  9
$PINSBASE
 10
1.349698797759759
 20
50.00000000000001
 30
2.259146337554777
  9
$PLIMCHECK
 70
     0
  9
$PEXTMIN
 10
1.000000000000000E+20
 20
1.000000000000000E+20
 30
1.000000000000000E+20
  9
$PEXTMAX
 10
-1.000000000000000E+20
 20
-1.000000000000000E+20
 30
-1.000000000000000E+20
  9
$PLIMMIN
 10
0.0
 20
0.0
  9
$PLIMMAX
 10
12.0
 20
9.0
  9
$UNITMODE
 70
     0
  9
$VISRETAIN
 70
     0
  9
$PLINEGEN
 70
     1
  9
$PSLTSCALE
 70
     0
  9
$TREEDEPTH
 70
  3020
  9
$PICKSTYLE
 70
     1
  9
$CMLSTYLE
  2
STANDARD
  9
$CMLJUST
 70
     0
  9
$CMLSCALE
 40
1.0
  9
$PROXYGRAPHICS
 70
     1
  9
$MEASUREMENT
 70
     0
  0
ENDSEC
  0
SECTION
  2
CLASSES
  0
CLASS
  1
LWPOLYLINE
  2
AcDbPolyline
  3
AutoCAD 2000
 90
        0
280
     0
281
     1
  0
CLASS
  1
ACDBDICTIONARYWDFLT
  2
AcDbDictionaryWithDefault
  3
AutoCAD 2000
 90
        0
280
     0
281
     0
  0
CLASS
  1
ACDBPLACEHOLDER
  2
AcDbPlaceHolder
  3
AutoCAD 2000
 90
        0
280
     0
281
     0
  0
CLASS
  1
LAYOUT
  2
AcDbLayout
  3
AutoCAD 2000
 90
        0
280
     0
281
     0
  0
CLASS
  1
DICTIONARYVAR
  2
AcDbDictionaryVar
  3
AutoCAD 2000
 90
        0
280
     0
281
     0
  0
CLASS
  1
LONG_TRANSACTION
  2
AcDbLongTransaction
  3
AutoCAD 2000
 90
        0
280
     0
281
     0
  0
CLASS
  1
LWPOLYLINE
  2
AcDbPolyline
  3
AutoCAD 2000
 90
        0
280
     0
281
     1
  0
CLASS
  1
HATCH
  2
AcDbHatch
  3
AutoCAD 2000
 90
        0
280
     0
281
     1
  0
CLASS
  1
XRECORD
  2
AcDbXrecord
  3
AutoCAD 2000
 90
        0
280
     0
281
     0
  0
ENDSEC
  0
SECTION
  2
TABLES
  0
TABLE
  2
VPORT
  5
7DE1B343D9DFFA3
330
0
100
AcDbSymbolTable
 70
     2
  0
VPORT
  5
7DE1B343D9DFFF2
330
7DE1B343D9DFFA3
100
AcDbSymbolTableRecord
100
AcDbViewportTableRecord
  2
*ACTIVE
 70
     0
 10
0.0
 20
0.0
 11
1.0
 21
1.0
 12
4.632662912990413
 22
1.394897483516132
 13
0.0
 23
0.0
 14
0.015625
 24
0.015625
 15
0.0
 25
0.0
 16
0.0
 26
0.0
 36
1.0
 17
0.0
 27
0.0
 37
0.0
 40
2.282824408980548
 41
4.320930232558139
 42
50.0
 43
0.0
 44
0.0
 50
0.0
 51
0.0
 71
     0
 72
  2000
 73
     1
 74
     0
 75
     0
 76
     0
 77
     0
 78
     0
  0
ENDTAB
  0
TABLE
  2
LTYPE
  5
7DE1B343D9DFFA0
330
0
100
AcDbSymbolTable
 70
     1
  0
LTYPE
  5
7DE1B343D9DFFAD
330
7DE1B343D9DFFA0
100
AcDbSymbolTableRecord
100
AcDbLinetypeTableRecord
  2
BYBLOCK
 70
     0
  3

 72
    65
 73
     0
 40
0.0
  0
LTYPE
  5
7DE1B343D9DFFAE
330
7DE1B343D9DFFA0
100
AcDbSymbolTableRecord
100
AcDbLinetypeTableRecord
  2
BYLAYER
 70
     0
  3

 72
    65
 73
     0
 40
0.0
  0
LTYPE
  5
7DE1B343D9DFFAF
330
7DE1B343D9DFFA0
100
AcDbSymbolTableRecord
100
AcDbLinetypeTableRecord
  2
CONTINUOUS
 70
     0
  3
Solid line
 72
    65
 73
     0
 40
0.0
  0
ENDTAB
  0
TABLE
  2
LAYER
  5
7DE1B343D9DFF9D
330
0
100
AcDbSymbolTable
 70
     3
  0
LAYER
  5
7DE1B343D9DFFAA
330
7DE1B343D9DFF9D
100
AcDbSymbolTableRecord
100
AcDbLayerTableRecord
  2
0
 70
     0
 62
     7
  6
CONTINUOUS
  0
LAYER
  5
7DE1B343D9DFFBA
330
7DE1B343D9DFF9D
100
AcDbSymbolTableRecord
100
AcDbLayerTableRecord
  2
TEXT
 70
     0
 62
     3
  6
CONTINUOUS
  0
LAYER
  5
7DE1B343D9DFFCA
330
7DE1B343D9DFF9D
100
AcDbSymbolTableRecord
100
AcDbLayerTableRecord
  2
ASHADE
 70
     4
 62
     7
  6
CONTINUOUS
  0
ENDTAB
  0
TABLE
  2
STYLE
  5
7DE1B343D9DFF9E
330
0
100
AcDbSymbolTable
 70
     4
  0
STYLE
  5
7DE1B343D9DFFAB
330
7DE1B343D9DFF9E
100
AcDbSymbolTableRecord
100
AcDbTextStyleTableRecord
  2
STANDARD
 70
     0
 40
0.0
 41
1.0
 50
0.0
 71
     0
 42
0.3125
  3
txt
  4

  0
STYLE
  5
7DE1B343D9DFFB7
330
7DE1B343D9DFF9E
100
AcDbSymbolTableRecord
100
AcDbTextStyleTableRecord
  2
ITALICC
 70
     0
 40
0.0
 41
1.0
 50
0.0
 71
     0
 42
0.125
  3
italicc
  4

  0
STYLE
  5
7DE1B343D9DFFC7
330
7DE1B343D9DFF9E
100
AcDbSymbolTableRecord
100
AcDbTextStyleTableRecord
  2
ASHADE
 70
     0
 40
0.2
 41
1.0
 50
0.0
 71
     0
 42
0.3125
  3
simplex
  4

  0
STYLE
  5
7DE1B343D9DFFE2
330
7DE1B343D9DFF9E
100
AcDbSymbolTableRecord
100
AcDbTextStyleTableRecord
  2
ROMANS
 70
     0
 40
0.0
 41
1.0
 50
0.0
 71
     0
 42
0.125
  3
romans.shx
  4

  0
ENDTAB
  0
TABLE
  2
VIEW
  5
7DE1B343D9DFFA1
330
0
100
AcDbSymbolTable
 70
     0
  0
ENDTAB
  0
TABLE
  2
UCS
  5
7DE1B343D9DFFA2
330
0
100
AcDbSymbolTable
 70
     0
  0
ENDTAB
  0
TABLE
  2
APPID
  5
7DE1B343D9DFFA4
330
0
100
AcDbSymbolTable
 70
     6
  0
APPID
  5
7DE1B343D9DFFAC
330
7DE1B343D9DFFA4
100
AcDbSymbolTableRecord
100
AcDbRegAppTableRecord
  2
ACAD
 70
     0
  0
APPID
  5
7DE1B343D9DFFC8
330
7DE1B343D9DFFA4
100
AcDbSymbolTableRecord
100
AcDbRegAppTableRecord
  2
AVE_RENDER
 70
     0
  0
APPID
  5
7DE1B343D9DFFC9
330
7DE1B343D9DFFA4
100
AcDbSymbolTableRecord
100
AcDbRegAppTableRecord
  2
AVE_ENTITY_MATERIAL
 70
     0
  0
APPID
  5
7DE1B343D9DFFD6
330
7DE1B343D9DFFA4
100
AcDbSymbolTableRecord
100
AcDbRegAppTableRecord
  2
AVE_FINISH
 70
     0
  0
APPID
  5
7DE1B343D9DFFD7
330
7DE1B343D9DFFA4
100
AcDbSymbolTableRecord
100
AcDbRegAppTableRecord
  2
AVE_MATERIAL
 70
     0
  0
APPID
  5
7DE1B343D9DFFD8
330
7DE1B343D9DFFA4
100
AcDbSymbolTableRecord
100
AcDbRegAppTableRecord
  2
AVE_GLOBAL
 70
     0
  0
ENDTAB
  0
TABLE
  2
DIMSTYLE
  5
7DE1B343D9DFFA5
330
0
100
AcDbSymbolTable
 70
     1
  0
DIMSTYLE
105
7DE1B343D9DFFBF
330
7DE1B343D9DFFA5
100
AcDbSymbolTableRecord
100
AcDbDimStyleTableRecord
  2
STANDARD
 70
     0
  3

  4

  5

  6

  7

 40
1.0
 41
0.125
 42
0.125
 43
0.375
 44
0.125
 45
0.0
 46
0.0
 47
0.0
 48
0.0
140
0.125
141
-0.125
142
0.0
143
25.4
144
1.0
145
0.0
146
1.0
147
0.09
 71
     0
 72
     0
 73
     1
 74
     1
 75
     0
 76
     0
 77
     0
 78
     4
170
     0
171
     2
172
     0
173
     0
174
     1
175
     0
176
     0
177
     0
178
     0
270
     2
271
     3
272
     3
273
     2
274
     2
340
7DE1B343D9DFFE2
275
     0
280
     0
281
     0
282
     0
283
     1
284
     4
285
     0
286
     0
287
     3
288
     0
  0
ENDTAB
  0
TABLE
  2
BLOCK_RECORD
  5
7DE1B343D9DFF9C
330
0
100
AcDbSymbolTable
 70
     2
  0
BLOCK_RECORD
  5
7DE1B343D9DFFB3
102
{ACAD_XDICTIONARY
360
7DE1B343D9E0015
102
}
330
7DE1B343D9DFF9C
100
AcDbSymbolTableRecord
100
AcDbBlockTableRecord
  2
*MODEL_SPACE
  0
BLOCK_RECORD
  5
7DE1B343D9DFFB0
102
{ACAD_XDICTIONARY
360
7DE1B343D9E0013
102
}
330
7DE1B343D9DFF9C
100
AcDbSymbolTableRecord
100
AcDbBlockTableRecord
  2
*PAPER_SPACE
  0
BLOCK_RECORD
  5
7DE1B343D9DFFCB
330
7DE1B343D9DFF9C
100
AcDbSymbolTableRecord
100
AcDbBlockTableRecord
  2
AVE_RENDER
  0
BLOCK_RECORD
  5
7DE1B343D9DFFD9
330
7DE1B343D9DFF9C
100
AcDbSymbolTableRecord
100
AcDbBlockTableRecord
  2
AVE_GLOBAL
  0
ENDTAB
  0
ENDSEC
  0
SECTION
  2
BLOCKS
  0
BLOCK
  5
7DE1B343D9DFFBD
330
7DE1B343D9DFFB3
100
AcDbEntity
  8
0
100
AcDbBlockBegin
  2
*MODEL_SPACE
 70
     0
 10
0.0
 20
0.0
 30
0.0
  3
*MODEL_SPACE
  1

  0
ENDBLK
  5
7DE1B343D9DFFBE
330
7DE1B343D9DFFB3
100
AcDbEntity
  8
0
100
AcDbBlockEnd
  0
BLOCK
  5
7DE1B343D9DFFBB
330
7DE1B343D9DFFB0
100
AcDbEntity
 67
     1
  8
0
100
AcDbBlockBegin
  2
*PAPER_SPACE
 70
     0
 10
0.0
 20
0.0
 30
0.0
  3
*PAPER_SPACE
  1

  0
ENDBLK
  5
7DE1B343D9DFFBC
330
7DE1B343D9DFFB0
100
AcDbEntity
 67
     1
  8
0
100
AcDbBlockEnd
  0
BLOCK
  5
7DE1B343D9DFFCC
330
7DE1B343D9DFFCB
100
AcDbEntity
  8
0
100
AcDbBlockBegin
  2
AVE_RENDER
 70
     0
 10
0.0
 20
0.0
 30
0.0
  3
AVE_RENDER
  1
AVE_RENDER
  0
ENDBLK
  5
7DE1B343D9DFFCD
330
7DE1B343D9DFFCB
100
AcDbEntity
  8
0
100
AcDbBlockEnd
  0
BLOCK
  5
7DE1B343D9DFFDA
330
7DE1B343D9DFFD9
100
AcDbEntity
  8
0
100
AcDbBlockBegin
  2
AVE_GLOBAL
 70
     0
 10
0.0
 20
0.0
 30
0.0
  3
AVE_GLOBAL
  1
AVE_GLOBAL
  0
ENDBLK
  5
7DE1B343D9DFFDB
330
7DE1B343D9DFFD9
100
AcDbEntity
  8
0
100
AcDbBlockEnd
  0
ENDSEC
  0
SECTION
  2
ENTITIES
  0
LWPOLYLINE
  5
7DE1B343D9DEBD0
330
7DE1B343D9DFFB3
100
AcDbEntity
  8
0
100
AcDbPolyline
 90
       50
 70
     0
 43
0.0
 10
2.966085033858944
 20
1.564766411503185
 10
2.752169425683296
 20
1.564766411503185
 10
2.716085033858944
 20
1.627266411503185
 10
2.966085033858944
 20
1.627266411503185
 10
2.966085033858944
 20
1.910086803118628
 10
2.936405425474387
 20
1.939766411503185
 10
2.605057120771024
 20
1.939766411503185
 10
2.538765860034785
 20
1.873475150766946
 10
2.325377512386467
 20
1.873475150766946
 10
2.299489164738148
 20
1.873475150766946
 10
2.233197904001909
 20
1.939766411503185
 10
1.901849599298548
 20
1.939766411503185
 10
1.835558338562308
 20
1.873475150766946
 10
1.715919990913987
 20
1.873475150766946
 10
1.596281643265666
 20
1.873475150766946
 10
1.529990382529427
 20
1.939766411503185
 10
1.198642077826066
 20
1.939766411503185
 10
1.132350817089826
 20
1.873475150766946
 10
1.106462469441507
 20
1.873475150766946
 10
0.8930741217931901
 20
1.873475150766946
 10
0.8267828610569507
 20
1.939766411503185
 10
0.4954345563535876
 20
1.939766411503185
 10
0.4657549479690309
 20
1.910086803118628
 10
0.4657549479690309
 20
1.627266411503185
 10
0.7157549479690309
 20
1.627266411503185
 10
0.6796705561446795
 20
1.564766411503185
 10
0.4657549479690309
 20
1.564766411503185
 10
0.4657549479690309
 20
1.53351641336583
 42
-1.000000035070679
 10
0.4032549479690309
 20
1.533516411832458
 10
0.4032549479690309
 20
1.935975150766946
 10
0.4695462087052685
 20
2.002266411503185
 10
0.8526712087052699
 20
2.002266411503185
 10
0.9189624694415075
 20
1.935975150766946
 10
1.106462469441507
 20
1.935975150766946
 10
1.172753730177746
 20
2.002266411503185
 10
1.555878730177746
 20
2.002266411503185
 10
1.622169990913985
 20
1.935975150766946
 10
1.715919990913985
 20
1.935975150766946
 10
1.809669990913989
 20
1.935975150766946
 10
1.875961251650228
 20
2.002266411503185
 10
2.259086251650228
 20
2.002266411503185
 10
2.325377512386467
 20
1.935975150766946
 10
2.512877512386467
 20
1.935975150766946
 10
2.579168773122705
 20
2.002266411503185
 10
2.962293773122707
 20
2.002266411503185
 10
3.028585033858944
 20
1.935975150766946
 10
3.028585033858944
 20
1.533516411832458
 42
-1.000000035070679
 10
2.966085033858944
 20
1.53351641336583
 10
2.966085033858944
 20
1.564766411503185
 10
2.966085033858944
 20
1.533516411503185
  0
TEXT
  5
7DE1B343D9DFE5E
330
7DE1B343D9DFFB3
100
AcDbEntity
  8
TEXT
100
AcDbText
 10
0.9150293885183986
 20
1.245849952784517
 30
0.0
 40
0.125
  1
PART #110381
  7
ITALICC
 72
     1
 11
1.656100817089827
 21
1.245849952784517
 31
0.0
100
AcDbText
  0
TEXT
  5
7DE1B343D9DFE5F
330
7DE1B343D9DFFB3
100
AcDbEntity
  8
TEXT
100
AcDbText
 10
2.069405975340147
 20
0.7989273101121429
 30
0.0
 40
0.0522247191011236
  1
Phone  1-800-328-2495
 41
1.272321428571429
 72
     5
 11
3.398338559609811
 21
0.7989273101121429
 31
0.0
100
AcDbText
  0
TEXT
  5
7DE1B343D9DFE60
330
7DE1B343D9DFFB3
100
AcDbEntity
  8
TEXT
100
AcDbText
 10
2.069405975340147
 20
1.078702591011019
 30
0.0
 40
0.0522247191011236
  1
Stylmark  Incorporated
 41
1.221428571428573
 72
     5
 11
3.398338559609811
 21
1.078702591011019
 31
0.0
100
AcDbText
  0
TEXT
  5
7DE1B343D9DFE61
330
7DE1B343D9DFFB3
100
AcDbEntity
  8
TEXT
100
AcDbText
 10
2.069405975340147
 20
0.9854441640447271
 30
0.0
 40
0.0522247191011236
  1
6536 Main St. N.E. * P.O. Box 32008
 41
0.8388932496075366
 72
     5
 11
3.398338559609811
 21
0.9854441640447271
 31
0.0
100
AcDbText
  0
TEXT
  5
7DE1B343D9DFE62
330
7DE1B343D9DFFB3
100
AcDbEntity
  8
TEXT
100
AcDbText
 10
2.069405975340147
 20
0.892185737078435
 30
0.0
 40
0.0522247191011236
  1
Minneapolis, MN 55432-0008
 41
1.11444212721585
 72
     5
 11
3.398338559609811
 21
0.892185737078435
 31
0.0
100
AcDbText
  0
LWPOLYLINE
  5
7DE1B343D9DFE63
330
7DE1B343D9DFFB3
100
AcDbEntity
  8
TEXT
100
AcDbPolyline
 90
        3
 70
     0
 43
0.0006660908203125
 10
-0.0865477167271598
 20
0.9125720727495776
 10
-0.0865477167271598
 20
0.7993366332964501
 10
0.0266877227259625
 20
0.7993366332964501
  0
LWPOLYLINE
  5
7DE1B343D9DFE68
330
7DE1B343D9DFFB3
100
AcDbEntity
  8
TEXT
100
AcDbPolyline
 90
        3
 70
     0
 43
0.0006660908203125
 10
-0.0599040839146623
 20
0.9125720727495776
 10
-0.0599040839146623
 20
0.825980266108951
 10
0.0266877227259625
 20
0.825980266108951
  0
LWPOLYLINE
  5
7DE1B343D9DFE6D
330
7DE1B343D9DFFB3
100
AcDbEntity
  8
TEXT
100
AcDbPolyline
 90
        2
 70
     0
 43
0.0001332181640625
 10
-0.0132777264927855
 20
0.9225634350542629
 10
-0.0865477167271598
 20
0.9125720727495776
  0
LWPOLYLINE
  5
7DE1B343D9DFE71
330
7DE1B343D9DFFB3
100
AcDbEntity
  8
TEXT
100
AcDbPolyline
 90
        2
 70
     0
 43
0.0001332181640625
 10
-0.0599040839146623
 20
0.9125720727495776
 10
0.0000440899134651
 20
0.9225634350542629
  0
LWPOLYLINE
  5
7DE1B343D9DFE75
330
7DE1B343D9DFFB3
100
AcDbEntity
  8
TEXT
100
AcDbPolyline
 90
        2
 70
     0
 43
0.0001332181640625
 10
-0.0599040839146623
 20
0.825980266108951
 10
0.0000440899134651
 20
0.8859284399370766
  0
LWPOLYLINE
  5
7DE1B343D9DFE79
330
7DE1B343D9DFFB3
100
AcDbEntity
  8
TEXT
100
AcDbPolyline
 90
        3
 70
     0
 43
0.0006660908203125
 10
0.0266877227259625
 20
1.065772961421453
 10
-0.0865477167271598
 20
1.065772961421453
 10
-0.0865477167271598
 20
0.9525375219683256
  0
LWPOLYLINE
  5
7DE1B343D9DFE7E
330
7DE1B343D9DFFB3
100
AcDbEntity
  8
TEXT
100
AcDbPolyline
 90
        3
 70
     0
 43
0.0006660908203125
 10
0.0266877227259625
 20
1.039129328608952
 10
-0.0599040839146623
 20
1.039129328608952
 10
-0.0599040839146623
 20
0.9525375219683256
  0
LWPOLYLINE
  5
7DE1B343D9DFE83
330
7DE1B343D9DFFB3
100
AcDbEntity
  8
TEXT
100
AcDbPolyline
 90
        2
 70
     0
 43
0.0001332181640625
 10
-0.0599040839146623
 20
1.039129328608952
 10
0.0000440899134633
 20
0.9791811547808267
  0
LWPOLYLINE
  5
7DE1B343D9DFE87
330
7DE1B343D9DFFB3
100
AcDbEntity
  8
TEXT
100
AcDbPolyline
 90
        2
 70
     0
 43
0.0001332181640625
 10
-0.0599040839146623
 20
0.9525375219683256
 10
0.0000440899134633
 20
0.9425461596636369
  0
LWPOLYLINE
  5
7DE1B343D9DFE8B
330
7DE1B343D9DFFB3
100
AcDbEntity
  8
TEXT
100
AcDbPolyline
 90
        2
 70
     0
 43
0.0001332181640625
 10
-0.0865477167271598
 20
0.9525375219683256
 10
-0.0132777264927855
 20
0.9425461596636369
  0
LWPOLYLINE
  5
7DE1B343D9DFE8F
330
7DE1B343D9DFFB3
100
AcDbEntity
  8
TEXT
100
AcDbPolyline
 90
        2
 70
     0
 43
0.0006660908203125
 10
-0.0599040839146623
 20
0.9125720727495776
 10
-0.0865477167271598
 20
0.9125720727495776
  0
LWPOLYLINE
  5
7DE1B343D9DFE93
330
7DE1B343D9DFFB3
100
AcDbEntity
  8
TEXT
100
AcDbPolyline
 90
        2
 70
     0
 43
0.0006660908203125
 10
-0.0599040839146623
 20
0.9525375219683256
 10
-0.0865477167271598
 20
0.9525375219683256
  0
LINE
  5
7DE1B343D9DFE97
330
7DE1B343D9DFFB3
100
AcDbEntity
  8
TEXT
100
AcDbLine
 10
1.428642712399337
 20
1.001496266764684
 30
0.0
 11
1.321436439012048
 21
1.001496266764684
 31
0.0
  0
LINE
  5
7DE1B343D9DFE98
330
7DE1B343D9DFFB3
100
AcDbEntity
  8
TEXT
100
AcDbLine
 10
1.457673610743816
 20
1.065772961421449
 30
0.0
 11
1.322841701526757
 21
1.065772961421449
 31
0.0
  0
ARC
  5
7DE1B343D9DFE99
330
7DE1B343D9DFFB3
100
AcDbEntity
  8
TEXT
100
AcDbCircle
 10
1.382155797920074
 20
0.8965357121584334
 30
0.0
 40
0.0676855811441166
100
AcDbArc
 50
90.0
 51
153.7768192527749
  0
LWPOLYLINE
  5
7DE1B343D9DFE9A
330
7DE1B343D9DFFB3
100
AcDbEntity
  8
TEXT
100
AcDbPolyline
 90
        2
 70
     0
 43
0.0
 10
1.320403943557238
 20
0.8427908733833769
 42
0.2901071551932823
 10
1.363479876424873
 20
0.7992999284329388
 42
5.328517124445801
  0
ARC
  5
7DE1B343D9DFE9E
330
7DE1B343D9DFFB3
100
AcDbEntity
  8
TEXT
100
AcDbCircle
 10
0.6770244202485883
 20
0.8590923197709885
 30
0.0
 40
0.0601160179737537
100
AcDbArc
 50
180.0000000000003
 51
264.0521544866073
  0
LINE
  5
7DE1B343D9DFE9F
330
7DE1B343D9DFFB3
100
AcDbEntity
  8
TEXT
100
AcDbLine
 10
0.6805397758741361
 20
1.100160879015587
 30
0.0
 11
0.6204971710301291
 21
1.100160879015587
 31
0.0
  0
ARC
  5
7DE1B343D9DFEA0
330
7DE1B343D9DFFB3
100
AcDbEntity
  8
TEXT
100
AcDbCircle
 10
0.4447654181316177
 20
0.983685501974948
 30
0.0
 40
0.0820874594465043
100
AcDbArc
 50
90.0
 51
270.0
  0
LWPOLYLINE
  5
7DE1B343D9DFEA1
330
7DE1B343D9DFFB3
100
AcDbEntity
  8
TEXT
100
AcDbPolyline
 90
        2
 70
     0
 43
0.0001332181640625
 10
0.0366790850306531
 20
0.9925029711870736
 10
0.0266877227259625
 20
1.065772961421453
  0
LWPOLYLINE
  5
7DE1B343D9DFEA5
330
7DE1B343D9DFFB3
100
AcDbEntity
  8
TEXT
100
AcDbPolyline
 90
        2
 70
     0
 43
0.0001332181640625
 10
0.0266877227259625
 20
1.039129328608952
 10
0.0366790850306531
 20
0.9791811547808267
  0
LWPOLYLINE
  5
7DE1B343D9DFEA9
330
7DE1B343D9DFFB3
100
AcDbEntity
  8
TEXT
100
AcDbPolyline
 90
        3
 70
     0
 43
0.0006660908203125
 10
0.17988861139784
 20
0.9525375219683256
 10
0.17988861139784
 20
1.065772961421453
 10
0.0666531719447141
 20
1.065772961421453
  0
LWPOLYLINE
  5
7DE1B343D9DFEAE
330
7DE1B343D9DFFB3
100
AcDbEntity
  8
TEXT
100
AcDbPolyline
 90
        3
 70
     0
 43
0.0006660908203125
 10
0.1532449785853389
 20
0.9525375219683256
 10
0.1532449785853389
 20
1.039129328608952
 10
0.0666531719447141
 20
1.039129328608952
  0
LWPOLYLINE
  5
7DE1B343D9DFEB3
330
7DE1B343D9DFFB3
100
AcDbEntity
  8
TEXT
100
AcDbPolyline
 90
        2
 70
     0
 43
0.0001332181640625
 10
0.1532449785853389
 20
1.039129328608952
 10
0.0932968047572152
 20
0.9791811547808267
  0
LWPOLYLINE
  5
7DE1B343D9DFEB7
330
7DE1B343D9DFFB3
100
AcDbEntity
  8
TEXT
100
AcDbPolyline
 90
        2
 70
     0
 43
0.0001332181640625
 10
0.0666531719447141
 20
1.039129328608952
 10
0.0566618096400253
 20
0.9791811547808267
  0
LWPOLYLINE
  5
7DE1B343D9DFEBB
330
7DE1B343D9DFFB3
100
AcDbEntity
  8
TEXT
100
AcDbPolyline
 90
        2
 70
     0
 43
0.0001332181640625
 10
0.0666531719447141
 20
1.065772961421453
 10
0.0566618096400253
 20
0.9925029711870736
  0
LWPOLYLINE
  5
7DE1B343D9DFEBF
330
7DE1B343D9DFFB3
100
AcDbEntity
  8
TEXT
100
AcDbPolyline
 90
        2
 70
     0
 43
0.0001332181640625
 10
0.1066186211634639
 20
0.9425461596636369
 10
0.17988861139784
 20
0.9525375219683256
  0
LWPOLYLINE
  5
7DE1B343D9DFEC3
330
7DE1B343D9DFFB3
100
AcDbEntity
  8
TEXT
100
AcDbPolyline
 90
        2
 70
     0
 43
0.0001332181640625
 10
0.1532449785853389
 20
0.9525375219683256
 10
0.0932968047572152
 20
0.9425461596636369
  0
LWPOLYLINE
  5
7DE1B343D9DFEC7
330
7DE1B343D9DFFB3
100
AcDbEntity
  8
TEXT
100
AcDbPolyline
 90
        2
 70
     0
 43
0.0001332181640625
 10
0.17988861139784
 20
0.9125720727495776
 10
0.1066186211634639
 20
0.9225634350542629
  0
LWPOLYLINE
  5
7DE1B343D9DFECB
330
7DE1B343D9DFFB3
100
AcDbEntity
  8
TEXT
100
AcDbPolyline
 90
        2
 70
     0
 43
0.0001332181640625
 10
0.1532449785853389
 20
0.9125720727495776
 10
0.0932968047572152
 20
0.9225634350542629
  0
LWPOLYLINE
  5
7DE1B343D9DFECF
330
7DE1B343D9DFFB3
100
AcDbEntity
  8
TEXT
100
AcDbPolyline
 90
        2
 70
     0
 43
0.0001332181640625
 10
0.1532449785853389
 20
0.825980266108951
 10
0.0932968047572152
 20
0.8859284399370766
  0
LWPOLYLINE
  5
7DE1B343D9DFED3
330
7DE1B343D9DFFB3
100
AcDbEntity
  8
TEXT
100
AcDbPolyline
 90
        3
 70
     0
 43
0.0006660908203125
 10
0.0666531719447141
 20
0.825980266108951
 10
0.1532449785853389
 20
0.825980266108951
 10
0.1532449785853389
 20
0.9125720727495776
  0
LWPOLYLINE
  5
7DE1B343D9DFED8
330
7DE1B343D9DFFB3
100
AcDbEntity
  8
TEXT
100
AcDbPolyline
 90
        3
 70
     0
 43
0.0006660908203125
 10
0.0666531719447141
 20
0.7993366332964501
 10
0.17988861139784
 20
0.7993366332964501
 10
0.17988861139784
 20
0.9125720727495776
  0
LWPOLYLINE
  5
7DE1B343D9DFEDD
330
7DE1B343D9DFFB3
100
AcDbEntity
  8
TEXT
100
AcDbPolyline
 90
        5
 70
     0
 43
0.0001332181640625
 10
0.0366790850306531
 20
0.8726066235308261
 10
0.0366790850306531
 20
0.8859284399370766
 10
0.0000440899134651
 20
0.8859284399370766
 10
0.0000440899134651
 20
0.9225634350542629
 10
-0.0132777264927855
 20
0.9225634350542629
  0
LWPOLYLINE
  5
7DE1B343D9DFEE4
330
7DE1B343D9DFFB3
100
AcDbEntity
  8
TEXT
100
AcDbPolyline
 90
        2
 70
     0
 43
0.0006660908203125
 10
0.0266877227259625
 20
0.825980266108951
 10
0.0266877227259625
 20
0.7993366332964501
  0
LWPOLYLINE
  5
7DE1B343D9DFEE8
330
7DE1B343D9DFFB3
100
AcDbEntity
  8
TEXT
100
AcDbPolyline
 90
        2
 70
     0
 43
0.0001332181640625
 10
0.0266877227259625
 20
0.825980266108951
 10
0.0366790850306531
 20
0.8859284399370766
  0
LWPOLYLINE
  5
7DE1B343D9DFEEC
330
7DE1B343D9DFFB3
100
AcDbEntity
  8
TEXT
100
AcDbPolyline
 90
        2
 70
     0
 43
0.0001332181640625
 10
0.0266877227259625
 20
0.7993366332964501
 10
0.0366790850306531
 20
0.8726066235308261
  0
LWPOLYLINE
  5
7DE1B343D9DFEF0
330
7DE1B343D9DFFB3
100
AcDbEntity
  8
TEXT
100
AcDbPolyline
 90
        5
 70
     0
 43
0.0001332181640625
 10
-0.0132777264927855
 20
0.9425461596636369
 10
0.0000440899134633
 20
0.9425461596636369
 10
0.0000440899134633
 20
0.9791811547808267
 10
0.0366790850306531
 20
0.9791811547808267
 10
0.0366790850306531
 20
0.9925029711870736
  0
LWPOLYLINE
  5
7DE1B343D9DFEF7
330
7DE1B343D9DFFB3
100
AcDbEntity
  8
TEXT
100
AcDbPolyline
 90
        5
 70
     0
 43
0.0001332181640625
 10
0.0566618096400253
 20
0.9925029711870736
 10
0.0566618096400253
 20
0.9791811547808267
 10
0.0932968047572152
 20
0.9791811547808267
 10
0.0932968047572152
 20
0.9425461596636369
 10
0.1066186211634639
 20
0.9425461596636369
  0
LWPOLYLINE
  5
7DE1B343D9DFEFE
330
7DE1B343D9DFFB3
100
AcDbEntity
  8
TEXT
100
AcDbPolyline
 90
        2
 70
     0
 43
0.0001332181640625
 10
0.0666531719447141
 20
0.825980266108951
 10
0.0566618096400253
 20
0.8859284399370766
  0
LWPOLYLINE
  5
7DE1B343D9DFF02
330
7DE1B343D9DFFB3
100
AcDbEntity
  8
TEXT
100
AcDbPolyline
 90
        2
 70
     0
 43
0.0001332181640625
 10
0.0566618096400253
 20
0.8726066235308261
 10
0.0666531719447141
 20
0.7993366332964501
  0
LWPOLYLINE
  5
7DE1B343D9DFF06
330
7DE1B343D9DFFB3
100
AcDbEntity
  8
TEXT
100
AcDbPolyline
 90
        2
 70
     0
 43
0.0006660908203125
 10
0.0666531719447141
 20
0.825980266108951
 10
0.0666531719447141
 20
0.7993366332964501
  0
LWPOLYLINE
  5
7DE1B343D9DFF0A
330
7DE1B343D9DFFB3
100
AcDbEntity
  8
TEXT
100
AcDbPolyline
 90
        5
 70
     0
 43
0.0001332181640625
 10
0.1066186211634639
 20
0.9225634350542629
 10
0.0932968047572152
 20
0.9225634350542629
 10
0.0932968047572152
 20
0.8859284399370766
 10
0.0566618096400253
 20
0.8859284399370766
 10
0.0566618096400253
 20
0.8726066235308261
  0
LWPOLYLINE
  5
7DE1B343D9DFF11
330
7DE1B343D9DFFB3
100
AcDbEntity
  8
TEXT
100
AcDbPolyline
 90
        2
 70
     0
 43
0.0006660908203125
 10
0.1532449785853389
 20
0.9525375219683256
 10
0.17988861139784
 20
0.9525375219683256
  0
LWPOLYLINE
  5
7DE1B343D9DFF15
330
7DE1B343D9DFFB3
100
AcDbEntity
  8
TEXT
100
AcDbPolyline
 90
        2
 70
     0
 43
0.0006660908203125
 10
0.1532449785853389
 20
0.9125720727495776
 10
0.17988861139784
 20
0.9125720727495776
  0
LINE
  5
7DE1B343D9DFF19
330
7DE1B343D9DFFB3
100
AcDbEntity
  8
TEXT
100
AcDbLine
 10
0.4500027482458649
 20
1.001496266764684
 30
0.0
 11
0.6169084022748362
 21
1.001496266764684
 31
0.0
  0
LINE
  5
7DE1B343D9DFF1A
330
7DE1B343D9DFFB3
100
AcDbEntity
  8
TEXT
100
AcDbLine
 10
0.5156028844901659
 20
0.9656915451540564
 30
0.0
 11
0.4500027482458649
 21
0.9656915451540564
 31
0.0
  0
LINE
  5
7DE1B343D9DFF1B
330
7DE1B343D9DFFB3
100
AcDbEntity
  8
TEXT
100
AcDbLine
 10
0.3626779586851132
 20
0.7992999284329388
 30
0.0
 11
0.5156028844901659
 21
0.7992999284329388
 31
0.0
  0
LINE
  5
7DE1B343D9DFF1C
330
7DE1B343D9DFFB3
100
AcDbEntity
  8
TEXT
100
AcDbLine
 10
0.5205432583964456
 20
0.8676569347663781
 30
0.0
 11
0.3626779586851114
 21
0.8676569347663781
 31
0.0
  0
LINE
  5
7DE1B343D9DFF1D
330
7DE1B343D9DFFB3
100
AcDbEntity
  8
TEXT
100
AcDbLine
 10
0.4447654181316168
 20
0.9015980425284427
 30
0.0
 11
0.5205432583964456
 21
0.9015980425284427
 31
0.0
  0
ARC
  5
7DE1B343D9DFF1E
330
7DE1B343D9DFFB3
100
AcDbEntity
  8
TEXT
100
AcDbCircle
 10
0.4500027482458658
 20
0.9835939059593721
 30
0.0
 40
0.017902360805315
100
AcDbArc
 50
90.0
 51
270.0
  0
LINE
  5
7DE1B343D9DFF1F
330
7DE1B343D9DFFB3
100
AcDbEntity
  8
TEXT
100
AcDbLine
 10
0.3626779586851114
 20
0.8676569347663781
 30
0.0
 11
0.3626779586851132
 21
0.7992999284329388
 31
0.0
  0
LINE
  5
7DE1B343D9DFF20
330
7DE1B343D9DFFB3
100
AcDbEntity
  8
TEXT
100
AcDbLine
 10
0.6169084022748362
 20
1.001496266764684
 30
0.0
 11
0.6169084022748362
 21
0.8590923197709885
 31
0.0
  0
ARC
  5
7DE1B343D9DFF21
330
7DE1B343D9DFFB3
100
AcDbEntity
  8
TEXT
100
AcDbCircle
 10
0.5156028844901668
 20
0.8824957367934958
 30
0.0
 40
0.0831958083605586
100
AcDbArc
 50
270.0
 51
90.0
  0
ARC
  5
7DE1B343D9DFF22
330
7DE1B343D9DFFB3
100
AcDbEntity
  8
TEXT
100
AcDbCircle
 10
0.5205432583964465
 20
0.8846274886474121
 30
0.0
 40
0.0169705538810321
100
AcDbArc
 50
270.0
 51
90.0
  0
LWPOLYLINE
  5
7DE1B343D9DFF23
330
7DE1B343D9DFFB3
100
AcDbEntity
  8
TEXT
100
AcDbPolyline
 90
        2
 70
     0
 43
0.0006660908203125
 10
0.0266877227259625
 20
1.039129328608952
 10
0.0266877227259625
 20
1.065772961421453
  0
LWPOLYLINE
  5
7DE1B343D9DFF27
330
7DE1B343D9DFFB3
100
AcDbEntity
  8
TEXT
100
AcDbPolyline
 90
        2
 70
     0
 43
0.0006660908203125
 10
0.0666531719447141
 20
1.039129328608952
 10
0.0666531719447141
 20
1.065772961421453
  0
LINE
  5
7DE1B343D9DFF2B
330
7DE1B343D9DFFB3
100
AcDbEntity
  8
TEXT
100
AcDbLine
 10
0.6204971710301291
 20
1.065772961421449
 30
0.0
 11
0.4447654181316168
 21
1.065772961421449
 31
0.0
  0
LINE
  5
7DE1B343D9DFF2C
330
7DE1B343D9DFFB3
100
AcDbEntity
  8
TEXT
100
AcDbLine
 10
0.6204971710301291
 20
1.100160879015587
 30
0.0
 11
0.6204971710301291
 21
1.065772961421449
 31
0.0
  0
LINE
  5
7DE1B343D9DFF2D
330
7DE1B343D9DFFB3
100
AcDbEntity
  8
TEXT
100
AcDbLine
 10
0.8109690630499812
 20
0.9649009653083291
 30
0.0
 11
0.7523387420180434
 21
1.065772961421449
 31
0.0
  0
LINE
  5
7DE1B343D9DFF2E
330
7DE1B343D9DFFB3
100
AcDbEntity
  8
TEXT
100
AcDbLine
 10
0.8697176258558467
 20
1.065772961421449
 30
0.0
 11
0.8109690630499812
 21
0.9649009653083291
 31
0.0
  0
LINE
  5
7DE1B343D9DFF2F
330
7DE1B343D9DFFB3
100
AcDbEntity
  8
TEXT
100
AcDbLine
 10
0.966648251215588
 20
0.8816877665359379
 30
0.0
 11
0.966648251215588
 21
1.13378443916026
 31
0.0
  0
LINE
  5
7DE1B343D9DFF30
330
7DE1B343D9DFFB3
100
AcDbEntity
  8
TEXT
100
AcDbLine
 10
0.9989601053532481
 20
1.065772961421449
 30
0.0
 11
0.9989601053532481
 21
0.8649087546890415
 31
0.0
  0
LINE
  5
7DE1B343D9DFF31
330
7DE1B343D9DFFB3
100
AcDbEntity
  8
TEXT
100
AcDbLine
 10
0.9989601053532481
 20
0.8649087546890415
 30
0.0
 11
0.9819664684686468
 21
0.8649087546890415
 31
0.0
  0
LINE
  5
7DE1B343D9DFF32
330
7DE1B343D9DFFB3
100
AcDbEntity
  8
TEXT
100
AcDbLine
 10
0.9677878247117828
 20
0.7992999284329388
 30
0.0
 11
1.065791158411217
 21
0.7992999284329388
 31
0.0
  0
LINE
  5
7DE1B343D9DFF33
330
7DE1B343D9DFFB3
100
AcDbEntity
  8
TEXT
100
AcDbLine
 10
0.8013688260530269
 20
0.8192584345379517
 30
0.0
 11
0.8986685321464715
 21
0.9836086454732198
 31
0.0
  0
ARC
  5
7DE1B343D9DFF34
330
7DE1B343D9DFFB3
100
AcDbEntity
  8
TEXT
100
AcDbCircle
 10
0.767325266140813
 20
0.8388476507066345
 30
0.0
 40
0.0392772371940762
100
AcDbArc
 50
270.1604552698595
 51
330.0831797321295
  0
LINE
  5
7DE1B343D9DFF35
330
7DE1B343D9DFFB3
100
AcDbEntity
  8
TEXT
100
AcDbLine
 10
0.6707950097549418
 20
0.7992999284329388
 30
0.0
 11
0.7674352608299362
 21
0.7995705675312211
 31
0.0
  0
LWPOLYLINE
  5
7DE1B343D9DFF36
330
7DE1B343D9DFFB3
100
AcDbEntity
  8
TEXT
100
AcDbPolyline
 90
        6
 70
     1
 43
0.0
 10
0.7133188133300914
 20
1.001496266764684
 10
0.6830022191098833
 20
1.001496266764684
 10
0.6830022191098833
 20
0.8783852687097899
 42
0.407328721240804
 10
0.6945458702713596
 20
0.8665663540334039
 10
0.7551675693160905
 20
0.8665663540334039
 10
0.7726329097234084
 20
0.899378583076883
  0
LINE
  5
7DE1B343D9DFF3E
330
7DE1B343D9DFFB3
100
AcDbEntity
  8
TEXT
100
AcDbLine
 10
0.8986685321464715
 20
0.9836086454732198
 30
0.0
 11
0.8986685321464715
 21
0.8508512706478635
 31
0.0
  0
ARC
  5
7DE1B343D9DFF3F
330
7DE1B343D9DFFB3
100
AcDbEntity
  8
TEXT
100
AcDbCircle
 10
0.9819664684686451
 20
0.8802905609324669
 30
0.0
 40
0.0153818062434269
100
AcDbArc
 50
174.7883570302258
 51
270.0
  0
LWPOLYLINE
  5
7DE1B343D9DFF40
330
7DE1B343D9DFFB3
100
AcDbEntity
  8
TEXT
100
AcDbPolyline
 90
        2
 70
     0
 43
0.0
 10
0.8986685321464698
 20
0.850851270647867
 42
0.3318488747599744
 10
0.9677878247117828
 20
0.7992999284329388
 42
-6.868794160588311
  0
LINE
  5
7DE1B343D9DFF44
330
7DE1B343D9DFFB3
100
AcDbEntity
  8
TEXT
100
AcDbLine
 10
1.123180227400478
 20
0.7992999284329388
 30
0.0
 11
1.190238274182318
 21
0.7992999284329388
 31
0.0
  0
LINE
  5
7DE1B343D9DFF45
330
7DE1B343D9DFFB3
100
AcDbEntity
  8
TEXT
100
AcDbLine
 10
1.123180227400478
 20
0.9939424775985743
 30
0.0
 11
1.123180227400478
 21
0.7992999284329388
 31
0.0
  0
LINE
  5
7DE1B343D9DFF46
330
7DE1B343D9DFFB3
100
AcDbEntity
  8
TEXT
100
AcDbLine
 10
1.065791158411217
 20
1.001496266764684
 30
0.0
 11
1.115626438234365
 21
1.001496266764684
 31
0.0
  0
LINE
  5
7DE1B343D9DFF47
330
7DE1B343D9DFFB3
100
AcDbEntity
  8
TEXT
100
AcDbLine
 10
1.065791158411217
 20
0.7992999284329388
 30
0.0
 11
1.065791158411217
 21
1.001496266764684
 31
0.0
  0
LWPOLYLINE
  5
7DE1B343D9DFF48
330
7DE1B343D9DFFB3
100
AcDbEntity
  8
TEXT
100
AcDbPolyline
 90
        2
 70
     0
 43
0.0
 10
1.115626438234363
 20
1.001496266764684
 42
-0.4142135623731017
 10
1.123180227400476
 20
0.9939424775985743
 42
-0.9999999999999998
  0
LINE
  5
7DE1B343D9DFF4C
330
7DE1B343D9DFFB3
100
AcDbEntity
  8
TEXT
100
AcDbLine
 10
1.321436439012048
 20
1.001496266764684
 30
0.0
 11
1.321436439012048
 21
0.9264438606904777
 31
0.0
  0
LINE
  5
7DE1B343D9DFF4D
330
7DE1B343D9DFFB3
100
AcDbEntity
  8
TEXT
100
AcDbLine
 10
1.190238274182318
 20
1.001496266764684
 30
0.0
 11
1.244371871103268
 21
1.001496266764684
 31
0.0
  0
LINE
  5
7DE1B343D9DFF4E
330
7DE1B343D9DFFB3
100
AcDbEntity
  8
TEXT
100
AcDbLine
 10
1.190238274182318
 20
0.7992999284329388
 30
0.0
 11
1.190238274182318
 21
1.001496266764684
 31
0.0
  0
LWPOLYLINE
  5
7DE1B343D9DFF4F
330
7DE1B343D9DFFB3
100
AcDbEntity
  8
TEXT
100
AcDbPolyline
 90
        2
 70
     0
 43
0.0
 10
1.244371871103266
 20
1.001496266764684
 42
-0.4142135623731017
 10
1.25192566026938
 20
0.9939424775985743
 42
-0.9999999999999998
  0
LWPOLYLINE
  5
7DE1B343D9DFF53
330
7DE1B343D9DFFB3
100
AcDbEntity
  8
TEXT
100
AcDbPolyline
 90
        4
 70
     0
 43
0.0
 10
1.25192566026938
 20
0.9939424775985743
 10
1.25192566026938
 20
0.7992999284329388
 10
1.320403943557238
 20
0.7992999284329388
 10
1.320403943557238
 20
0.8427908733833769
 42
-1.714843617202739
  0
LINE
  5
7DE1B343D9DFF59
330
7DE1B343D9DFFB3
100
AcDbEntity
  8
TEXT
100
AcDbLine
 10
0.6805397758741361
 20
1.065772961421449
 30
0.0
 11
0.6805397758741361
 21
1.100160879015587
 31
0.0
  0
LINE
  5
7DE1B343D9DFF5A
330
7DE1B343D9DFFB3
100
AcDbEntity
  8
TEXT
100
AcDbLine
 10
0.7523387420180434
 20
1.065772961421449
 30
0.0
 11
0.6805397758741361
 21
1.065772961421449
 31
0.0
  0
LINE
  5
7DE1B343D9DFF5B
330
7DE1B343D9DFFB3
100
AcDbEntity
  8
TEXT
100
AcDbLine
 10
0.899839538649223
 20
1.065772961421449
 30
0.0
 11
0.8697176258558467
 21
1.065772961421449
 31
0.0
  0
LINE
  5
7DE1B343D9DFF5C
330
7DE1B343D9DFFB3
100
AcDbEntity
  8
TEXT
100
AcDbLine
 10
0.899839538649223
 20
1.13378443916026
 30
0.0
 11
0.899839538649223
 21
1.065772961421449
 31
0.0
  0
LINE
  5
7DE1B343D9DFF5D
330
7DE1B343D9DFFB3
100
AcDbEntity
  8
TEXT
100
AcDbLine
 10
0.966648251215588
 20
1.13378443916026
 30
0.0
 11
0.899839538649223
 21
1.13378443916026
 31
0.0
  0
LWPOLYLINE
  5
7DE1B343D9DFF5E
330
7DE1B343D9DFFB3
100
AcDbEntity
  8
TEXT
100
AcDbPolyline
 90
        3
 70
     0
 43
0.0
 10
1.28706001081359
 20
1.065772961421453
 10
1.168759851997545
 20
1.065772961421453
 10
1.168759851997545
 20
1.038605464660557
 42
-1.960274751411753
  0
LINE
  5
7DE1B343D9DFF63
330
7DE1B343D9DFFB3
100
AcDbEntity
  8
TEXT
100
AcDbLine
 10
1.132978161284384
 20
1.065772961421449
 30
0.0
 11
0.9989601053532481
 21
1.065772961421449
 31
0.0
  0
LWPOLYLINE
  5
7DE1B343D9DFF64
330
7DE1B343D9DFFB3
100
AcDbEntity
  8
TEXT
100
AcDbPolyline
 90
        2
 70
     0
 43
0.0
 10
1.132978161284384
 20
1.065772961421453
 42
-0.3328679258950098
 10
1.168759851997545
 20
1.038605464660557
 42
6.772930709997214
  0
LINE
  5
7DE1B343D9DFF68
330
7DE1B343D9DFFB3
100
AcDbEntity
  8
TEXT
100
AcDbLine
 10
1.322841701526757
 20
1.065772961421449
 30
0.0
 11
1.322841701526757
 21
1.037450415651805
 31
0.0
  0
LWPOLYLINE
  5
7DE1B343D9DFF69
330
7DE1B343D9DFFB3
100
AcDbEntity
  8
TEXT
100
AcDbPolyline
 90
        2
 70
     0
 43
0.0
 10
1.28706001081359
 20
1.065772961421453
 42
-0.3277054968067132
 10
1.322841701526755
 20
1.037450415651809
 42
6.667889725900311
  0
LINE
  5
7DE1B343D9DFF6D
330
7DE1B343D9DFFB3
100
AcDbEntity
  8
TEXT
100
AcDbLine
 10
1.536633549618857
 20
0.9605609828680224
 30
0.0
 11
1.492882778436955
 21
1.042811258864167
 31
0.0
  0
LINE
  5
7DE1B343D9DFF6E
330
7DE1B343D9DFFB3
100
AcDbEntity
  8
TEXT
100
AcDbLine
 10
1.536633549618857
 20
1.065772961421449
 30
0.0
 11
1.536633549618857
 21
0.9605609828680224
 31
0.0
  0
LINE
  5
7DE1B343D9DFF6F
330
7DE1B343D9DFFB3
100
AcDbEntity
  8
TEXT
100
AcDbLine
 10
1.764317288557226
 20
0.9899076350099116
 30
0.0
 11
1.764317288557226
 21
1.13123716718905
 31
0.0
  0
LINE
  5
7DE1B343D9DFF70
330
7DE1B343D9DFFB3
100
AcDbEntity
  8
TEXT
100
AcDbLine
 10
1.81141544711321
 20
1.065772961421449
 30
0.0
 11
1.764317288557226
 21
0.9899076350099116
 31
0.0
  0
LINE
  5
7DE1B343D9DFF71
330
7DE1B343D9DFFB3
100
AcDbEntity
  8
TEXT
100
AcDbLine
 10
1.821850163877133
 20
0.9558797184804761
 30
0.0
 11
1.886407279842838
 21
1.065772961421449
 31
0.0
  0
LINE
  5
7DE1B343D9DFF72
330
7DE1B343D9DFFB3
100
AcDbEntity
  8
TEXT
100
AcDbLine
 10
1.700482297334453
 20
0.7992999284329388
 30
0.0
 11
1.764860481653073
 21
0.7992999284329388
 31
0.0
  0
LWPOLYLINE
  5
7DE1B343D9DFF73
330
7DE1B343D9DFFB3
100
AcDbEntity
  8
TEXT
100
AcDbPolyline
 90
        2
 70
     0
 43
0.0
 10
1.540573226923894
 20
0.8427908733833769
 42
-0.2901071551932486
 10
1.49749729405625
 20
0.7992999284329388
 42
-5.328517124445184
  0
ARC
  5
7DE1B343D9DFF77
330
7DE1B343D9DFFB3
100
AcDbEntity
  8
TEXT
100
AcDbCircle
 10
1.428642712399335
 20
0.973136891764687
 30
0.0
 40
0.028359375
100
AcDbArc
 50
25.78218179591245
 51
90.0
  0
LINE
  5
7DE1B343D9DFF78
330
7DE1B343D9DFFB3
100
AcDbEntity
  8
TEXT
100
AcDbLine
 10
1.464443787703459
 20
0.964221293302552
 30
0.0
 11
1.454179027289894
 21
0.9854718328752463
 31
0.0
  0
LINE
  5
7DE1B343D9DFF79
330
7DE1B343D9DFFB3
100
AcDbEntity
  8
TEXT
100
AcDbLine
 10
1.382155797920075
 20
0.964221293302552
 30
0.0
 11
1.464443787703459
 21
0.964221293302552
 31
0.0
  0
LWPOLYLINE
  5
7DE1B343D9DFF7A
330
7DE1B343D9DFFB3
100
AcDbEntity
  8
TEXT
100
AcDbPolyline
 90
        4
 70
     1
 43
0.0
 10
1.477374828986357
 20
0.902263906416964
 10
1.388714510326499
 20
0.902263906416964
 42
0.9999999999999998
 10
1.388714510326499
 20
0.8598653659131032
 10
1.477374828986357
 20
0.8598653659131032
 42
1.0
  0
LWPOLYLINE
  5
7DE1B343D9DFF80
330
7DE1B343D9DFFB3
100
AcDbEntity
  8
TEXT
100
AcDbPolyline
 90
        2
 70
     0
 43
0.0
 10
1.363479876424873
 20
0.7992999284329388
 10
1.49749729405625
 20
0.7992999284329388
 42
0.9999999999999998
  0
LINE
  5
7DE1B343D9DFF84
330
7DE1B343D9DFFB3
100
AcDbEntity
  8
TEXT
100
AcDbLine
 10
1.623834316041889
 20
1.001496266764684
 30
0.0
 11
1.700482297334447
 21
1.001496266764684
 31
0.0
  0
LINE
  5
7DE1B343D9DFF85
330
7DE1B343D9DFFB3
100
AcDbEntity
  8
TEXT
100
AcDbLine
 10
1.700482297334447
 20
1.001496266764684
 30
0.0
 11
1.700482297334453
 21
0.7992999284329388
 31
0.0
  0
ARC
  5
7DE1B343D9DFF86
330
7DE1B343D9DFFB3
100
AcDbEntity
  8
TEXT
100
AcDbCircle
 10
1.623834316041888
 20
0.9765903914820215
 30
0.0
 40
0.0249058752826653
100
AcDbArc
 50
89.99971217465335
 51
179.9999999999985
  0
LINE
  5
7DE1B343D9DFF87
330
7DE1B343D9DFFB3
100
AcDbEntity
  8
TEXT
100
AcDbLine
 10
1.59892844075923
 20
0.7992999284329388
 30
0.0
 11
1.598928440759225
 21
0.9765904338644071
 31
0.0
  0
LWPOLYLINE
  5
7DE1B343D9DFF88
330
7DE1B343D9DFFB3
100
AcDbEntity
  8
TEXT
100
AcDbPolyline
 90
        2
 70
     0
 43
0.0
 10
1.540573226923894
 20
0.7992999284329388
 10
1.598928440759229
 20
0.7992999284329388
  0
LWPOLYLINE
  5
7DE1B343D9DFF8C
330
7DE1B343D9DFFB3
100
AcDbEntity
  8
TEXT
100
AcDbPolyline
 90
        2
 70
     0
 43
0.0
 10
1.540573226923894
 20
0.8427908733833769
 10
1.540573226923894
 20
0.7992999284329388
  0
LINE
  5
7DE1B343D9DFF90
330
7DE1B343D9DFFB3
100
AcDbEntity
  8
TEXT
100
AcDbLine
 10
1.917342387240744
 20
0.7992999284329388
 30
0.0
 11
1.821850163877133
 21
0.9558797184804761
 31
0.0
  0
LINE
  5
7DE1B343D9DFF91
330
7DE1B343D9DFFB3
100
AcDbEntity
  8
TEXT
100
AcDbLine
 10
1.840764014864538
 20
0.7992999284329388
 30
0.0
 11
1.917342387240744
 21
0.7992999284329388
 31
0.0
  0
LINE
  5
7DE1B343D9DFF92
330
7DE1B343D9DFFB3
100
AcDbEntity
  8
TEXT
100
AcDbLine
 10
1.764860481653073
 20
0.930879496909119
 30
0.0
 11
1.840764014864538
 21
0.7992999284329388
 31
0.0
  0
LINE
  5
7DE1B343D9DFF93
330
7DE1B343D9DFFB3
100
AcDbEntity
  8
TEXT
100
AcDbLine
 10
1.764860481653073
 20
0.7992999284329388
 30
0.0
 11
1.764860481653073
 21
0.930879496909119
 31
0.0
  0
LINE
  5
7DE1B343D9DFF94
330
7DE1B343D9DFFB3
100
AcDbEntity
  8
TEXT
100
AcDbLine
 10
1.764317288557226
 20
1.13123716718905
 30
0.0
 11
1.696002410007952
 21
1.13123716718905
 31
0.0
  0
ARC
  5
7DE1B343D9DFF95
330
7DE1B343D9DFFB3
100
AcDbEntity
  8
TEXT
100
AcDbCircle
 10
1.455646670966746
 20
1.024189394300547
 30
0.0
 40
0.0416329381542859
100
AcDbArc
 50
26.56974201007528
 51
87.20939649401342
  0
LINE
  5
7DE1B343D9DFF96
330
7DE1B343D9DFFB3
100
AcDbEntity
  8
TEXT
100
AcDbLine
 10
1.600530455918358
 20
1.065772961421449
 30
0.0
 11
1.536633549618857
 21
1.065772961421449
 31
0.0
  0
LINE
  5
7DE1B343D9DFF97
330
7DE1B343D9DFFB3
100
AcDbEntity
  8
TEXT
100
AcDbLine
 10
1.600530455918358
 20
1.038225311560575
 30
0.0
 11
1.600530455918358
 21
1.065772961421449
 31
0.0
  0
ARC
  5
7DE1B343D9DFF98
330
7DE1B343D9DFFB3
100
AcDbEntity
  8
TEXT
100
AcDbCircle
 10
1.631723272981465
 20
1.034527234139184
 30
0.0
 40
0.0314112657011332
100
AcDbArc
 50
95.88484768694724
 51
173.2388340632136
  0
LINE
  5
7DE1B343D9DFF99
330
7DE1B343D9DFFB3
100
AcDbEntity
  8
TEXT
100
AcDbLine
 10
1.696002410007947
 20
1.065772961421449
 30
0.0
 11
1.628502692358431
 21
1.065772961421449
 31
0.0
  0
LINE
  5
7DE1B343D9DFF9A
330
7DE1B343D9DFFB3
100
AcDbEntity
  8
TEXT
100
AcDbLine
 10
1.696002410007952
 20
1.13123716718905
 30
0.0
 11
1.696002410007947
 21
1.065772961421449
 31
0.0
  0
LINE
  5
7DE1B343D9DFF9B
330
7DE1B343D9DFFB3
100
AcDbEntity
  8
TEXT
100
AcDbLine
 10
1.886407279842838
 20
1.065772961421449
 30
0.0
 11
1.811415447113212
 21
1.065772961421449
 31
0.0
  0
INSERT
  5
7DE1B343D9DFFCE
330
7DE1B343D9DFFB3
100
AcDbEntity
  8
ASHADE
 62
     1
100
AcDbBlockReference
  2
AVE_RENDER
 10
0.0
 20
0.0
 30
0.0
1001
AVE_RENDER
1002
{
1070
     6
1000
Pref
1070
    30
1070
    20
1070
     1
1070
     0
1000

1070
    10
1070
     1
1070
    30
1040
1.0
1070
     1
1040
0.3
1040
0.7
1040
0.0
1040
10.0
1010
-1.0
1020
-1.0
1030
-1.0
1040
0.3
1070
    49
1070
     0
1070
     0
1010
1.0
1020
1.0
1030
1.0
1040
45.0
1070
     1
1070
     0
1000
WCS
1040
0.0
1002
}
  0
INSERT
  5
7DE1B343D9DFFCF
330
7DE1B343D9DFFB3
100
AcDbEntity
  8
ASHADE
 62
     3
100
AcDbBlockReference
  2
AVE_RENDER
 10
0.0
 20
0.0
 30
0.0
1001
AVE_RENDER
1002
{
1070
     0
1000
Full Opt
1070
     0
1070
     1
1070
     1
1070
     1
1070
     0
1070
     0
1070
     0
1070
     1
1070
     1
1040
0.0001
1040
0.0001
1002
}
  0
INSERT
  5
7DE1B343D9DFFD0
330
7DE1B343D9DFFB3
100
AcDbEntity
  8
ASHADE
 62
     4
100
AcDbBlockReference
  2
AVE_RENDER
 10
0.0
 20
0.0
 30
0.0
1001
AVE_RENDER
1002
{
1070
     0
1000
Quick Opt
1070
     0
1070
     1
1070
     1
1070
     1
1070
     0
1070
     0
1070
     1
1002
}
  0
INSERT
  5
7DE1B343D9DFFD1
330
7DE1B343D9DFFB3
100
AcDbEntity
  8
ASHADE
 62
     5
100
AcDbBlockReference
  2
AVE_RENDER
 10
0.0
 20
0.0
 30
0.0
1001
AVE_RENDER
1002
{
1070
     1
1000
Scanl Opt
1070
     2
1070
     0
1070
     2
1040
2.0
1040
4.0
1070
     0
1070
     1
1070
     0
1040
0.03
1002
}
  0
INSERT
  5
7DE1B343D9DFFD2
330
7DE1B343D9DFFB3
100
AcDbEntity
  8
ASHADE
 62
     6
100
AcDbBlockReference
  2
AVE_RENDER
 10
0.0
 20
0.0
 30
0.0
1001
AVE_RENDER
1002
{
1070
     2
1000
Raytr Opt
1070
     2
1070
     0
1070
     2
1040
2.0
1040
4.0
1070
     0
1070
     1
1070
     1
1040
0.03
1070
     3
1040
0.03
1002
}
  0
INSERT
  5
7DE1B343D9DFFD3
330
7DE1B343D9DFFB3
100
AcDbEntity
  8
ASHADE
 62
     7
100
AcDbBlockReference
  2
AVE_RENDER
 10
0.0
 20
0.0
 30
0.0
1001
AVE_RENDER
1002
{
1070
     0
1000
RFile Opt
1070
     5
1070
   640
1070
   480
1070
 10000
1070
     3
1070
    32
1070
    24
1070
     0
1070
     0
1070
     0
1070
     1
1070
     0
1070
     0
1070
     0
1002
}
  0
INSERT
  5
7DE1B343D9DFFD4
330
7DE1B343D9DFFB3
100
AcDbEntity
  8
ASHADE
 62
     8
100
AcDbBlockReference
  2
AVE_RENDER
 10
0.0
 20
0.0
 30
0.0
1001
AVE_RENDER
1002
{
1070
     0
1000
Fog Opt
1070
     0
1070
     0
1040
0.0
1040
1.0
1040
0.0
1040
1.0
1010
0.5
1020
0.5
1030
0.5
1002
}
  0
INSERT
  5
7DE1B343D9DFFD5
330
7DE1B343D9DFFB3
100
AcDbEntity
  8
ASHADE
 62
     9
100
AcDbBlockReference
  2
AVE_RENDER
 10
0.0
 20
0.0
 30
0.0
1001
AVE_RENDER
1002
{
1070
     0
1000
BG Opt
1070
     0
1070
     1
1010
0.0
1020
0.0
1030
0.0
1010
1.0
1020
0.0
1030
0.0
1010
0.0
1020
1.0
1030
0.0
1010
0.0
1020
0.0
1030
1.0
1040
0.5
1040
0.33
1040
0.0
1000

1070
     1
1000

1070
     1
1070
     1
1040
1.0
1040
1.0
1040
0.0
1040
0.0
1070
     0
1002
}
  0
INSERT
  5
7DE1B343D9DFFDC
330
7DE1B343D9DFFB3
100
AcDbEntity
  8
ASHADE
 62
     1
100
AcDbBlockReference
  2
AVE_GLOBAL
 10
0.0
 20
0.0
 30
0.0
1001
AVE_MATERIAL
1002
{
1000
*GLOBAL*
1000
1
1000
Global finish.
1002
{
1002
}
1002
{
1070
    63
1002
{
1002
{
1010
-1.0
1020
-1.0
1030
-1.0
1002
}
1040
0.1000000014901161
1000

1040
0.0
1002
{
1002
}
1040
0.0
1002
{
1002
}
1040
0.0
1002
}
1002
{
1002
{
1010
-1.0
1020
-1.0
1030
-1.0
1002
}
1040
0.6999999880790711
1000

1040
0.0
1002
{
1002
}
1040
0.0
1002
{
1002
}
1040
0.0
1002
}
1002
{
1002
{
1010
-1.0
1020
-1.0
1030
-1.0
1002
}
1040
0.2000000029802322
1000

1040
0.0
1002
{
1002
}
1040
0.0
1002
{
1002
}
1040
0.0
1002
}
1002
{
1070
     0
1002
{
1070
     1
1002
{
1040
1.0
1040
1.0
1000

1040
0.0
1002
{
1002
}
1040
0.0
1002
{
1002
}
1040
0.0
1002
}
1002
}
1040
1.0
1040
0.0
1040
0.0
1002
}
1002
{
1040
1.0
1040
1.0
1000

1040
0.0
1002
{
1002
}
1040
0.0
1002
{
1002
}
1040
0.0
1002
}
1002
{
1040
0.5
1040
1.0
1000

1040
0.0
1002
{
1002
}
1040
0.0
1002
{
1002
}
1040
0.0
1002
}
1002
{
1070
     0
1040
0.0
1002
{
1002
}
1040
1.0
1002
{
1002
}
1040
0.0
1002
}
1002
{
1040
0.0
1002
{
1002
{
1010
0.0
1020
0.0
1030
0.0
1002
}
1040
1.0
1000

1040
0.0
1002
{
1002
}
1040
0.0
1002
{
1002
}
1040
0.0
1002
}
1002
}
1002
{
1002
{
1070
     1
1002
{
1040
0.0
1040
1.0
1000

1040
0.0
1002
{
1002
}
1040
0.0
1002
{
1002
}
1040
0.0
1002
}
1002
}
1040
0.0
1002
{
1002
}
1010
1.0
1020
0.0
1030
0.0
1010
0.0
1020
1.0
1030
0.0
1010
0.0
1020
0.0
1030
1.0
1070
     0
1002
}
1002
{
1002
{
1040
1.0
1040
1.0
1002
{
1070
     1
1002
{
1040
1.0
1040
1.0
1000

1040
0.0
1002
{
1002
}
1040
0.0
1002
{
1002
}
1040
0.0
1002
}
1002
}
1002
}
1070
     0
1040
0.0
1002
{
1002
}
1002
}
1002
{
1002
}
1002
}
1002
{
1071
        3
1070
     3
1070
     0
1002
{
1070
     2
1070
     0
1070
     0
1040
0.0
1002
}
1070
     0
1070
     2
1002
{
1002
}
1002
}
1002
{
1040
8030.0
1040
190.3000030517578
1040
0.3050000071525574
1040
228.0
1040
545.0
1040
14.0
1040
17.39999961853027
1040
0.4560000002384186
1002
}
1002
}
  0
ENDSEC
  0
SECTION
  2
OBJECTS
  0
DICTIONARY
  5
7DE1B343D9DFFA7
330
0
100
AcDbDictionary
  3
ACAD_GROUP
350
7DE1B343D9DFFA8
  3
ACAD_LAYOUT
350
7DE1B343D9DFFE8
  3
ACAD_MLINESTYLE
350
7DE1B343D9DFFA9
  3
ACAD_PLOTSETTINGS
350
7DE1B343D9DFFE9
  3
ACAD_PLOTSTYLENAME
350
7DE1B343D9DFFE6
  3
ACDBHEADERROUNDTRIPXREC
350
7DE1B343D9DFFF3
  3
ACDBVARIABLEDICTIONARY
350
7DE1B343D9DFFF0
  0
DICTIONARY
  5
7DE1B343D9E0015
330
7DE1B343D9DFFB3
100
AcDbDictionary
280
     1
  3
ACAD_LAYOUTSELFREF
360
7DE1B343D9E0016
  0
DICTIONARY
  5
7DE1B343D9E0013
330
7DE1B343D9DFFB0
100
AcDbDictionary
280
     1
  3
ACAD_LAYOUTSELFREF
360
7DE1B343D9E0014
  0
DICTIONARY
  5
7DE1B343D9DFFA8
102
{ACAD_REACTORS
330
7DE1B343D9DFFA7
102
}
330
7DE1B343D9DFFA7
100
AcDbDictionary
  0
DICTIONARY
  5
7DE1B343D9DFFE8
102
{ACAD_REACTORS
330
7DE1B343D9DFFA7
102
}
330
7DE1B343D9DFFA7
100
AcDbDictionary
  0
DICTIONARY
  5
7DE1B343D9DFFA9
102
{ACAD_REACTORS
330
7DE1B343D9DFFA7
102
}
330
7DE1B343D9DFFA7
100
AcDbDictionary
  3
STANDARD
350
7DE1B343D9DFFB6
  0
DICTIONARY
  5
7DE1B343D9DFFE9
102
{ACAD_REACTORS
330
7DE1B343D9DFFA7
102
}
330
7DE1B343D9DFFA7
100
AcDbDictionary
  0
ACDBDICTIONARYWDFLT
  5
7DE1B343D9DFFE6
102
{ACAD_REACTORS
330
7DE1B343D9DFFA7
102
}
330
7DE1B343D9DFFA7
100
AcDbDictionary
281
     1
  3
Normal
350
7DE1B343D9DFFE7
100
AcDbDictionaryWithDefault
340
7DE1B343D9DFFE7
  0
DICTIONARY
  5
7DE1B343D9DFFF3
102
{ACAD_REACTORS
330
7DE1B343D9DFFA7
102
}
330
7DE1B343D9DFFA7
100
AcDbDictionary
  3
CEPSNTYPE
350
7DE1B343D9DFFFD
  3
FINGERPRINTGUID
350
7DE1B343D9DFFFE
  3
HYPERLINKBASE
350
7DE1B343D9DFFF6
  3
INSUNITS
350
7DE1B343D9DFFFC
  3
LAYOUTDICT
350
7DE1B343D9DFFF8
  3
LWETCUNION
350
7DE1B343D9DFFFB
  3
PLOTSETDICT
350
7DE1B343D9DFFF9
  3
PLOTSTYLNAMDICT
350
7DE1B343D9DFFFA
  3
PSVPSCALE
350
7DE1B343D9E0000
  3
PUCSBASE
350
7DE1B343D9E0003
  3
PUCSORGBACK
350
7DE1B343D9E0009
  3
PUCSORGBOTTOM
350
7DE1B343D9E0005
  3
PUCSORGFRONT
350
7DE1B343D9E0008
  3
PUCSORGLEFT
350
7DE1B343D9E0006
  3
PUCSORGRIGHT
350
7DE1B343D9E0007
  3
PUCSORGTOP
350
7DE1B343D9E0004
  3
PUCSORTHOREF
350
7DE1B343D9E0001
  3
PUCSORTHOVIEW
350
7DE1B343D9E0002
  3
STYLESHEET
350
7DE1B343D9DFFF7
  3
TSTACKALIGN
350
7DE1B343D9DFFF4
  3
TSTACKSIZE
350
7DE1B343D9DFFF5
  3
UCSBASE
350
7DE1B343D9E000C
  3
UCSORGBACK
350
7DE1B343D9E0012
  3
UCSORGBOTTOM
350
7DE1B343D9E000E
  3
UCSORGFRONT
350
7DE1B343D9E0011
  3
UCSORGLEFT
350
7DE1B343D9E000F
  3
UCSORGRIGHT
350
7DE1B343D9E0010
  3
UCSORGTOP
350
7DE1B343D9E000D
  3
UCSORTHOREF
350
7DE1B343D9E000A
  3
UCSORTHOVIEW
350
7DE1B343D9E000B
  3
VERSIONGUID
350
7DE1B343D9DFFFF
  0
DICTIONARY
  5
7DE1B343D9DFFF0
102
{ACAD_REACTORS
330
7DE1B343D9DFFA7
102
}
330
7DE1B343D9DFFA7
100
AcDbDictionary
  3
DIMASSOC
350
7DE1B343D9DFFF1
  0
XRECORD
  5
7DE1B343D9E0016
102
{ACAD_REACTORS
330
7DE1B343D9E0015
102
}
330
7DE1B343D9E0015
100
AcDbXrecord
340
7DE1B343D9DFFB3
  0
XRECORD
  5
7DE1B343D9E0014
102
{ACAD_REACTORS
330
7DE1B343D9E0013
102
}
330
7DE1B343D9E0013
100
AcDbXrecord
340
7DE1B343D9DFFB0
  0
MLINESTYLE
  5
7DE1B343D9DFFB6
102
{ACAD_REACTORS
330
7DE1B343D9DFFA9
102
}
330
7DE1B343D9DFFA9
100
AcDbMlineStyle
  2
STANDARD
 70
     0
  3

 62
     0
 51
90.0
 52
90.0
 71
     2
 49
0.5
 62
   256
  6
BYLAYER
 49
-0.5
 62
   256
  6
BYLAYER
  0
ACDBPLACEHOLDER
  5
7DE1B343D9DFFE7
102
{ACAD_REACTORS
330
7DE1B343D9DFFE6
102
}
330
7DE1B343D9DFFE6
100
AcDbPlaceHolder
280
     0
  0
XRECORD
  5
7DE1B343D9DFFFD
102
{ACAD_REACTORS
330
7DE1B343D9DFFF3
102
}
330
7DE1B343D9DFFF3
100
AcDbXrecord
 90
        0
  0
XRECORD
  5
7DE1B343D9DFFFE
102
{ACAD_REACTORS
330
7DE1B343D9DFFF3
102
}
330
7DE1B343D9DFFF3
100
AcDbXrecord
  1
{C01977B0-8DB6-11D6-88E6-0090279574E7}
  0
XRECORD
  5
7DE1B343D9DFFF6
102
{ACAD_REACTORS
330
7DE1B343D9DFFF3
102
}
330
7DE1B343D9DFFF3
100
AcDbXrecord
  1

  0
XRECORD
  5
7DE1B343D9DFFFC
102
{ACAD_REACTORS
330
7DE1B343D9DFFF3
102
}
330
7DE1B343D9DFFF3
100
AcDbXrecord
 90
        0
  0
XRECORD
  5
7DE1B343D9DFFF8
102
{ACAD_REACTORS
330
7DE1B343D9DFFF3
102
}
330
7DE1B343D9DFFF3
100
AcDbXrecord
340
7DE1B343D9DFFE8
  0
XRECORD
  5
7DE1B343D9DFFFB
102
{ACAD_REACTORS
330
7DE1B343D9DFFF3
102
}
330
7DE1B343D9DFFF3
100
AcDbXrecord
 90
    14877
  0
XRECORD
  5
7DE1B343D9DFFF9
102
{ACAD_REACTORS
330
7DE1B343D9DFFF3
102
}
330
7DE1B343D9DFFF3
100
AcDbXrecord
340
7DE1B343D9DFFE9
  0
XRECORD
  5
7DE1B343D9DFFFA
102
{ACAD_REACTORS
330
7DE1B343D9DFFF3
102
}
330
7DE1B343D9DFFF3
100
AcDbXrecord
340
7DE1B343D9DFFE6
  0
XRECORD
  5
7DE1B343D9E0000
102
{ACAD_REACTORS
330
7DE1B343D9DFFF3
102
}
330
7DE1B343D9DFFF3
100
AcDbXrecord
 40
0.0
  0
XRECORD
  5
7DE1B343D9E0003
102
{ACAD_REACTORS
330
7DE1B343D9DFFF3
102
}
330
7DE1B343D9DFFF3
100
AcDbXrecord
340
0
  0
XRECORD
  5
7DE1B343D9E0009
102
{ACAD_REACTORS
330
7DE1B343D9DFFF3
102
}
330
7DE1B343D9DFFF3
100
AcDbXrecord
 10
0.0
 20
0.0
 30
0.0
  0
XRECORD
  5
7DE1B343D9E0005
102
{ACAD_REACTORS
330
7DE1B343D9DFFF3
102
}
330
7DE1B343D9DFFF3
100
AcDbXrecord
 10
0.0
 20
0.0
 30
0.0
  0
XRECORD
  5
7DE1B343D9E0008
102
{ACAD_REACTORS
330
7DE1B343D9DFFF3
102
}
330
7DE1B343D9DFFF3
100
AcDbXrecord
 10
0.0
 20
0.0
 30
0.0
  0
XRECORD
  5
7DE1B343D9E0006
102
{ACAD_REACTORS
330
7DE1B343D9DFFF3
102
}
330
7DE1B343D9DFFF3
100
AcDbXrecord
 10
0.0
 20
0.0
 30
0.0
  0
XRECORD
  5
7DE1B343D9E0007
102
{ACAD_REACTORS
330
7DE1B343D9DFFF3
102
}
330
7DE1B343D9DFFF3
100
AcDbXrecord
 10
0.0
 20
0.0
 30
0.0
  0
XRECORD
  5
7DE1B343D9E0004
102
{ACAD_REACTORS
330
7DE1B343D9DFFF3
102
}
330
7DE1B343D9DFFF3
100
AcDbXrecord
 10
0.0
 20
0.0
 30
0.0
  0
XRECORD
  5
7DE1B343D9E0001
102
{ACAD_REACTORS
330
7DE1B343D9DFFF3
102
}
330
7DE1B343D9DFFF3
100
AcDbXrecord
340
0
  0
XRECORD
  5
7DE1B343D9E0002
102
{ACAD_REACTORS
330
7DE1B343D9DFFF3
102
}
330
7DE1B343D9DFFF3
100
AcDbXrecord
 70
     0
  0
XRECORD
  5
7DE1B343D9DFFF7
102
{ACAD_REACTORS
330
7DE1B343D9DFFF3
102
}
330
7DE1B343D9DFFF3
100
AcDbXrecord
  1

  0
XRECORD
  5
7DE1B343D9DFFF4
102
{ACAD_REACTORS
330
7DE1B343D9DFFF3
102
}
330
7DE1B343D9DFFF3
100
AcDbXrecord
 90
        1
  0
XRECORD
  5
7DE1B343D9DFFF5
102
{ACAD_REACTORS
330
7DE1B343D9DFFF3
102
}
330
7DE1B343D9DFFF3
100
AcDbXrecord
 90
       70
  0
XRECORD
  5
7DE1B343D9E000C
102
{ACAD_REACTORS
330
7DE1B343D9DFFF3
102
}
330
7DE1B343D9DFFF3
100
AcDbXrecord
340
0
  0
XRECORD
  5
7DE1B343D9E0012
102
{ACAD_REACTORS
330
7DE1B343D9DFFF3
102
}
330
7DE1B343D9DFFF3
100
AcDbXrecord
 10
0.0
 20
0.0
 30
0.0
  0
XRECORD
  5
7DE1B343D9E000E
102
{ACAD_REACTORS
330
7DE1B343D9DFFF3
102
}
330
7DE1B343D9DFFF3
100
AcDbXrecord
 10
0.0
 20
0.0
 30
0.0
  0
XRECORD
  5
7DE1B343D9E0011
102
{ACAD_REACTORS
330
7DE1B343D9DFFF3
102
}
330
7DE1B343D9DFFF3
100
AcDbXrecord
 10
0.0
 20
0.0
 30
0.0
  0
XRECORD
  5
7DE1B343D9E000F
102
{ACAD_REACTORS
330
7DE1B343D9DFFF3
102
}
330
7DE1B343D9DFFF3
100
AcDbXrecord
 10
0.0
 20
0.0
 30
0.0
  0
XRECORD
  5
7DE1B343D9E0010
102
{ACAD_REACTORS
330
7DE1B343D9DFFF3
102
}
330
7DE1B343D9DFFF3
100
AcDbXrecord
 10
0.0
 20
0.0
 30
0.0
  0
XRECORD
  5
7DE1B343D9E000D
102
{ACAD_REACTORS
330
7DE1B343D9DFFF3
102
}
330
7DE1B343D9DFFF3
100
AcDbXrecord
 10
0.0
 20
0.0
 30
0.0
  0
XRECORD
  5
7DE1B343D9E000A
102
{ACAD_REACTORS
330
7DE1B343D9DFFF3
102
}
330
7DE1B343D9DFFF3
100
AcDbXrecord
340
0
  0
XRECORD
  5
7DE1B343D9E000B
102
{ACAD_REACTORS
330
7DE1B343D9DFFF3
102
}
330
7DE1B343D9DFFF3
100
AcDbXrecord
 70
     0
  0
XRECORD
  5
7DE1B343D9DFFFF
102
{ACAD_REACTORS
330
7DE1B343D9DFFF3
102
}
330
7DE1B343D9DFFF3
100
AcDbXrecord
  1
{C01977B2-8DB6-11D6-88E6-0090279574E7}
  0
DICTIONARYVAR
  5
7DE1B343D9DFFF1
102
{ACAD_REACTORS
330
7DE1B343D9DFFF0
102
}
330
7DE1B343D9DFFF0
100
DictionaryVariables
280
     0
  1
1
  0
ENDSEC
  0
EOF
