  0
SECTION
  2
HEADER
  9
$ACADVER
  1
AC1014
  9
$ACADMAINTVER
 70
     9
  9
$DWGCODEPAGE
  3
ANSI_1252
  9
$INSBASE
 10
0.0
 20
0.0
 30
0.0
  9
$EXTMIN
 10
12.10820160299425
 20
5.28476281558989
 30
0.0
  9
$EXTMAX
 10
15.5934209247414
 20
6.244745856167146
 30
0.0
  9
$LIMMIN
 10
0.0
 20
0.0
  9
$LIMMAX
 10
8.5
 20
11.0
  9
$ORTHOMODE
 70
     1
  9
$REGENMODE
 70
     1
  9
$FILLMODE
 70
     1
  9
$QTEXTMODE
 70
     0
  9
$MIRRTEXT
 70
     0
  9
$DRAGMODE
 70
     2
  9
$LTSCALE
 40
1.0
  9
$OSMODE
 70
    39
  9
$ATTMODE
 70
     1
  9
$TEXTSIZE
 40
0.125
  9
$TRACEWID
 40
0.05
  9
$TEXTSTYLE
  7
ROMANS
  9
$CLAYER
  8
DIMENSIONS
  9
$CELTYPE
  6
BYLAYER
  9
$CECOLOR
 62
   256
  9
$CELTSCALE
 40
1.0
  9
$DELOBJ
 70
     1
  9
$DISPSILH
 70
     1
  9
$DIMSCALE
 40
1.0
  9
$DIMASZ
 40
0.125
  9
$DIMEXO
 40
0.125
  9
$DIMDLI
 40
0.375
  9
$DIMRND
 40
0.0
  9
$DIMDLE
 40
0.0
  9
$DIMEXE
 40
0.125
  9
$DIMTP
 40
0.0
  9
$DIMTM
 40
0.0
  9
$DIMTXT
 40
0.125
  9
$DIMCEN
 40
-0.125
  9
$DIMTSZ
 40
0.0
  9
$DIMTOL
 70
     0
  9
$DIMLIM
 70
     0
  9
$DIMTIH
 70
     1
  9
$DIMTOH
 70
     1
  9
$DIMSE1
 70
     0
  9
$DIMSE2
 70
     0
  9
$DIMTAD
 70
     0
  9
$DIMZIN
 70
     4
  9
$DIMBLK
  1

  9
$DIMASO
 70
     1
  9
$DIMSHO
 70
     1
  9
$DIMPOST
  1

  9
$DIMAPOST
  1

  9
$DIMALT
 70
     0
  9
$DIMALTD
 70
     2
  9
$DIMALTF
 40
25.4
  9
$DIMLFAC
 40
1.0
  9
$DIMTOFL
 70
     0
  9
$DIMTVP
 40
0.0
  9
$DIMTIX
 70
     0
  9
$DIMSOXD
 70
     0
  9
$DIMSAH
 70
     0
  9
$DIMBLK1
  1

  9
$DIMBLK2
  1

  9
$DIMSTYLE
  2
STANDARD
  9
$DIMCLRD
 70
     0
  9
$DIMCLRE
 70
     0
  9
$DIMCLRT
 70
     0
  9
$DIMTFAC
 40
1.0
  9
$DIMGAP
 40
0.09
  9
$DIMJUST
 70
     0
  9
$DIMSD1
 70
     0
  9
$DIMSD2
 70
     0
  9
$DIMTOLJ
 70
     1
  9
$DIMTZIN
 70
     4
  9
$DIMALTZ
 70
     0
  9
$DIMALTTZ
 70
     0
  9
$DIMFIT
 70
     3
  9
$DIMUPT
 70
     0
  9
$DIMUNIT
 70
     2
  9
$DIMDEC
 70
     3
  9
$DIMTDEC
 70
     3
  9
$DIMALTU
 70
     2
  9
$DIMALTTD
 70
     2
  9
$DIMTXSTY
  7
ROMANS
  9
$DIMAUNIT
 70
     0
  9
$LUNITS
 70
     2
  9
$LUPREC
 70
     4
  9
$SKETCHINC
 40
0.1
  9
$FILLETRAD
 40
0.0
  9
$AUNITS
 70
     0
  9
$AUPREC
 70
     0
  9
$MENU
  1
C:\R13\WIN\ACAD
  9
$ELEVATION
 40
0.0
  9
$PELEVATION
 40
0.0
  9
$THICKNESS
 40
0.0
  9
$LIMCHECK
 70
     0
  9
$BLIPMODE
 70
     0
  9
$CHAMFERA
 40
0.0
  9
$CHAMFERB
 40
0.0
  9
$CHAMFERC
 40
0.0
  9
$CHAMFERD
 40
0.0
  9
$SKPOLY
 70
     0
  9
$TDCREATE
 40
2448076.673504745
  9
$TDUPDATE
 40
2452458.309001007
  9
$TDINDWG
 40
0.3391507755
  9
$TDUSRTIMER
 40
0.3391507755
  9
$USRTIMER
 70
     1
  9
$ANGBASE
 50
0.0
  9
$ANGDIR
 70
     0
  9
$PDMODE
 70
     0
  9
$PDSIZE
 40
0.0
  9
$PLINEWID
 40
0.0
  9
$COORDS
 70
     2
  9
$SPLFRAME
 70
     0
  9
$SPLINETYPE
 70
     6
  9
$SPLINESEGS
 70
     8
  9
$ATTDIA
 70
     0
  9
$ATTREQ
 70
     1
  9
$HANDLING
 70
 22529
  9
$HANDSEED
  5
78A
  9
$SURFTAB1
 70
     6
  9
$SURFTAB2
 70
     6
  9
$SURFTYPE
 70
     6
  9
$SURFU
 70
     6
  9
$SURFV
 70
     6
  9
$UCSNAME
  2

  9
$UCSORG
 10
0.0
 20
0.0
 30
0.0
  9
$UCSXDIR
 10
1.0
 20
0.0
 30
0.0
  9
$UCSYDIR
 10
0.0
 20
1.0
 30
0.0
  9
$PUCSNAME
  2

  9
$PUCSORG
 10
0.0
 20
0.0
 30
0.0
  9
$PUCSXDIR
 10
1.0
 20
0.0
 30
0.0
  9
$PUCSYDIR
 10
0.0
 20
1.0
 30
0.0
  9
$USERI1
 70
     0
  9
$USERI2
 70
     0
  9
$USERI3
 70
     0
  9
$USERI4
 70
     0
  9
$USERI5
 70
     0
  9
$USERR1
 40
0.0
  9
$USERR2
 40
0.0
  9
$USERR3
 40
0.0
  9
$USERR4
 40
0.0
  9
$USERR5
 40
0.0
  9
$WORLDVIEW
 70
     1
  9
$SHADEDGE
 70
     3
  9
$SHADEDIF
 70
    70
  9
$TILEMODE
 70
     1
  9
$MAXACTVP
 70
    16
  9
$PINSBASE
 10
0.0
 20
0.0
 30
0.0
  9
$PLIMCHECK
 70
     0
  9
$PEXTMIN
 10
1.000000000000000E+20
 20
1.000000000000000E+20
 30
1.000000000000000E+20
  9
$PEXTMAX
 10
-1.000000000000000E+20
 20
-1.000000000000000E+20
 30
-1.000000000000000E+20
  9
$PLIMMIN
 10
0.0
 20
0.0
  9
$PLIMMAX
 10
12.0
 20
9.0
  9
$UNITMODE
 70
     0
  9
$VISRETAIN
 70
     0
  9
$PLINEGEN
 70
     1
  9
$PSLTSCALE
 70
     0
  9
$TREEDEPTH
 70
  3020
  9
$PICKSTYLE
 70
     1
  9
$CMLSTYLE
  2
STANDARD
  9
$CMLJUST
 70
     0
  9
$CMLSCALE
 40
1.0
  9
$PROXYGRAPHICS
 70
     1
  9
$MEASUREMENT
 70
     0
  0
ENDSEC
  0
SECTION
  2
CLASSES
  0
CLASS
  1
LWPOLYLINE
  2
AcDbPolyline
  3
AutoCAD 2000
 90
        0
280
     0
281
     1
  0
CLASS
  1
ACDBDICTIONARYWDFLT
  2
AcDbDictionaryWithDefault
  3
AutoCAD 2000
 90
        0
280
     0
281
     0
  0
CLASS
  1
ACDBPLACEHOLDER
  2
AcDbPlaceHolder
  3
AutoCAD 2000
 90
        0
280
     0
281
     0
  0
CLASS
  1
LAYOUT
  2
AcDbLayout
  3
AutoCAD 2000
 90
        0
280
     0
281
     0
  0
CLASS
  1
DICTIONARYVAR
  2
AcDbDictionaryVar
  3
AutoCAD 2000
 90
        0
280
     0
281
     0
  0
CLASS
  1
LONG_TRANSACTION
  2
AcDbLongTransaction
  3
AutoCAD 2000
 90
        0
280
     0
281
     0
  0
CLASS
  1
LWPOLYLINE
  2
AcDbPolyline
  3
AutoCAD 2000
 90
        0
280
     0
281
     1
  0
CLASS
  1
HATCH
  2
AcDbHatch
  3
AutoCAD 2000
 90
        0
280
     0
281
     1
  0
CLASS
  1
XRECORD
  2
AcDbXrecord
  3
AutoCAD 2000
 90
        0
280
     0
281
     0
  0
ENDSEC
  0
SECTION
  2
TABLES
  0
TABLE
  2
VPORT
  5
8
330
0
100
AcDbSymbolTable
 70
     2
  0
VPORT
  5
765
330
8
100
AcDbSymbolTableRecord
100
AcDbViewportTableRecord
  2
*ACTIVE
 70
     0
 10
0.0
 20
0.0
 11
1.0
 21
1.0
 12
16.77297721161234
 22
5.764778163126647
 13
0.0
 23
0.0
 14
0.015625
 24
0.015625
 15
0.0
 25
0.0
 16
0.0
 26
0.0
 36
1.0
 17
0.0
 27
0.0
 37
0.0
 40
2.163785171307905
 41
4.320930232558139
 42
50.0
 43
0.0
 44
0.0
 50
0.0
 51
0.0
 71
     0
 72
  2000
 73
     1
 74
     1
 75
     0
 76
     0
 77
     0
 78
     0
  0
ENDTAB
  0
TABLE
  2
LTYPE
  5
5
330
0
100
AcDbSymbolTable
 70
     1
  0
LTYPE
  5
12
330
5
100
AcDbSymbolTableRecord
100
AcDbLinetypeTableRecord
  2
BYBLOCK
 70
     0
  3

 72
    65
 73
     0
 40
0.0
  0
LTYPE
  5
13
330
5
100
AcDbSymbolTableRecord
100
AcDbLinetypeTableRecord
  2
BYLAYER
 70
     0
  3

 72
    65
 73
     0
 40
0.0
  0
LTYPE
  5
14
330
5
100
AcDbSymbolTableRecord
100
AcDbLinetypeTableRecord
  2
CONTINUOUS
 70
     0
  3
Solid line
 72
    65
 73
     0
 40
0.0
  0
ENDTAB
  0
TABLE
  2
LAYER
  5
2
330
0
100
AcDbSymbolTable
 70
     3
  0
LAYER
  5
F
330
2
100
AcDbSymbolTableRecord
100
AcDbLayerTableRecord
  2
0
 70
     0
 62
     7
  6
CONTINUOUS
  0
LAYER
  5
37
330
2
100
AcDbSymbolTableRecord
100
AcDbLayerTableRecord
  2
DIMENSIONS
 70
     0
 62
     4
  6
CONTINUOUS
  0
LAYER
  5
38
330
2
100
AcDbSymbolTableRecord
100
AcDbLayerTableRecord
  2
TEXT
 70
     0
 62
     3
  6
CONTINUOUS
  0
ENDTAB
  0
TABLE
  2
STYLE
  5
3
330
0
100
AcDbSymbolTable
 70
     3
  0
STYLE
  5
10
330
3
100
AcDbSymbolTableRecord
100
AcDbTextStyleTableRecord
  2
STANDARD
 70
     0
 40
0.0
 41
1.0
 50
0.0
 71
     0
 42
0.125
  3
txt
  4

  0
STYLE
  5
293
330
3
100
AcDbSymbolTableRecord
100
AcDbTextStyleTableRecord
  2
ROMANS
 70
     0
 40
0.0
 41
1.0
 50
0.0
 71
     0
 42
0.125
  3
romans.shx
  4

  0
STYLE
  5
653
330
3
100
AcDbSymbolTableRecord
100
AcDbTextStyleTableRecord
  2
ITALICC
 70
     0
 40
0.0
 41
1.0
 50
0.0
 71
     0
 42
0.125
  3
italicc
  4

  0
ENDTAB
  0
TABLE
  2
VIEW
  5
6
330
0
100
AcDbSymbolTable
 70
     0
  0
ENDTAB
  0
TABLE
  2
UCS
  5
7
330
0
100
AcDbSymbolTable
 70
     0
  0
ENDTAB
  0
TABLE
  2
APPID
  5
9
330
0
100
AcDbSymbolTable
 70
     1
  0
APPID
  5
11
330
9
100
AcDbSymbolTableRecord
100
AcDbRegAppTableRecord
  2
ACAD
 70
     0
  0
ENDTAB
  0
TABLE
  2
DIMSTYLE
  5
A
330
0
100
AcDbSymbolTable
 70
     1
  0
DIMSTYLE
105
28B
330
A
100
AcDbSymbolTableRecord
100
AcDbDimStyleTableRecord
  2
STANDARD
 70
     0
  3

  4

  5

  6

  7

 40
1.0
 41
0.125
 42
0.125
 43
0.375
 44
0.125
 45
0.0
 46
0.0
 47
0.0
 48
0.0
140
0.125
141
-0.125
142
0.0
143
25.4
144
1.0
145
0.0
146
1.0
147
0.09
 71
     0
 72
     0
 73
     1
 74
     1
 75
     0
 76
     0
 77
     0
 78
     4
170
     0
171
     2
172
     0
173
     0
174
     0
175
     0
176
     0
177
     0
178
     0
270
     2
271
     3
272
     3
273
     2
274
     2
340
293
275
     0
280
     0
281
     0
282
     0
283
     1
284
     4
285
     0
286
     0
287
     3
288
     0
  0
ENDTAB
  0
TABLE
  2
BLOCK_RECORD
  5
1
330
0
100
AcDbSymbolTable
 70
     0
  0
BLOCK_RECORD
  5
18
102
{ACAD_XDICTIONARY
360
788
102
}
330
1
100
AcDbSymbolTableRecord
100
AcDbBlockTableRecord
  2
*MODEL_SPACE
  0
BLOCK_RECORD
  5
15
102
{ACAD_XDICTIONARY
360
786
102
}
330
1
100
AcDbSymbolTableRecord
100
AcDbBlockTableRecord
  2
*PAPER_SPACE
  0
ENDTAB
  0
ENDSEC
  0
SECTION
  2
BLOCKS
  0
BLOCK
  5
3F
330
18
100
AcDbEntity
  8
0
100
AcDbBlockBegin
  2
*MODEL_SPACE
 70
     0
 10
0.0
 20
0.0
 30
0.0
  3
*MODEL_SPACE
  1

  0
ENDBLK
  5
40
330
18
100
AcDbEntity
  8
0
100
AcDbBlockEnd
  0
BLOCK
  5
3D
330
15
100
AcDbEntity
 67
     1
  8
0
100
AcDbBlockBegin
  2
*PAPER_SPACE
 70
     0
 10
0.0
 20
0.0
 30
0.0
  3
*PAPER_SPACE
  1

  0
ENDBLK
  5
3E
330
15
100
AcDbEntity
 67
     1
  8
0
100
AcDbBlockEnd
  0
ENDSEC
  0
SECTION
  2
ENTITIES
  0
LWPOLYLINE
  5
26D
330
18
100
AcDbEntity
  8
0
100
AcDbPolyline
 90
       24
 70
     1
 43
0.0
 10
14.41941471641097
 20
6.054745856167149
 10
14.40941471641097
 20
6.064745856167147
 10
13.88541471641097
 20
6.064745856167149
 10
13.36141471641098
 20
6.064745856167147
 10
13.35141471641098
 20
6.054745856167149
 10
13.34141471641098
 20
6.064745856167147
 10
12.92768386177337
 20
6.064745856167147
 10
12.97591471641098
 20
6.244745856167146
 10
12.89314974332994
 20
6.244745856167146
 10
12.83541471641098
 20
6.144745856167147
 10
12.88541471641098
 20
6.144745856167147
 10
12.86397878101649
 20
6.064745856167147
 10
12.45541471641098
 20
6.064745856167147
 42
1.0
 10
12.45541471641098
 20
5.994745856167146
 10
13.88541471641098
 20
5.994745856167146
 10
15.31541471641097
 20
5.994745856167146
 42
1.0
 10
15.31541471641097
 20
6.064745856167147
 10
14.90685065180546
 20
6.064745856167147
 10
14.88541471641097
 20
6.144745856167147
 10
14.93541471641098
 20
6.144745856167147
 10
14.87767968949201
 20
6.244745856167146
 10
14.79491471641098
 20
6.244745856167146
 10
14.84314557104858
 20
6.064745856167147
 10
14.42941471641097
 20
6.064745856167147
  0
TEXT
  5
6D8
330
18
100
AcDbEntity
  8
TEXT
100
AcDbText
 10
13.09523080126901
 20
5.742781419672471
 30
0.0
 40
0.125
  1
PART #110377
  7
ITALICC
 72
     1
 11
13.85118318222139
 21
5.742781419672471
 31
0.0
100
AcDbText
  0
LINE
  5
6D9
330
18
100
AcDbEntity
  8
TEXT
100
AcDbLine
 10
13.81891668117346
 20
5.498427733652637
 30
0.0
 11
13.89556466246602
 21
5.498427733652637
 31
0.0
  0
LINE
  5
6DA
330
18
100
AcDbEntity
  8
TEXT
100
AcDbLine
 10
13.89108477513951
 20
5.562704428309403
 30
0.0
 11
13.82358505749
 21
5.562704428309403
 31
0.0
  0
LWPOLYLINE
  5
6DB
330
18
100
AcDbEntity
  8
TEXT
100
AcDbPolyline
 90
        5
 70
     0
 43
0.0001332181640625
 10
12.18180463863878
 20
5.43947762655159
 10
12.19512645504503
 20
5.43947762655159
 10
12.19512645504503
 20
5.47611262166878
 10
12.23176145016222
 20
5.47611262166878
 10
12.23176145016222
 20
5.489434438075027
  0
LWPOLYLINE
  5
6DC
330
18
100
AcDbEntity
  8
TEXT
100
AcDbPolyline
 90
        3
 70
     0
 43
0.0006660908203125
 10
12.22177008785753
 20
5.536060795496905
 10
12.1351782812169
 20
5.536060795496905
 10
12.1351782812169
 20
5.449468988856279
  0
LWPOLYLINE
  5
6DD
330
18
100
AcDbEntity
  8
TEXT
100
AcDbPolyline
 90
        3
 70
     0
 43
0.0006660908203125
 10
12.22177008785753
 20
5.562704428309406
 10
12.10853464840441
 20
5.562704428309406
 10
12.10853464840441
 20
5.449468988856279
  0
LWPOLYLINE
  5
6DE
330
18
100
AcDbEntity
  8
TEXT
100
AcDbPolyline
 90
        5
 70
     0
 43
0.0001332181640625
 10
12.23176145016222
 20
5.369538090418779
 10
12.23176145016222
 20
5.38285990682503
 10
12.19512645504503
 20
5.38285990682503
 10
12.19512645504503
 20
5.419494901942216
 10
12.18180463863878
 20
5.419494901942216
  0
LWPOLYLINE
  5
6DF
330
18
100
AcDbEntity
  8
TEXT
100
AcDbPolyline
 90
        3
 70
     0
 43
0.0006660908203125
 10
12.1351782812169
 20
5.409503539637531
 10
12.1351782812169
 20
5.322911732996904
 10
12.22177008785753
 20
5.322911732996904
  0
LWPOLYLINE
  5
6E0
330
18
100
AcDbEntity
  8
TEXT
100
AcDbPolyline
 90
        3
 70
     0
 43
0.0006660908203125
 10
12.10853464840441
 20
5.409503539637531
 10
12.10853464840441
 20
5.296268100184403
 10
12.22177008785753
 20
5.296268100184403
  0
LWPOLYLINE
  5
6E1
330
18
100
AcDbEntity
  8
TEXT
100
AcDbPolyline
 90
        2
 70
     0
 43
0.0001332181640625
 10
12.1351782812169
 20
5.409503539637531
 10
12.19512645504503
 20
5.419494901942216
  0
LWPOLYLINE
  5
6E2
330
18
100
AcDbEntity
  8
TEXT
100
AcDbPolyline
 90
        2
 70
     0
 43
0.0001332181640625
 10
12.18180463863878
 20
5.419494901942216
 10
12.10853464840441
 20
5.409503539637531
  0
LWPOLYLINE
  5
6E3
330
18
100
AcDbEntity
  8
TEXT
100
AcDbPolyline
 90
        2
 70
     0
 43
0.0006660908203125
 10
12.1351782812169
 20
5.409503539637531
 10
12.10853464840441
 20
5.409503539637531
  0
LWPOLYLINE
  5
6E4
330
18
100
AcDbEntity
  8
TEXT
100
AcDbPolyline
 90
        2
 70
     0
 43
0.0001332181640625
 10
12.1351782812169
 20
5.322911732996904
 10
12.19512645504503
 20
5.38285990682503
  0
LWPOLYLINE
  5
6E5
330
18
100
AcDbEntity
  8
TEXT
100
AcDbPolyline
 90
        2
 70
     0
 43
0.0006660908203125
 10
12.1351782812169
 20
5.449468988856279
 10
12.10853464840441
 20
5.449468988856279
  0
LWPOLYLINE
  5
6E6
330
18
100
AcDbEntity
  8
TEXT
100
AcDbPolyline
 90
        2
 70
     0
 43
0.0001332181640625
 10
12.10853464840441
 20
5.449468988856279
 10
12.18180463863878
 20
5.43947762655159
  0
LWPOLYLINE
  5
6E7
330
18
100
AcDbEntity
  8
TEXT
100
AcDbPolyline
 90
        2
 70
     0
 43
0.0001332181640625
 10
12.1351782812169
 20
5.449468988856279
 10
12.19512645504503
 20
5.43947762655159
  0
LWPOLYLINE
  5
6E8
330
18
100
AcDbEntity
  8
TEXT
100
AcDbPolyline
 90
        2
 70
     0
 43
0.0001332181640625
 10
12.1351782812169
 20
5.536060795496905
 10
12.19512645504503
 20
5.47611262166878
  0
LWPOLYLINE
  5
6E9
330
18
100
AcDbEntity
  8
TEXT
100
AcDbPolyline
 90
        5
 70
     0
 43
0.0001332181640625
 10
12.30170098629503
 20
5.419494901942216
 10
12.28837916988878
 20
5.419494901942216
 10
12.28837916988878
 20
5.38285990682503
 10
12.25174417477159
 20
5.38285990682503
 10
12.25174417477159
 20
5.369538090418779
  0
LWPOLYLINE
  5
6EA
330
18
100
AcDbEntity
  8
TEXT
100
AcDbPolyline
 90
        2
 70
     0
 43
0.0001332181640625
 10
12.34832734371691
 20
5.409503539637531
 10
12.28837916988878
 20
5.419494901942216
  0
LWPOLYLINE
  5
6EB
330
18
100
AcDbEntity
  8
TEXT
100
AcDbPolyline
 90
        2
 70
     0
 43
0.0001332181640625
 10
12.37497097652941
 20
5.409503539637531
 10
12.30170098629503
 20
5.419494901942216
  0
LWPOLYLINE
  5
6EC
330
18
100
AcDbEntity
  8
TEXT
100
AcDbPolyline
 90
        3
 70
     0
 43
0.0006660908203125
 10
12.26173553707628
 20
5.296268100184403
 10
12.37497097652941
 20
5.296268100184403
 10
12.37497097652941
 20
5.409503539637531
  0
LWPOLYLINE
  5
6ED
330
18
100
AcDbEntity
  8
TEXT
100
AcDbPolyline
 90
        3
 70
     0
 43
0.0006660908203125
 10
12.26173553707628
 20
5.322911732996904
 10
12.34832734371691
 20
5.322911732996904
 10
12.34832734371691
 20
5.409503539637531
  0
LWPOLYLINE
  5
6EE
330
18
100
AcDbEntity
  8
TEXT
100
AcDbPolyline
 90
        2
 70
     0
 43
0.0001332181640625
 10
12.34832734371691
 20
5.322911732996904
 10
12.28837916988878
 20
5.38285990682503
  0
LWPOLYLINE
  5
6EF
330
18
100
AcDbEntity
  8
TEXT
100
AcDbPolyline
 90
        2
 70
     0
 43
0.0006660908203125
 10
12.26173553707628
 20
5.322911732996904
 10
12.26173553707628
 20
5.296268100184403
  0
LWPOLYLINE
  5
6F0
330
18
100
AcDbEntity
  8
TEXT
100
AcDbPolyline
 90
        2
 70
     0
 43
0.0001332181640625
 10
12.25174417477159
 20
5.369538090418779
 10
12.26173553707628
 20
5.296268100184403
  0
LWPOLYLINE
  5
6F1
330
18
100
AcDbEntity
  8
TEXT
100
AcDbPolyline
 90
        2
 70
     0
 43
0.0001332181640625
 10
12.26173553707628
 20
5.322911732996904
 10
12.25174417477159
 20
5.38285990682503
  0
LWPOLYLINE
  5
6F2
330
18
100
AcDbEntity
  8
TEXT
100
AcDbPolyline
 90
        2
 70
     0
 43
0.0001332181640625
 10
12.22177008785753
 20
5.296268100184403
 10
12.23176145016222
 20
5.369538090418779
  0
LWPOLYLINE
  5
6F3
330
18
100
AcDbEntity
  8
TEXT
100
AcDbPolyline
 90
        2
 70
     0
 43
0.0001332181640625
 10
12.22177008785753
 20
5.322911732996904
 10
12.23176145016222
 20
5.38285990682503
  0
LWPOLYLINE
  5
6F4
330
18
100
AcDbEntity
  8
TEXT
100
AcDbPolyline
 90
        2
 70
     0
 43
0.0006660908203125
 10
12.22177008785753
 20
5.322911732996904
 10
12.22177008785753
 20
5.296268100184403
  0
LWPOLYLINE
  5
6F5
330
18
100
AcDbEntity
  8
TEXT
100
AcDbPolyline
 90
        2
 70
     0
 43
0.0006660908203125
 10
12.34832734371691
 20
5.409503539637531
 10
12.37497097652941
 20
5.409503539637531
  0
LWPOLYLINE
  5
6F6
330
18
100
AcDbEntity
  8
TEXT
100
AcDbPolyline
 90
        2
 70
     0
 43
0.0001332181640625
 10
12.34832734371691
 20
5.536060795496905
 10
12.28837916988878
 20
5.47611262166878
  0
LWPOLYLINE
  5
6F7
330
18
100
AcDbEntity
  8
TEXT
100
AcDbPolyline
 90
        2
 70
     0
 43
0.0001332181640625
 10
12.34832734371691
 20
5.449468988856279
 10
12.28837916988878
 20
5.43947762655159
  0
LWPOLYLINE
  5
6F8
330
18
100
AcDbEntity
  8
TEXT
100
AcDbPolyline
 90
        2
 70
     0
 43
0.0001332181640625
 10
12.30170098629503
 20
5.43947762655159
 10
12.37497097652941
 20
5.449468988856279
  0
LWPOLYLINE
  5
6F9
330
18
100
AcDbEntity
  8
TEXT
100
AcDbPolyline
 90
        3
 70
     0
 43
0.0006660908203125
 10
12.34832734371691
 20
5.449468988856279
 10
12.34832734371691
 20
5.536060795496905
 10
12.26173553707628
 20
5.536060795496905
  0
LWPOLYLINE
  5
6FA
330
18
100
AcDbEntity
  8
TEXT
100
AcDbPolyline
 90
        3
 70
     0
 43
0.0006660908203125
 10
12.37497097652941
 20
5.449468988856279
 10
12.37497097652941
 20
5.562704428309406
 10
12.26173553707628
 20
5.562704428309406
  0
LWPOLYLINE
  5
6FB
330
18
100
AcDbEntity
  8
TEXT
100
AcDbPolyline
 90
        2
 70
     0
 43
0.0001332181640625
 10
12.26173553707628
 20
5.562704428309406
 10
12.25174417477159
 20
5.489434438075027
  0
LWPOLYLINE
  5
6FC
330
18
100
AcDbEntity
  8
TEXT
100
AcDbPolyline
 90
        2
 70
     0
 43
0.0001332181640625
 10
12.26173553707628
 20
5.536060795496905
 10
12.25174417477159
 20
5.47611262166878
  0
LWPOLYLINE
  5
6FD
330
18
100
AcDbEntity
  8
TEXT
100
AcDbPolyline
 90
        2
 70
     0
 43
0.0006660908203125
 10
12.26173553707628
 20
5.536060795496905
 10
12.26173553707628
 20
5.562704428309406
  0
LWPOLYLINE
  5
6FE
330
18
100
AcDbEntity
  8
TEXT
100
AcDbPolyline
 90
        5
 70
     0
 43
0.0001332181640625
 10
12.25174417477159
 20
5.489434438075027
 10
12.25174417477159
 20
5.47611262166878
 10
12.28837916988878
 20
5.47611262166878
 10
12.28837916988878
 20
5.43947762655159
 10
12.30170098629503
 20
5.43947762655159
  0
LWPOLYLINE
  5
6FF
330
18
100
AcDbEntity
  8
TEXT
100
AcDbPolyline
 90
        2
 70
     0
 43
0.0001332181640625
 10
12.22177008785753
 20
5.536060795496905
 10
12.23176145016222
 20
5.47611262166878
  0
LWPOLYLINE
  5
700
330
18
100
AcDbEntity
  8
TEXT
100
AcDbPolyline
 90
        2
 70
     0
 43
0.0001332181640625
 10
12.23176145016222
 20
5.489434438075027
 10
12.22177008785753
 20
5.562704428309406
  0
LWPOLYLINE
  5
701
330
18
100
AcDbEntity
  8
TEXT
100
AcDbPolyline
 90
        2
 70
     0
 43
0.0006660908203125
 10
12.22177008785753
 20
5.536060795496905
 10
12.22177008785753
 20
5.562704428309406
  0
LWPOLYLINE
  5
702
330
18
100
AcDbEntity
  8
TEXT
100
AcDbPolyline
 90
        2
 70
     0
 43
0.0006660908203125
 10
12.34832734371691
 20
5.449468988856279
 10
12.37497097652941
 20
5.449468988856279
  0
LWPOLYLINE
  5
703
330
18
100
AcDbEntity
  8
TEXT
100
AcDbPolyline
 90
        2
 70
     0
 43
0.0
 10
13.09375089727804
 20
5.34778273753582
 42
0.3318488747599744
 10
13.16287018984335
 20
5.296231395320892
 42
-6.868794160588311
  0
LINE
  5
704
330
18
100
AcDbEntity
  8
TEXT
100
AcDbLine
 10
13.16173061634716
 20
5.630715906048213
 30
0.0
 11
13.09492190378079
 21
5.630715906048213
 31
0.0
  0
LINE
  5
705
330
18
100
AcDbEntity
  8
TEXT
100
AcDbLine
 10
12.8155795361617
 20
5.562704428309403
 30
0.0
 11
12.63984778326318
 21
5.562704428309403
 31
0.0
  0
ARC
  5
706
330
18
100
AcDbEntity
  8
TEXT
100
AcDbCircle
 10
12.71068524962173
 20
5.379427203681449
 30
0.0
 40
0.0831958083605586
100
AcDbArc
 50
270.0
 51
90.0
  0
LINE
  5
707
330
18
100
AcDbEntity
  8
TEXT
100
AcDbLine
 10
12.64508511337743
 20
5.498427733652637
 30
0.0
 11
12.8119907674064
 21
5.498427733652637
 31
0.0
  0
LINE
  5
708
330
18
100
AcDbEntity
  8
TEXT
100
AcDbLine
 10
12.71562562352801
 20
5.364588401654331
 30
0.0
 11
12.55776032381668
 21
5.364588401654331
 31
0.0
  0
LINE
  5
709
330
18
100
AcDbEntity
  8
TEXT
100
AcDbLine
 10
12.55776032381668
 20
5.296231395320892
 30
0.0
 11
12.71068524962173
 21
5.296231395320892
 31
0.0
  0
ARC
  5
70A
330
18
100
AcDbEntity
  8
TEXT
100
AcDbCircle
 10
12.63984778326318
 20
5.480616968862901
 30
0.0
 40
0.0820874594465043
100
AcDbArc
 50
90.0
 51
270.0
  0
LINE
  5
70B
330
18
100
AcDbEntity
  8
TEXT
100
AcDbLine
 10
12.55776032381668
 20
5.364588401654331
 30
0.0
 11
12.55776032381668
 21
5.296231395320892
 31
0.0
  0
LINE
  5
70C
330
18
100
AcDbEntity
  8
TEXT
100
AcDbLine
 10
12.63984778326318
 20
5.398529509416396
 30
0.0
 11
12.71562562352801
 21
5.398529509416396
 31
0.0
  0
ARC
  5
70D
330
18
100
AcDbEntity
  8
TEXT
100
AcDbCircle
 10
12.71562562352801
 20
5.381558955535365
 30
0.0
 40
0.0169705538810321
100
AcDbArc
 50
270.0
 51
90.0
  0
LINE
  5
70E
330
18
100
AcDbEntity
  8
TEXT
100
AcDbLine
 10
12.71068524962173
 20
5.462623012042009
 30
0.0
 11
12.64508511337743
 21
5.462623012042009
 31
0.0
  0
ARC
  5
70F
330
18
100
AcDbEntity
  8
TEXT
100
AcDbCircle
 10
12.64508511337743
 20
5.480525372847325
 30
0.0
 40
0.017902360805315
100
AcDbArc
 50
90.0
 51
270.0
  0
LINE
  5
710
330
18
100
AcDbEntity
  8
TEXT
100
AcDbLine
 10
13.00605142818155
 20
5.461832432196282
 30
0.0
 11
12.94742110714961
 21
5.562704428309403
 31
0.0
  0
LINE
  5
711
330
18
100
AcDbEntity
  8
TEXT
100
AcDbLine
 10
12.86587737488651
 20
5.296231395320892
 30
0.0
 11
12.9625176259615
 21
5.296502034419174
 31
0.0
  0
LWPOLYLINE
  5
712
330
18
100
AcDbEntity
  8
TEXT
100
AcDbPolyline
 90
        6
 70
     1
 43
0.0
 10
12.90840117846166
 20
5.498427733652637
 10
12.87808458424145
 20
5.498427733652637
 10
12.87808458424145
 20
5.375316735597743
 42
0.407328721240804
 10
12.88962823540293
 20
5.363497820921357
 10
12.95024993444766
 20
5.363497820921357
 10
12.96771527485498
 20
5.396310049964836
  0
LINE
  5
713
330
18
100
AcDbEntity
  8
TEXT
100
AcDbLine
 10
12.8119907674064
 20
5.498427733652637
 30
0.0
 11
12.8119907674064
 21
5.356023786658941
 31
0.0
  0
ARC
  5
714
330
18
100
AcDbEntity
  8
TEXT
100
AcDbCircle
 10
12.87210678538015
 20
5.356023786658941
 30
0.0
 40
0.0601160179737537
100
AcDbArc
 50
180.0000000000003
 51
264.0521544866073
  0
LINE
  5
715
330
18
100
AcDbEntity
  8
TEXT
100
AcDbLine
 10
12.8756221410057
 20
5.597092345903541
 30
0.0
 11
12.8155795361617
 21
5.597092345903541
 31
0.0
  0
LINE
  5
716
330
18
100
AcDbEntity
  8
TEXT
100
AcDbLine
 10
12.8155795361617
 20
5.597092345903541
 30
0.0
 11
12.8155795361617
 21
5.562704428309403
 31
0.0
  0
LINE
  5
717
330
18
100
AcDbEntity
  8
TEXT
100
AcDbLine
 10
12.8756221410057
 20
5.562704428309403
 30
0.0
 11
12.8756221410057
 21
5.597092345903541
 31
0.0
  0
LINE
  5
718
330
18
100
AcDbEntity
  8
TEXT
100
AcDbLine
 10
12.94742110714961
 20
5.562704428309403
 30
0.0
 11
12.8756221410057
 21
5.562704428309403
 31
0.0
  0
LINE
  5
719
330
18
100
AcDbEntity
  8
TEXT
100
AcDbLine
 10
12.99645119118459
 20
5.316189901425905
 30
0.0
 11
13.09375089727804
 21
5.480540112361173
 31
0.0
  0
LINE
  5
71A
330
18
100
AcDbEntity
  8
TEXT
100
AcDbLine
 10
13.09375089727804
 20
5.480540112361173
 30
0.0
 11
13.09375089727804
 21
5.347782737535816
 31
0.0
  0
ARC
  5
71B
330
18
100
AcDbEntity
  8
TEXT
100
AcDbCircle
 10
12.96240763127238
 20
5.335779117594587
 30
0.0
 40
0.0392772371940762
100
AcDbArc
 50
270.1604552698595
 51
330.0831797321295
  0
LINE
  5
71C
330
18
100
AcDbEntity
  8
TEXT
100
AcDbLine
 10
13.06479999098741
 20
5.562704428309403
 30
0.0
 11
13.00605142818155
 21
5.461832432196282
 31
0.0
  0
LINE
  5
71D
330
18
100
AcDbEntity
  8
TEXT
100
AcDbLine
 10
13.09492190378079
 20
5.630715906048213
 30
0.0
 11
13.09492190378079
 21
5.562704428309403
 31
0.0
  0
LINE
  5
71E
330
18
100
AcDbEntity
  8
TEXT
100
AcDbLine
 10
13.09492190378079
 20
5.562704428309403
 30
0.0
 11
13.06479999098741
 21
5.562704428309403
 31
0.0
  0
LWPOLYLINE
  5
71F
330
18
100
AcDbEntity
  8
TEXT
100
AcDbPolyline
 90
        4
 70
     0
 43
0.0
 10
13.44700802540095
 20
5.490873944486527
 10
13.44700802540095
 20
5.296231395320892
 10
13.51548630868881
 20
5.296231395320892
 10
13.51548630868881
 20
5.33972234027133
 42
-1.714843617202739
  0
LWPOLYLINE
  5
720
330
18
100
AcDbEntity
  8
TEXT
100
AcDbPolyline
 90
        2
 70
     0
 43
0.0
 10
13.48214237594516
 20
5.562704428309406
 42
-0.3277054968067132
 10
13.51792406665832
 20
5.534381882539762
 42
6.667889725900311
  0
LWPOLYLINE
  5
721
330
18
100
AcDbEntity
  8
TEXT
100
AcDbPolyline
 90
        2
 70
     0
 43
0.0
 10
13.31070880336593
 20
5.498427733652637
 42
-0.4142135623731017
 10
13.31826259253205
 20
5.490873944486527
 42
-0.9999999999999998
  0
LINE
  5
722
330
18
100
AcDbEntity
  8
TEXT
100
AcDbLine
 10
13.32806052641595
 20
5.562704428309403
 30
0.0
 11
13.19404247048482
 21
5.562704428309403
 31
0.0
  0
LINE
  5
723
330
18
100
AcDbEntity
  8
TEXT
100
AcDbLine
 10
13.26087352354278
 20
5.296231395320892
 30
0.0
 11
13.26087352354278
 21
5.498427733652637
 31
0.0
  0
LINE
  5
724
330
18
100
AcDbEntity
  8
TEXT
100
AcDbLine
 10
13.19404247048482
 20
5.562704428309403
 30
0.0
 11
13.19404247048482
 21
5.361840221576994
 31
0.0
  0
LINE
  5
725
330
18
100
AcDbEntity
  8
TEXT
100
AcDbLine
 10
13.16173061634716
 20
5.378619233423891
 30
0.0
 11
13.16173061634716
 21
5.630715906048213
 31
0.0
  0
LINE
  5
726
330
18
100
AcDbEntity
  8
TEXT
100
AcDbLine
 10
13.16287018984335
 20
5.296231395320892
 30
0.0
 11
13.26087352354278
 21
5.296231395320892
 31
0.0
  0
LINE
  5
727
330
18
100
AcDbEntity
  8
TEXT
100
AcDbLine
 10
13.19404247048482
 20
5.361840221576994
 30
0.0
 11
13.17704883360021
 21
5.361840221576994
 31
0.0
  0
ARC
  5
728
330
18
100
AcDbEntity
  8
TEXT
100
AcDbCircle
 10
13.17704883360021
 20
5.37722202782042
 30
0.0
 40
0.0153818062434269
100
AcDbArc
 50
174.7883570302258
 51
270.0
  0
LINE
  5
729
330
18
100
AcDbEntity
  8
TEXT
100
AcDbLine
 10
13.26087352354278
 20
5.498427733652637
 30
0.0
 11
13.31070880336593
 21
5.498427733652637
 31
0.0
  0
LINE
  5
72A
330
18
100
AcDbEntity
  8
TEXT
100
AcDbLine
 10
13.31826259253205
 20
5.490873944486527
 30
0.0
 11
13.31826259253205
 21
5.296231395320892
 31
0.0
  0
LINE
  5
72B
330
18
100
AcDbEntity
  8
TEXT
100
AcDbLine
 10
13.38532063931388
 20
5.296231395320892
 30
0.0
 11
13.38532063931388
 21
5.498427733652637
 31
0.0
  0
LINE
  5
72C
330
18
100
AcDbEntity
  8
TEXT
100
AcDbLine
 10
13.31826259253205
 20
5.296231395320892
 30
0.0
 11
13.38532063931388
 21
5.296231395320892
 31
0.0
  0
LWPOLYLINE
  5
72D
330
18
100
AcDbEntity
  8
TEXT
100
AcDbPolyline
 90
        3
 70
     0
 43
0.0
 10
13.48214237594516
 20
5.562704428309406
 10
13.36384221712911
 20
5.562704428309406
 10
13.36384221712911
 20
5.53553693154851
 42
-1.960274751411753
  0
LINE
  5
72E
330
18
100
AcDbEntity
  8
TEXT
100
AcDbLine
 10
13.38532063931388
 20
5.498427733652637
 30
0.0
 11
13.43945423623484
 21
5.498427733652637
 31
0.0
  0
LWPOLYLINE
  5
72F
330
18
100
AcDbEntity
  8
TEXT
100
AcDbPolyline
 90
        2
 70
     0
 43
0.0
 10
13.32806052641595
 20
5.562704428309406
 42
-0.3328679258950098
 10
13.36384221712911
 20
5.53553693154851
 42
6.772930709997214
  0
LWPOLYLINE
  5
730
330
18
100
AcDbEntity
  8
TEXT
100
AcDbPolyline
 90
        2
 70
     0
 43
0.0
 10
13.43945423623484
 20
5.498427733652637
 42
-0.4142135623731017
 10
13.44700802540095
 20
5.490873944486527
 42
-0.9999999999999998
  0
ARC
  5
731
330
18
100
AcDbEntity
  8
TEXT
100
AcDbCircle
 10
13.65072903609831
 20
5.5211208611885
 30
0.0
 40
0.0416329381542859
100
AcDbArc
 50
26.56974201007528
 51
87.20939649401342
  0
LWPOLYLINE
  5
732
330
18
100
AcDbEntity
  8
TEXT
100
AcDbPolyline
 90
        2
 70
     0
 43
0.0
 10
13.55856224155644
 20
5.296231395320892
 10
13.69257965918782
 20
5.296231395320892
 42
0.9999999999999998
  0
LWPOLYLINE
  5
733
330
18
100
AcDbEntity
  8
TEXT
100
AcDbPolyline
 90
        4
 70
     1
 43
0.0
 10
13.67245719411793
 20
5.399195373304917
 10
13.58379687545807
 20
5.399195373304917
 42
0.9999999999999998
 10
13.58379687545807
 20
5.356796832801056
 10
13.67245719411793
 20
5.356796832801056
 42
1.0
  0
LWPOLYLINE
  5
734
330
18
100
AcDbEntity
  8
TEXT
100
AcDbPolyline
 90
        2
 70
     0
 43
0.0
 10
13.51548630868881
 20
5.33972234027133
 42
0.2901071551932823
 10
13.55856224155644
 20
5.296231395320892
 42
5.328517124445801
  0
LINE
  5
735
330
18
100
AcDbEntity
  8
TEXT
100
AcDbLine
 10
13.65275597587538
 20
5.562704428309403
 30
0.0
 11
13.51792406665832
 21
5.562704428309403
 31
0.0
  0
LINE
  5
736
330
18
100
AcDbEntity
  8
TEXT
100
AcDbLine
 10
13.57723816305164
 20
5.461152760190505
 30
0.0
 11
13.65952615283503
 21
5.461152760190505
 31
0.0
  0
LINE
  5
737
330
18
100
AcDbEntity
  8
TEXT
100
AcDbLine
 10
13.62372507753091
 20
5.498427733652637
 30
0.0
 11
13.51651880414362
 21
5.498427733652637
 31
0.0
  0
LINE
  5
738
330
18
100
AcDbEntity
  8
TEXT
100
AcDbLine
 10
13.51792406665832
 20
5.562704428309403
 30
0.0
 11
13.51792406665832
 21
5.534381882539759
 31
0.0
  0
ARC
  5
739
330
18
100
AcDbEntity
  8
TEXT
100
AcDbCircle
 10
13.57723816305164
 20
5.393467179046386
 30
0.0
 40
0.0676855811441166
100
AcDbArc
 50
90.0
 51
153.7768192527749
  0
LINE
  5
73A
330
18
100
AcDbEntity
  8
TEXT
100
AcDbLine
 10
13.51651880414362
 20
5.498427733652637
 30
0.0
 11
13.51651880414362
 21
5.423375327578431
 31
0.0
  0
LINE
  5
73B
330
18
100
AcDbEntity
  8
TEXT
100
AcDbLine
 10
13.65952615283503
 20
5.461152760190505
 30
0.0
 11
13.64926139242146
 21
5.482403299763199
 31
0.0
  0
ARC
  5
73C
330
18
100
AcDbEntity
  8
TEXT
100
AcDbCircle
 10
13.6237250775309
 20
5.47006835865264
 30
0.0
 40
0.028359375
100
AcDbArc
 50
25.78218179591245
 51
90.0
  0
LINE
  5
73D
330
18
100
AcDbEntity
  8
TEXT
100
AcDbLine
 10
13.7940108058908
 20
5.296231395320892
 30
0.0
 11
13.79401080589079
 21
5.47352190075236
 31
0.0
  0
LWPOLYLINE
  5
73E
330
18
100
AcDbEntity
  8
TEXT
100
AcDbPolyline
 90
        2
 70
     0
 43
0.0
 10
13.73565559205546
 20
5.296231395320892
 10
13.7940108058908
 20
5.296231395320892
  0
LWPOLYLINE
  5
73F
330
18
100
AcDbEntity
  8
TEXT
100
AcDbPolyline
 90
        2
 70
     0
 43
0.0
 10
13.73565559205546
 20
5.33972234027133
 42
-0.2901071551932486
 10
13.69257965918782
 20
5.296231395320892
 42
-5.328517124445184
  0
LWPOLYLINE
  5
740
330
18
100
AcDbEntity
  8
TEXT
100
AcDbPolyline
 90
        2
 70
     0
 43
0.0
 10
13.73565559205546
 20
5.33972234027133
 10
13.73565559205546
 20
5.296231395320892
  0
LINE
  5
741
330
18
100
AcDbEntity
  8
TEXT
100
AcDbLine
 10
13.79561282104992
 20
5.562704428309403
 30
0.0
 11
13.73171591475042
 21
5.562704428309403
 31
0.0
  0
LINE
  5
742
330
18
100
AcDbEntity
  8
TEXT
100
AcDbLine
 10
13.73171591475042
 20
5.562704428309403
 30
0.0
 11
13.73171591475042
 21
5.457492449755975
 31
0.0
  0
LINE
  5
743
330
18
100
AcDbEntity
  8
TEXT
100
AcDbLine
 10
13.73171591475042
 20
5.457492449755975
 30
0.0
 11
13.68796514356852
 21
5.539742725752121
 31
0.0
  0
ARC
  5
744
330
18
100
AcDbEntity
  8
TEXT
100
AcDbCircle
 10
13.81891668117346
 20
5.473521858369974
 30
0.0
 40
0.0249058752826653
100
AcDbArc
 50
89.99971217465335
 51
179.9999999999985
  0
ARC
  5
745
330
18
100
AcDbEntity
  8
TEXT
100
AcDbCircle
 10
13.82680563811303
 20
5.531458701027138
 30
0.0
 40
0.0314112657011332
100
AcDbArc
 50
95.88484768694724
 51
173.2388340632136
  0
LINE
  5
746
330
18
100
AcDbEntity
  8
TEXT
100
AcDbLine
 10
13.79561282104992
 20
5.535156778448528
 30
0.0
 11
13.79561282104992
 21
5.562704428309403
 31
0.0
  0
TEXT
  5
747
330
18
100
AcDbEntity
  8
TEXT
100
AcDbText
 10
14.26448834047172
 20
5.389117203966388
 30
0.0
 40
0.0522247191011236
  1
Minneapolis, MN 55432-0008
 41
1.11444212721585
 72
     5
 11
15.59342092474138
 21
5.389117203966388
 31
0.0
100
AcDbText
  0
TEXT
  5
748
330
18
100
AcDbEntity
  8
TEXT
100
AcDbText
 10
14.26448834047172
 20
5.48237563093268
 30
0.0
 40
0.0522247191011236
  1
6536 Main St. N.E. * P.O. Box 32008
 41
0.8388932496075369
 72
     5
 11
15.59342092474138
 21
5.48237563093268
 31
0.0
100
AcDbText
  0
TEXT
  5
749
330
18
100
AcDbEntity
  8
TEXT
100
AcDbText
 10
14.26448834047172
 20
5.575634057898972
 30
0.0
 40
0.0522247191011236
  1
Stylmark  Incorporated
 41
1.221428571428571
 72
     5
 11
15.59342092474138
 21
5.575634057898972
 31
0.0
100
AcDbText
  0
TEXT
  5
74A
330
18
100
AcDbEntity
  8
TEXT
100
AcDbText
 10
14.26448834047172
 20
5.295858777000096
 30
0.0
 40
0.0522247191011236
  1
Phone  1-800-328-2495
 41
1.272321428571429
 72
     5
 11
15.59342092474138
 21
5.295858777000096
 31
0.0
100
AcDbText
  0
LINE
  5
74B
330
18
100
AcDbEntity
  8
TEXT
100
AcDbLine
 10
14.0169325290087
 20
5.452811185368429
 30
0.0
 11
14.08148964497441
 21
5.562704428309403
 31
0.0
  0
LINE
  5
74C
330
18
100
AcDbEntity
  8
TEXT
100
AcDbLine
 10
14.08148964497441
 20
5.562704428309403
 30
0.0
 11
14.00649781224478
 21
5.562704428309403
 31
0.0
  0
LINE
  5
74D
330
18
100
AcDbEntity
  8
TEXT
100
AcDbLine
 10
14.0358463799961
 20
5.296231395320892
 30
0.0
 11
14.11242475237231
 21
5.296231395320892
 31
0.0
  0
LINE
  5
74E
330
18
100
AcDbEntity
  8
TEXT
100
AcDbLine
 10
14.11242475237231
 20
5.296231395320892
 30
0.0
 11
14.0169325290087
 21
5.452811185368429
 31
0.0
  0
LINE
  5
74F
330
18
100
AcDbEntity
  8
TEXT
100
AcDbLine
 10
13.95994284678464
 20
5.296231395320892
 30
0.0
 11
13.95994284678464
 21
5.427810963797072
 31
0.0
  0
LINE
  5
750
330
18
100
AcDbEntity
  8
TEXT
100
AcDbLine
 10
13.95994284678464
 20
5.427810963797072
 30
0.0
 11
14.0358463799961
 21
5.296231395320892
 31
0.0
  0
LINE
  5
751
330
18
100
AcDbEntity
  8
TEXT
100
AcDbLine
 10
13.89556466246602
 20
5.498427733652637
 30
0.0
 11
13.89556466246602
 21
5.296231395320892
 31
0.0
  0
LINE
  5
752
330
18
100
AcDbEntity
  8
TEXT
100
AcDbLine
 10
13.89556466246602
 20
5.296231395320892
 30
0.0
 11
13.95994284678464
 21
5.296231395320892
 31
0.0
  0
LINE
  5
753
330
18
100
AcDbEntity
  8
TEXT
100
AcDbLine
 10
13.95939965368879
 20
5.628168634077003
 30
0.0
 11
13.89108477513952
 21
5.628168634077003
 31
0.0
  0
LINE
  5
754
330
18
100
AcDbEntity
  8
TEXT
100
AcDbLine
 10
13.89108477513952
 20
5.628168634077003
 30
0.0
 11
13.89108477513951
 21
5.562704428309403
 31
0.0
  0
LINE
  5
755
330
18
100
AcDbEntity
  8
TEXT
100
AcDbLine
 10
14.00649781224478
 20
5.562704428309403
 30
0.0
 11
13.95939965368879
 21
5.486839101897865
 31
0.0
  0
LINE
  5
756
330
18
100
AcDbEntity
  8
TEXT
100
AcDbLine
 10
13.95939965368879
 20
5.486839101897865
 30
0.0
 11
13.95939965368879
 21
5.628168634077003
 31
0.0
  0
ENDSEC
  0
SECTION
  2
OBJECTS
  0
DICTIONARY
  5
C
330
0
100
AcDbDictionary
  3
ACAD_GROUP
350
D
  3
ACAD_LAYOUT
350
75B
  3
ACAD_MLINESTYLE
350
E
  3
ACAD_PLOTSETTINGS
350
75C
  3
ACAD_PLOTSTYLENAME
350
759
  3
ACDBHEADERROUNDTRIPXREC
350
766
  3
ACDBVARIABLEDICTIONARY
350
763
  0
DICTIONARY
  5
788
330
18
100
AcDbDictionary
280
     1
  3
ACAD_LAYOUTSELFREF
360
789
  0
DICTIONARY
  5
786
330
15
100
AcDbDictionary
280
     1
  3
ACAD_LAYOUTSELFREF
360
787
  0
DICTIONARY
  5
D
102
{ACAD_REACTORS
330
C
102
}
330
C
100
AcDbDictionary
  3
*A1
350
294
  3
*A2
350
5FD
  0
DICTIONARY
  5
75B
102
{ACAD_REACTORS
330
C
102
}
330
C
100
AcDbDictionary
  0
DICTIONARY
  5
E
102
{ACAD_REACTORS
330
C
102
}
330
C
100
AcDbDictionary
  3
STANDARD
350
1B
  0
DICTIONARY
  5
75C
102
{ACAD_REACTORS
330
C
102
}
330
C
100
AcDbDictionary
  0
ACDBDICTIONARYWDFLT
  5
759
102
{ACAD_REACTORS
330
C
102
}
330
C
100
AcDbDictionary
281
     1
  3
Normal
350
75A
100
AcDbDictionaryWithDefault
340
75A
  0
DICTIONARY
  5
766
102
{ACAD_REACTORS
330
C
102
}
330
C
100
AcDbDictionary
  3
CEPSNTYPE
350
770
  3
FINGERPRINTGUID
350
771
  3
HYPERLINKBASE
350
769
  3
INSUNITS
350
76F
  3
LAYOUTDICT
350
76B
  3
LWETCUNION
350
76E
  3
PLOTSETDICT
350
76C
  3
PLOTSTYLNAMDICT
350
76D
  3
PSVPSCALE
350
773
  3
PUCSBASE
350
776
  3
PUCSORGBACK
350
77C
  3
PUCSORGBOTTOM
350
778
  3
PUCSORGFRONT
350
77B
  3
PUCSORGLEFT
350
779
  3
PUCSORGRIGHT
350
77A
  3
PUCSORGTOP
350
777
  3
PUCSORTHOREF
350
774
  3
PUCSORTHOVIEW
350
775
  3
STYLESHEET
350
76A
  3
TSTACKALIGN
350
767
  3
TSTACKSIZE
350
768
  3
UCSBASE
350
77F
  3
UCSORGBACK
350
785
  3
UCSORGBOTTOM
350
781
  3
UCSORGFRONT
350
784
  3
UCSORGLEFT
350
782
  3
UCSORGRIGHT
350
783
  3
UCSORGTOP
350
780
  3
UCSORTHOREF
350
77D
  3
UCSORTHOVIEW
350
77E
  3
VERSIONGUID
350
772
  0
DICTIONARY
  5
763
102
{ACAD_REACTORS
330
C
102
}
330
C
100
AcDbDictionary
  3
DIMASSOC
350
764
  0
XRECORD
  5
789
102
{ACAD_REACTORS
330
788
102
}
330
788
100
AcDbXrecord
340
18
  0
XRECORD
  5
787
102
{ACAD_REACTORS
330
786
102
}
330
786
100
AcDbXrecord
340
15
  0
GROUP
  5
294
102
{ACAD_REACTORS
330
D
102
}
330
D
100
AcDbGroup
300
BORDER FRAME 10-1-95
 70
     3
 71
     1
  0
GROUP
  5
5FD
102
{ACAD_REACTORS
330
D
102
}
330
D
100
AcDbGroup
300

 70
     1
 71
     1
  0
MLINESTYLE
  5
1B
102
{ACAD_REACTORS
330
E
102
}
330
E
100
AcDbMlineStyle
  2
STANDARD
 70
     0
  3

 62
     0
 51
90.0
 52
90.0
 71
     2
 49
0.5
 62
   256
  6
BYLAYER
 49
-0.5
 62
   256
  6
BYLAYER
  0
ACDBPLACEHOLDER
  5
75A
102
{ACAD_REACTORS
330
759
102
}
330
759
100
AcDbPlaceHolder
280
     0
  0
XRECORD
  5
770
102
{ACAD_REACTORS
330
766
102
}
330
766
100
AcDbXrecord
 90
        0
  0
XRECORD
  5
771
102
{ACAD_REACTORS
330
766
102
}
330
766
100
AcDbXrecord
  1
{B71AA820-8DB6-11D6-88E6-0090279574E7}
  0
XRECORD
  5
769
102
{ACAD_REACTORS
330
766
102
}
330
766
100
AcDbXrecord
  1

  0
XRECORD
  5
76F
102
{ACAD_REACTORS
330
766
102
}
330
766
100
AcDbXrecord
 90
        0
  0
XRECORD
  5
76B
102
{ACAD_REACTORS
330
766
102
}
330
766
100
AcDbXrecord
340
75B
  0
XRECORD
  5
76E
102
{ACAD_REACTORS
330
766
102
}
330
766
100
AcDbXrecord
 90
    14877
  0
XRECORD
  5
76C
102
{ACAD_REACTORS
330
766
102
}
330
766
100
AcDbXrecord
340
75C
  0
XRECORD
  5
76D
102
{ACAD_REACTORS
330
766
102
}
330
766
100
AcDbXrecord
340
759
  0
XRECORD
  5
773
102
{ACAD_REACTORS
330
766
102
}
330
766
100
AcDbXrecord
 40
0.0
  0
XRECORD
  5
776
102
{ACAD_REACTORS
330
766
102
}
330
766
100
AcDbXrecord
340
0
  0
XRECORD
  5
77C
102
{ACAD_REACTORS
330
766
102
}
330
766
100
AcDbXrecord
 10
0.0
 20
0.0
 30
0.0
  0
XRECORD
  5
778
102
{ACAD_REACTORS
330
766
102
}
330
766
100
AcDbXrecord
 10
0.0
 20
0.0
 30
0.0
  0
XRECORD
  5
77B
102
{ACAD_REACTORS
330
766
102
}
330
766
100
AcDbXrecord
 10
0.0
 20
0.0
 30
0.0
  0
XRECORD
  5
779
102
{ACAD_REACTORS
330
766
102
}
330
766
100
AcDbXrecord
 10
0.0
 20
0.0
 30
0.0
  0
XRECORD
  5
77A
102
{ACAD_REACTORS
330
766
102
}
330
766
100
AcDbXrecord
 10
0.0
 20
0.0
 30
0.0
  0
XRECORD
  5
777
102
{ACAD_REACTORS
330
766
102
}
330
766
100
AcDbXrecord
 10
0.0
 20
0.0
 30
0.0
  0
XRECORD
  5
774
102
{ACAD_REACTORS
330
766
102
}
330
766
100
AcDbXrecord
340
0
  0
XRECORD
  5
775
102
{ACAD_REACTORS
330
766
102
}
330
766
100
AcDbXrecord
 70
     0
  0
XRECORD
  5
76A
102
{ACAD_REACTORS
330
766
102
}
330
766
100
AcDbXrecord
  1

  0
XRECORD
  5
767
102
{ACAD_REACTORS
330
766
102
}
330
766
100
AcDbXrecord
 90
        1
  0
XRECORD
  5
768
102
{ACAD_REACTORS
330
766
102
}
330
766
100
AcDbXrecord
 90
       70
  0
XRECORD
  5
77F
102
{ACAD_REACTORS
330
766
102
}
330
766
100
AcDbXrecord
340
0
  0
XRECORD
  5
785
102
{ACAD_REACTORS
330
766
102
}
330
766
100
AcDbXrecord
 10
0.0
 20
0.0
 30
0.0
  0
XRECORD
  5
781
102
{ACAD_REACTORS
330
766
102
}
330
766
100
AcDbXrecord
 10
0.0
 20
0.0
 30
0.0
  0
XRECORD
  5
784
102
{ACAD_REACTORS
330
766
102
}
330
766
100
AcDbXrecord
 10
0.0
 20
0.0
 30
0.0
  0
XRECORD
  5
782
102
{ACAD_REACTORS
330
766
102
}
330
766
100
AcDbXrecord
 10
0.0
 20
0.0
 30
0.0
  0
XRECORD
  5
783
102
{ACAD_REACTORS
330
766
102
}
330
766
100
AcDbXrecord
 10
0.0
 20
0.0
 30
0.0
  0
XRECORD
  5
780
102
{ACAD_REACTORS
330
766
102
}
330
766
100
AcDbXrecord
 10
0.0
 20
0.0
 30
0.0
  0
XRECORD
  5
77D
102
{ACAD_REACTORS
330
766
102
}
330
766
100
AcDbXrecord
340
0
  0
XRECORD
  5
77E
102
{ACAD_REACTORS
330
766
102
}
330
766
100
AcDbXrecord
 70
     0
  0
XRECORD
  5
772
102
{ACAD_REACTORS
330
766
102
}
330
766
100
AcDbXrecord
  1
{B71AA822-8DB6-11D6-88E6-0090279574E7}
  0
DICTIONARYVAR
  5
764
102
{ACAD_REACTORS
330
763
102
}
330
763
100
DictionaryVariables
280
     0
  1
1
  0
ENDSEC
  0
EOF
