  0
SECTION
  2
HEADER
  9
$ACADVER
  1
AC1014
  9
$ACADMAINTVER
 70
     9
  9
$DWGCODEPAGE
  3
ANSI_1252
  9
$INSBASE
 10
0.0
 20
0.0
 30
0.0
  9
$EXTMIN
 10
-5.261326810082064
 20
3.158991605432948
 30
0.0
  9
$EXTMAX
 10
-1.776107488334936
 20
8.137345853530661
 30
0.0
  9
$LIMMIN
 10
0.0
 20
0.0
  9
$LIMMAX
 10
11.0
 20
8.5
  9
$ORTHOMODE
 70
     0
  9
$REGENMODE
 70
     1
  9
$FILLMODE
 70
     1
  9
$QTEXTMODE
 70
     0
  9
$MIRRTEXT
 70
     0
  9
$DRAGMODE
 70
     2
  9
$LTSCALE
 40
1.0
  9
$OSMODE
 70
    39
  9
$ATTMODE
 70
     1
  9
$TEXTSIZE
 40
0.125
  9
$TRACEWID
 40
0.05
  9
$TEXTSTYLE
  7
ROMANS
  9
$CLAYER
  8
0
  9
$CELTYPE
  6
BYLAYER
  9
$CECOLOR
 62
   256
  9
$CELTSCALE
 40
1.0
  9
$DELOBJ
 70
     1
  9
$DISPSILH
 70
     1
  9
$DIMSCALE
 40
2.0
  9
$DIMASZ
 40
0.125
  9
$DIMEXO
 40
0.125
  9
$DIMDLI
 40
0.375
  9
$DIMRND
 40
0.0
  9
$DIMDLE
 40
0.0
  9
$DIMEXE
 40
0.125
  9
$DIMTP
 40
0.042
  9
$DIMTM
 40
0.042
  9
$DIMTXT
 40
0.125
  9
$DIMCEN
 40
-0.125
  9
$DIMTSZ
 40
0.0
  9
$DIMTOL
 70
     0
  9
$DIMLIM
 70
     0
  9
$DIMTIH
 70
     1
  9
$DIMTOH
 70
     1
  9
$DIMSE1
 70
     0
  9
$DIMSE2
 70
     0
  9
$DIMTAD
 70
     0
  9
$DIMZIN
 70
     4
  9
$DIMBLK
  1

  9
$DIMASO
 70
     1
  9
$DIMSHO
 70
     1
  9
$DIMPOST
  1

  9
$DIMAPOST
  1

  9
$DIMALT
 70
     0
  9
$DIMALTD
 70
     2
  9
$DIMALTF
 40
25.4
  9
$DIMLFAC
 40
1.0
  9
$DIMTOFL
 70
     0
  9
$DIMTVP
 40
0.0
  9
$DIMTIX
 70
     0
  9
$DIMSOXD
 70
     0
  9
$DIMSAH
 70
     0
  9
$DIMBLK1
  1

  9
$DIMBLK2
  1

  9
$DIMSTYLE
  2
STANDARD
  9
$DIMCLRD
 70
     0
  9
$DIMCLRE
 70
     0
  9
$DIMCLRT
 70
     0
  9
$DIMTFAC
 40
1.0
  9
$DIMGAP
 40
0.09
  9
$DIMJUST
 70
     0
  9
$DIMSD1
 70
     0
  9
$DIMSD2
 70
     0
  9
$DIMTOLJ
 70
     1
  9
$DIMTZIN
 70
     4
  9
$DIMALTZ
 70
     0
  9
$DIMALTTZ
 70
     0
  9
$DIMFIT
 70
     3
  9
$DIMUPT
 70
     0
  9
$DIMUNIT
 70
     2
  9
$DIMDEC
 70
     3
  9
$DIMTDEC
 70
     3
  9
$DIMALTU
 70
     2
  9
$DIMALTTD
 70
     2
  9
$DIMTXSTY
  7
ROMANS
  9
$DIMAUNIT
 70
     0
  9
$LUNITS
 70
     2
  9
$LUPREC
 70
     3
  9
$SKETCHINC
 40
0.1
  9
$FILLETRAD
 40
0.4
  9
$AUNITS
 70
     0
  9
$AUPREC
 70
     0
  9
$MENU
  1
automstr
  9
$ELEVATION
 40
0.0
  9
$PELEVATION
 40
0.0
  9
$THICKNESS
 40
0.0
  9
$LIMCHECK
 70
     0
  9
$BLIPMODE
 70
     0
  9
$CHAMFERA
 40
0.0
  9
$CHAMFERB
 40
0.0
  9
$CHAMFERC
 40
0.0
  9
$CHAMFERD
 40
0.0
  9
$SKPOLY
 70
     0
  9
$TDCREATE
 40
2448082.608760647
  9
$TDUPDATE
 40
2452458.308828773
  9
$TDINDWG
 40
0.0257438310
  9
$TDUSRTIMER
 40
0.0257438310
  9
$USRTIMER
 70
     1
  9
$ANGBASE
 50
0.0
  9
$ANGDIR
 70
     0
  9
$PDMODE
 70
    35
  9
$PDSIZE
 40
0.0
  9
$PLINEWID
 40
0.0
  9
$COORDS
 70
     2
  9
$SPLFRAME
 70
     0
  9
$SPLINETYPE
 70
     6
  9
$SPLINESEGS
 70
     8
  9
$ATTDIA
 70
     0
  9
$ATTREQ
 70
     1
  9
$HANDLING
 70
 22529
  9
$HANDSEED
  5
9C4
  9
$SURFTAB1
 70
     6
  9
$SURFTAB2
 70
     6
  9
$SURFTYPE
 70
     6
  9
$SURFU
 70
     6
  9
$SURFV
 70
     6
  9
$UCSNAME
  2

  9
$UCSORG
 10
0.0
 20
0.0
 30
0.0
  9
$UCSXDIR
 10
1.0
 20
0.0
 30
0.0
  9
$UCSYDIR
 10
0.0
 20
1.0
 30
0.0
  9
$PUCSNAME
  2

  9
$PUCSORG
 10
0.0
 20
0.0
 30
0.0
  9
$PUCSXDIR
 10
1.0
 20
0.0
 30
0.0
  9
$PUCSYDIR
 10
0.0
 20
1.0
 30
0.0
  9
$USERI1
 70
     0
  9
$USERI2
 70
     0
  9
$USERI3
 70
     0
  9
$USERI4
 70
     0
  9
$USERI5
 70
     0
  9
$USERR1
 40
0.0
  9
$USERR2
 40
0.0
  9
$USERR3
 40
0.0
  9
$USERR4
 40
0.0
  9
$USERR5
 40
0.0
  9
$WORLDVIEW
 70
     1
  9
$SHADEDGE
 70
     3
  9
$SHADEDIF
 70
    70
  9
$TILEMODE
 70
     1
  9
$MAXACTVP
 70
    16
  9
$PINSBASE
 10
0.0
 20
0.0
 30
0.0
  9
$PLIMCHECK
 70
     0
  9
$PEXTMIN
 10
1.000000000000000E+20
 20
1.000000000000000E+20
 30
1.000000000000000E+20
  9
$PEXTMAX
 10
-1.000000000000000E+20
 20
-1.000000000000000E+20
 30
-1.000000000000000E+20
  9
$PLIMMIN
 10
0.0
 20
0.0
  9
$PLIMMAX
 10
12.0
 20
9.0
  9
$UNITMODE
 70
     0
  9
$VISRETAIN
 70
     0
  9
$PLINEGEN
 70
     1
  9
$PSLTSCALE
 70
     0
  9
$TREEDEPTH
 70
  3020
  9
$PICKSTYLE
 70
     1
  9
$CMLSTYLE
  2
STANDARD
  9
$CMLJUST
 70
     0
  9
$CMLSCALE
 40
1.0
  9
$PROXYGRAPHICS
 70
     1
  9
$MEASUREMENT
 70
     0
  0
ENDSEC
  0
SECTION
  2
CLASSES
  0
CLASS
  1
LWPOLYLINE
  2
AcDbPolyline
  3
AutoCAD 2000
 90
        0
280
     0
281
     1
  0
CLASS
  1
ACDBDICTIONARYWDFLT
  2
AcDbDictionaryWithDefault
  3
AutoCAD 2000
 90
        0
280
     0
281
     0
  0
CLASS
  1
ACDBPLACEHOLDER
  2
AcDbPlaceHolder
  3
AutoCAD 2000
 90
        0
280
     0
281
     0
  0
CLASS
  1
LAYOUT
  2
AcDbLayout
  3
AutoCAD 2000
 90
        0
280
     0
281
     0
  0
CLASS
  1
DICTIONARYVAR
  2
AcDbDictionaryVar
  3
AutoCAD 2000
 90
        0
280
     0
281
     0
  0
CLASS
  1
LONG_TRANSACTION
  2
AcDbLongTransaction
  3
AutoCAD 2000
 90
        0
280
     0
281
     0
  0
CLASS
  1
LWPOLYLINE
  2
AcDbPolyline
  3
AutoCAD 2000
 90
        0
280
     0
281
     1
  0
CLASS
  1
HATCH
  2
AcDbHatch
  3
AutoCAD 2000
 90
        0
280
     0
281
     1
  0
CLASS
  1
XRECORD
  2
AcDbXrecord
  3
AutoCAD 2000
 90
        0
280
     0
281
     0
  0
ENDSEC
  0
SECTION
  2
TABLES
  0
TABLE
  2
VPORT
  5
8
330
0
100
AcDbSymbolTable
 70
     2
  0
VPORT
  5
99F
330
8
100
AcDbSymbolTableRecord
100
AcDbViewportTableRecord
  2
*ACTIVE
 70
     0
 10
0.0
 20
0.0
 11
1.0
 21
1.0
 12
3.265561735923691
 22
5.648170190903089
 13
0.0
 23
0.0
 14
0.015625
 24
0.015625
 15
0.0
 25
0.0
 16
0.0
 26
0.0
 36
1.0
 17
0.0
 27
0.0
 37
0.0
 40
5.023280566362302
 41
4.320930232558139
 42
50.0
 43
0.0
 44
0.0
 50
0.0
 51
0.0
 71
     0
 72
  2000
 73
     1
 74
     1
 75
     0
 76
     0
 77
     0
 78
     0
  0
ENDTAB
  0
TABLE
  2
LTYPE
  5
5
330
0
100
AcDbSymbolTable
 70
     1
  0
LTYPE
  5
12
330
5
100
AcDbSymbolTableRecord
100
AcDbLinetypeTableRecord
  2
BYBLOCK
 70
     0
  3

 72
    65
 73
     0
 40
0.0
  0
LTYPE
  5
13
330
5
100
AcDbSymbolTableRecord
100
AcDbLinetypeTableRecord
  2
BYLAYER
 70
     0
  3

 72
    65
 73
     0
 40
0.0
  0
LTYPE
  5
14
330
5
100
AcDbSymbolTableRecord
100
AcDbLinetypeTableRecord
  2
CONTINUOUS
 70
     0
  3
Solid line
 72
    65
 73
     0
 40
0.0
  0
ENDTAB
  0
TABLE
  2
LAYER
  5
2
330
0
100
AcDbSymbolTable
 70
     2
  0
LAYER
  5
F
330
2
100
AcDbSymbolTableRecord
100
AcDbLayerTableRecord
  2
0
 70
     0
 62
     7
  6
CONTINUOUS
  0
LAYER
  5
33
330
2
100
AcDbSymbolTableRecord
100
AcDbLayerTableRecord
  2
TEXT
 70
     0
 62
     3
  6
CONTINUOUS
  0
ENDTAB
  0
TABLE
  2
STYLE
  5
3
330
0
100
AcDbSymbolTable
 70
     3
  0
STYLE
  5
10
330
3
100
AcDbSymbolTableRecord
100
AcDbTextStyleTableRecord
  2
STANDARD
 70
     0
 40
0.0
 41
1.0
 50
0.0
 71
     0
 42
0.125
  3
txt
  4

  0
STYLE
  5
499
330
3
100
AcDbSymbolTableRecord
100
AcDbTextStyleTableRecord
  2
ROMANS
 70
     0
 40
0.0
 41
1.0
 50
0.0
 71
     0
 42
0.125
  3
romans.shx
  4

  0
STYLE
  5
88D
330
3
100
AcDbSymbolTableRecord
100
AcDbTextStyleTableRecord
  2
ITALICC
 70
     0
 40
0.0
 41
1.0
 50
0.0
 71
     0
 42
0.125
  3
italicc
  4

  0
ENDTAB
  0
TABLE
  2
VIEW
  5
6
330
0
100
AcDbSymbolTable
 70
     0
  0
ENDTAB
  0
TABLE
  2
UCS
  5
7
330
0
100
AcDbSymbolTable
 70
     0
  0
ENDTAB
  0
TABLE
  2
APPID
  5
9
330
0
100
AcDbSymbolTable
 70
     1
  0
APPID
  5
11
330
9
100
AcDbSymbolTableRecord
100
AcDbRegAppTableRecord
  2
ACAD
 70
     0
  0
ENDTAB
  0
TABLE
  2
DIMSTYLE
  5
A
330
0
100
AcDbSymbolTable
 70
     1
  0
DIMSTYLE
105
48E
330
A
100
AcDbSymbolTableRecord
100
AcDbDimStyleTableRecord
  2
STANDARD
 70
     0
  3

  4

  5

  6

  7

 40
2.0
 41
0.125
 42
0.125
 43
0.375
 44
0.125
 45
0.0
 46
0.0
 47
0.042
 48
0.042
140
0.125
141
-0.125
142
0.0
143
25.4
144
1.0
145
0.0
146
1.0
147
0.09
 71
     0
 72
     0
 73
     1
 74
     1
 75
     0
 76
     0
 77
     0
 78
     4
170
     0
171
     2
172
     0
173
     0
174
     0
175
     0
176
     0
177
     0
178
     0
270
     2
271
     3
272
     3
273
     2
274
     2
340
499
275
     0
280
     0
281
     0
282
     0
283
     1
284
     4
285
     0
286
     0
287
     3
288
     0
  0
ENDTAB
  0
TABLE
  2
BLOCK_RECORD
  5
1
330
0
100
AcDbSymbolTable
 70
     0
  0
BLOCK_RECORD
  5
18
102
{ACAD_XDICTIONARY
360
9C2
102
}
330
1
100
AcDbSymbolTableRecord
100
AcDbBlockTableRecord
  2
*MODEL_SPACE
  0
BLOCK_RECORD
  5
15
102
{ACAD_XDICTIONARY
360
9C0
102
}
330
1
100
AcDbSymbolTableRecord
100
AcDbBlockTableRecord
  2
*PAPER_SPACE
  0
ENDTAB
  0
ENDSEC
  0
SECTION
  2
BLOCKS
  0
BLOCK
  5
3B
330
18
100
AcDbEntity
  8
0
100
AcDbBlockBegin
  2
*MODEL_SPACE
 70
     0
 10
0.0
 20
0.0
 30
0.0
  3
*MODEL_SPACE
  1

  0
ENDBLK
  5
3C
330
18
100
AcDbEntity
  8
0
100
AcDbBlockEnd
  0
BLOCK
  5
39
330
15
100
AcDbEntity
 67
     1
  8
0
100
AcDbBlockBegin
  2
*PAPER_SPACE
 70
     0
 10
0.0
 20
0.0
 30
0.0
  3
*PAPER_SPACE
  1

  0
ENDBLK
  5
3A
330
15
100
AcDbEntity
 67
     1
  8
0
100
AcDbBlockEnd
  0
ENDSEC
  0
SECTION
  2
ENTITIES
  0
LWPOLYLINE
  5
3DA
330
18
100
AcDbEntity
  8
0
100
AcDbPolyline
 90
        5
 70
     0
 43
0.0
 10
-4.286495379105521
 20
6.507904115289067
 10
-4.286283206457605
 20
7.382904115289067
 42
-0.3178372451957819
 10
-3.973783206457606
 20
7.82484585353066
 10
-3.973783206457606
 20
6.507904115289067
 10
-4.286533206457606
 20
6.507904115289067
  0
LWPOLYLINE
  5
3E1
330
18
100
AcDbEntity
  8
0
100
AcDbPolyline
 90
        5
 70
     0
 43
0.0
 10
-2.598571033809691
 20
6.507904115289067
 10
-2.598783206457607
 20
7.382904115289067
 42
0.3178372451957818
 10
-2.911283206457606
 20
7.82484585353066
 10
-2.911283206457606
 20
6.507904115289067
 10
-2.598533206457605
 20
6.507904115289067
  0
LWPOLYLINE
  5
3EF
330
18
100
AcDbEntity
  8
0
100
AcDbPolyline
 90
       60
 70
     1
 43
0.0
 10
-3.432533206457605
 20
6.351904115289068
 10
-3.442533206457605
 20
6.361904115289068
 10
-3.452533206457605
 20
6.351904115289068
 10
-4.286533206457606
 20
6.351904115289068
 10
-4.286533206457606
 20
4.007904115289067
 10
-4.442783206457606
 20
4.007904115289115
 42
-0.0061363546459643
 10
-4.442533206457609
 20
7.382904115289069
 42
-0.4142135623730951
 10
-3.817533206457606
 20
8.007904115289067
 10
-3.817533206457606
 20
7.882904115289068
 10
-3.850533206457606
 20
7.882904115289068
 10
-3.817533206457606
 20
7.757904115289068
 10
-3.850533206457606
 20
7.757904115289068
 10
-3.817533206457606
 20
7.632904115289068
 10
-3.850533206457606
 20
7.632904115289068
 10
-3.817533206457606
 20
7.507904115289068
 10
-3.850533206457606
 20
7.507904115289068
 10
-3.817533206457606
 20
7.382904115289068
 10
-3.850533206457606
 20
7.382904115289068
 10
-3.817533206457606
 20
7.257904115289068
 10
-3.850533206457606
 20
7.257904115289068
 10
-3.817533206457606
 20
7.132904115289068
 10
-3.850533206457606
 20
7.132904115289068
 10
-3.817533206457606
 20
7.007904115289068
 10
-3.850533206457606
 20
7.007904115289068
 10
-3.817533206457606
 20
6.882904115289068
 10
-3.850533206457606
 20
6.882904115289068
 10
-3.817533206457606
 20
6.757904115289068
 10
-3.850533206457606
 20
6.757904115289068
 10
-3.817533206457606
 20
6.632904115289068
 10
-3.850533206457606
 20
6.632904115289068
 10
-3.817533206457606
 20
6.507904115289068
 10
-3.442533206457606
 20
6.507904115289068
 10
-3.067533206457606
 20
6.507904115289068
 10
-3.034533206457607
 20
6.632904115289068
 10
-3.067533206457606
 20
6.632904115289068
 10
-3.034533206457607
 20
6.757904115289068
 10
-3.067533206457606
 20
6.757904115289068
 10
-3.034533206457607
 20
6.882904115289068
 10
-3.067533206457606
 20
6.882904115289068
 10
-3.034533206457607
 20
7.007904115289068
 10
-3.067533206457606
 20
7.007904115289068
 10
-3.034533206457607
 20
7.132904115289068
 10
-3.067533206457606
 20
7.132904115289068
 10
-3.034533206457607
 20
7.257904115289068
 10
-3.067533206457606
 20
7.257904115289068
 10
-3.034533206457607
 20
7.382904115289068
 10
-3.067533206457606
 20
7.382904115289068
 10
-3.034533206457607
 20
7.507904115289068
 10
-3.067533206457606
 20
7.507904115289068
 10
-3.034533206457607
 20
7.632904115289068
 10
-3.067533206457606
 20
7.632904115289068
 10
-3.034533206457607
 20
7.757904115289068
 10
-3.067533206457606
 20
7.757904115289068
 10
-3.034533206457607
 20
7.882904115289068
 10
-3.067533206457606
 20
7.882904115289068
 10
-3.067533206457606
 20
8.007904115289067
 42
-0.4142135623730955
 10
-2.442533206457602
 20
7.382904115289067
 42
-0.0061363546459634
 10
-2.442283206457602
 20
4.007904115289283
 10
-2.598533206457606
 20
4.007904115289067
 10
-2.598533206457605
 20
6.351904115289068
  0
TEXT
  5
912
330
18
100
AcDbEntity
  8
TEXT
100
AcDbText
 10
-4.274297611807302
 20
3.61701020951553
 30
0.0
 40
0.125
  1
PART #110375
  7
ITALICC
 72
     1
 11
-3.518345230854921
 21
3.61701020951553
 31
0.0
100
AcDbText
  0
LINE
  5
913
330
18
100
AcDbEntity
  8
TEXT
100
AcDbLine
 10
-3.550611731902859
 20
3.372656523495696
 30
0.0
 11
-3.473963750610301
 21
3.372656523495696
 31
0.0
  0
LINE
  5
914
330
18
100
AcDbEntity
  8
TEXT
100
AcDbLine
 10
-3.478443637936801
 20
3.436933218152462
 30
0.0
 11
-3.545943355586318
 21
3.436933218152462
 31
0.0
  0
LWPOLYLINE
  5
915
330
18
100
AcDbEntity
  8
TEXT
100
AcDbPolyline
 90
        5
 70
     0
 43
0.0001332181640625
 10
-5.187723774437534
 20
3.313706416394649
 10
-5.174401958031285
 20
3.313706416394649
 10
-5.174401958031285
 20
3.350341411511839
 10
-5.137766962914096
 20
3.350341411511839
 10
-5.137766962914096
 20
3.363663227918086
  0
LWPOLYLINE
  5
916
330
18
100
AcDbEntity
  8
TEXT
100
AcDbPolyline
 90
        3
 70
     0
 43
0.0006660908203125
 10
-5.147758325218786
 20
3.410289585339964
 10
-5.234350131859411
 20
3.410289585339964
 10
-5.234350131859411
 20
3.323697778699338
  0
LWPOLYLINE
  5
917
330
18
100
AcDbEntity
  8
TEXT
100
AcDbPolyline
 90
        3
 70
     0
 43
0.0006660908203125
 10
-5.147758325218786
 20
3.436933218152465
 10
-5.260993764671908
 20
3.436933218152465
 10
-5.260993764671908
 20
3.323697778699338
  0
LWPOLYLINE
  5
918
330
18
100
AcDbEntity
  8
TEXT
100
AcDbPolyline
 90
        5
 70
     0
 43
0.0001332181640625
 10
-5.137766962914096
 20
3.243766880261838
 10
-5.137766962914096
 20
3.257088696668088
 10
-5.174401958031284
 20
3.257088696668088
 10
-5.174401958031284
 20
3.293723691785275
 10
-5.187723774437534
 20
3.293723691785275
  0
LWPOLYLINE
  5
919
330
18
100
AcDbEntity
  8
TEXT
100
AcDbPolyline
 90
        3
 70
     0
 43
0.0006660908203125
 10
-5.234350131859411
 20
3.28373232948059
 10
-5.234350131859411
 20
3.197140522839963
 10
-5.147758325218786
 20
3.197140522839963
  0
LWPOLYLINE
  5
91A
330
18
100
AcDbEntity
  8
TEXT
100
AcDbPolyline
 90
        3
 70
     0
 43
0.0006660908203125
 10
-5.260993764671908
 20
3.28373232948059
 10
-5.260993764671908
 20
3.170496890027462
 10
-5.147758325218786
 20
3.170496890027462
  0
LWPOLYLINE
  5
91B
330
18
100
AcDbEntity
  8
TEXT
100
AcDbPolyline
 90
        2
 70
     0
 43
0.0001332181640625
 10
-5.234350131859411
 20
3.28373232948059
 10
-5.174401958031284
 20
3.293723691785275
  0
LWPOLYLINE
  5
91C
330
18
100
AcDbEntity
  8
TEXT
100
AcDbPolyline
 90
        2
 70
     0
 43
0.0001332181640625
 10
-5.187723774437534
 20
3.293723691785275
 10
-5.260993764671908
 20
3.28373232948059
  0
LWPOLYLINE
  5
91D
330
18
100
AcDbEntity
  8
TEXT
100
AcDbPolyline
 90
        2
 70
     0
 43
0.0006660908203125
 10
-5.234350131859411
 20
3.28373232948059
 10
-5.260993764671908
 20
3.28373232948059
  0
LWPOLYLINE
  5
91E
330
18
100
AcDbEntity
  8
TEXT
100
AcDbPolyline
 90
        2
 70
     0
 43
0.0001332181640625
 10
-5.234350131859411
 20
3.197140522839963
 10
-5.174401958031284
 20
3.257088696668088
  0
LWPOLYLINE
  5
91F
330
18
100
AcDbEntity
  8
TEXT
100
AcDbPolyline
 90
        2
 70
     0
 43
0.0006660908203125
 10
-5.234350131859411
 20
3.323697778699338
 10
-5.260993764671908
 20
3.323697778699338
  0
LWPOLYLINE
  5
920
330
18
100
AcDbEntity
  8
TEXT
100
AcDbPolyline
 90
        2
 70
     0
 43
0.0001332181640625
 10
-5.260993764671908
 20
3.323697778699338
 10
-5.187723774437534
 20
3.313706416394649
  0
LWPOLYLINE
  5
921
330
18
100
AcDbEntity
  8
TEXT
100
AcDbPolyline
 90
        2
 70
     0
 43
0.0001332181640625
 10
-5.234350131859411
 20
3.323697778699338
 10
-5.174401958031285
 20
3.313706416394649
  0
LWPOLYLINE
  5
922
330
18
100
AcDbEntity
  8
TEXT
100
AcDbPolyline
 90
        2
 70
     0
 43
0.0001332181640625
 10
-5.234350131859411
 20
3.410289585339964
 10
-5.174401958031285
 20
3.350341411511839
  0
LWPOLYLINE
  5
923
330
18
100
AcDbEntity
  8
TEXT
100
AcDbPolyline
 90
        5
 70
     0
 43
0.0001332181640625
 10
-5.067827426781285
 20
3.293723691785275
 10
-5.081149243187534
 20
3.293723691785275
 10
-5.081149243187534
 20
3.257088696668088
 10
-5.117784238304723
 20
3.257088696668088
 10
-5.117784238304723
 20
3.243766880261838
  0
LWPOLYLINE
  5
924
330
18
100
AcDbEntity
  8
TEXT
100
AcDbPolyline
 90
        2
 70
     0
 43
0.0001332181640625
 10
-5.02120106935941
 20
3.28373232948059
 10
-5.081149243187534
 20
3.293723691785275
  0
LWPOLYLINE
  5
925
330
18
100
AcDbEntity
  8
TEXT
100
AcDbPolyline
 90
        2
 70
     0
 43
0.0001332181640625
 10
-4.994557436546909
 20
3.28373232948059
 10
-5.067827426781285
 20
3.293723691785275
  0
LWPOLYLINE
  5
926
330
18
100
AcDbEntity
  8
TEXT
100
AcDbPolyline
 90
        3
 70
     0
 43
0.0006660908203125
 10
-5.107792876000035
 20
3.170496890027462
 10
-4.994557436546909
 20
3.170496890027462
 10
-4.994557436546909
 20
3.28373232948059
  0
LWPOLYLINE
  5
927
330
18
100
AcDbEntity
  8
TEXT
100
AcDbPolyline
 90
        3
 70
     0
 43
0.0006660908203125
 10
-5.107792876000035
 20
3.197140522839963
 10
-5.02120106935941
 20
3.197140522839963
 10
-5.02120106935941
 20
3.28373232948059
  0
LWPOLYLINE
  5
928
330
18
100
AcDbEntity
  8
TEXT
100
AcDbPolyline
 90
        2
 70
     0
 43
0.0001332181640625
 10
-5.02120106935941
 20
3.197140522839963
 10
-5.081149243187534
 20
3.257088696668088
  0
LWPOLYLINE
  5
929
330
18
100
AcDbEntity
  8
TEXT
100
AcDbPolyline
 90
        2
 70
     0
 43
0.0006660908203125
 10
-5.107792876000035
 20
3.197140522839963
 10
-5.107792876000035
 20
3.170496890027462
  0
LWPOLYLINE
  5
92A
330
18
100
AcDbEntity
  8
TEXT
100
AcDbPolyline
 90
        2
 70
     0
 43
0.0001332181640625
 10
-5.117784238304723
 20
3.243766880261838
 10
-5.107792876000035
 20
3.170496890027462
  0
LWPOLYLINE
  5
92B
330
18
100
AcDbEntity
  8
TEXT
100
AcDbPolyline
 90
        2
 70
     0
 43
0.0001332181640625
 10
-5.107792876000035
 20
3.197140522839963
 10
-5.117784238304723
 20
3.257088696668088
  0
LWPOLYLINE
  5
92C
330
18
100
AcDbEntity
  8
TEXT
100
AcDbPolyline
 90
        2
 70
     0
 43
0.0001332181640625
 10
-5.147758325218786
 20
3.170496890027462
 10
-5.137766962914096
 20
3.243766880261838
  0
LWPOLYLINE
  5
92D
330
18
100
AcDbEntity
  8
TEXT
100
AcDbPolyline
 90
        2
 70
     0
 43
0.0001332181640625
 10
-5.147758325218786
 20
3.197140522839963
 10
-5.137766962914096
 20
3.257088696668088
  0
LWPOLYLINE
  5
92E
330
18
100
AcDbEntity
  8
TEXT
100
AcDbPolyline
 90
        2
 70
     0
 43
0.0006660908203125
 10
-5.147758325218786
 20
3.197140522839963
 10
-5.147758325218786
 20
3.170496890027462
  0
LWPOLYLINE
  5
92F
330
18
100
AcDbEntity
  8
TEXT
100
AcDbPolyline
 90
        2
 70
     0
 43
0.0006660908203125
 10
-5.02120106935941
 20
3.28373232948059
 10
-4.994557436546909
 20
3.28373232948059
  0
LWPOLYLINE
  5
930
330
18
100
AcDbEntity
  8
TEXT
100
AcDbPolyline
 90
        2
 70
     0
 43
0.0001332181640625
 10
-5.02120106935941
 20
3.410289585339964
 10
-5.081149243187534
 20
3.350341411511839
  0
LWPOLYLINE
  5
931
330
18
100
AcDbEntity
  8
TEXT
100
AcDbPolyline
 90
        2
 70
     0
 43
0.0001332181640625
 10
-5.02120106935941
 20
3.323697778699338
 10
-5.081149243187534
 20
3.313706416394649
  0
LWPOLYLINE
  5
932
330
18
100
AcDbEntity
  8
TEXT
100
AcDbPolyline
 90
        2
 70
     0
 43
0.0001332181640625
 10
-5.067827426781285
 20
3.313706416394649
 10
-4.994557436546909
 20
3.323697778699338
  0
LWPOLYLINE
  5
933
330
18
100
AcDbEntity
  8
TEXT
100
AcDbPolyline
 90
        3
 70
     0
 43
0.0006660908203125
 10
-5.02120106935941
 20
3.323697778699338
 10
-5.02120106935941
 20
3.410289585339964
 10
-5.107792876000035
 20
3.410289585339964
  0
LWPOLYLINE
  5
934
330
18
100
AcDbEntity
  8
TEXT
100
AcDbPolyline
 90
        3
 70
     0
 43
0.0006660908203125
 10
-4.994557436546909
 20
3.323697778699338
 10
-4.994557436546909
 20
3.436933218152465
 10
-5.107792876000035
 20
3.436933218152465
  0
LWPOLYLINE
  5
935
330
18
100
AcDbEntity
  8
TEXT
100
AcDbPolyline
 90
        2
 70
     0
 43
0.0001332181640625
 10
-5.107792876000035
 20
3.436933218152465
 10
-5.117784238304723
 20
3.363663227918086
  0
LWPOLYLINE
  5
936
330
18
100
AcDbEntity
  8
TEXT
100
AcDbPolyline
 90
        2
 70
     0
 43
0.0001332181640625
 10
-5.107792876000035
 20
3.410289585339964
 10
-5.117784238304723
 20
3.350341411511839
  0
LWPOLYLINE
  5
937
330
18
100
AcDbEntity
  8
TEXT
100
AcDbPolyline
 90
        2
 70
     0
 43
0.0006660908203125
 10
-5.107792876000035
 20
3.410289585339964
 10
-5.107792876000035
 20
3.436933218152465
  0
LWPOLYLINE
  5
938
330
18
100
AcDbEntity
  8
TEXT
100
AcDbPolyline
 90
        5
 70
     0
 43
0.0001332181640625
 10
-5.117784238304723
 20
3.363663227918086
 10
-5.117784238304723
 20
3.350341411511839
 10
-5.081149243187534
 20
3.350341411511839
 10
-5.081149243187534
 20
3.313706416394649
 10
-5.067827426781285
 20
3.313706416394649
  0
LWPOLYLINE
  5
939
330
18
100
AcDbEntity
  8
TEXT
100
AcDbPolyline
 90
        2
 70
     0
 43
0.0001332181640625
 10
-5.147758325218786
 20
3.410289585339964
 10
-5.137766962914096
 20
3.350341411511839
  0
LWPOLYLINE
  5
93A
330
18
100
AcDbEntity
  8
TEXT
100
AcDbPolyline
 90
        2
 70
     0
 43
0.0001332181640625
 10
-5.137766962914096
 20
3.363663227918086
 10
-5.147758325218786
 20
3.436933218152465
  0
LWPOLYLINE
  5
93B
330
18
100
AcDbEntity
  8
TEXT
100
AcDbPolyline
 90
        2
 70
     0
 43
0.0006660908203125
 10
-5.147758325218786
 20
3.410289585339964
 10
-5.147758325218786
 20
3.436933218152465
  0
LWPOLYLINE
  5
93C
330
18
100
AcDbEntity
  8
TEXT
100
AcDbPolyline
 90
        2
 70
     0
 43
0.0006660908203125
 10
-5.02120106935941
 20
3.323697778699338
 10
-4.994557436546909
 20
3.323697778699338
  0
LWPOLYLINE
  5
93D
330
18
100
AcDbEntity
  8
TEXT
100
AcDbPolyline
 90
        2
 70
     0
 43
0.0
 10
-4.275777515798278
 20
3.222011527378879
 42
0.3318488747599744
 10
-4.206658223232965
 20
3.170460185163951
 42
-6.868794160588311
  0
LINE
  5
93E
330
18
100
AcDbEntity
  8
TEXT
100
AcDbLine
 10
-4.207797796729161
 20
3.504944695891272
 30
0.0
 11
-4.274606509295526
 21
3.504944695891272
 31
0.0
  0
LINE
  5
93F
330
18
100
AcDbEntity
  8
TEXT
100
AcDbLine
 10
-4.55394887691462
 20
3.436933218152462
 30
0.0
 11
-4.729680629813131
 21
3.436933218152462
 31
0.0
  0
ARC
  5
940
330
18
100
AcDbEntity
  8
TEXT
100
AcDbCircle
 10
-4.658843163454582
 20
3.253655993524508
 30
0.0
 40
0.0831958083605586
100
AcDbArc
 50
270.0
 51
90.0
  0
LINE
  5
941
330
18
100
AcDbEntity
  8
TEXT
100
AcDbLine
 10
-4.724443299698883
 20
3.372656523495696
 30
0.0
 11
-4.557537645669913
 21
3.372656523495696
 31
0.0
  0
LINE
  5
942
330
18
100
AcDbEntity
  8
TEXT
100
AcDbLine
 10
-4.653902789548302
 20
3.23881719149739
 30
0.0
 11
-4.811768089259636
 21
3.23881719149739
 31
0.0
  0
LINE
  5
943
330
18
100
AcDbEntity
  8
TEXT
100
AcDbLine
 10
-4.811768089259635
 20
3.170460185163951
 30
0.0
 11
-4.658843163454582
 21
3.170460185163951
 31
0.0
  0
ARC
  5
944
330
18
100
AcDbEntity
  8
TEXT
100
AcDbCircle
 10
-4.729680629813131
 20
3.35484575870596
 30
0.0
 40
0.0820874594465043
100
AcDbArc
 50
90.0
 51
270.0
  0
LINE
  5
945
330
18
100
AcDbEntity
  8
TEXT
100
AcDbLine
 10
-4.811768089259636
 20
3.23881719149739
 30
0.0
 11
-4.811768089259635
 21
3.170460185163951
 31
0.0
  0
LINE
  5
946
330
18
100
AcDbEntity
  8
TEXT
100
AcDbLine
 10
-4.729680629813131
 20
3.272758299259455
 30
0.0
 11
-4.653902789548302
 21
3.272758299259455
 31
0.0
  0
ARC
  5
947
330
18
100
AcDbEntity
  8
TEXT
100
AcDbCircle
 10
-4.653902789548302
 20
3.255787745378424
 30
0.0
 40
0.0169705538810321
100
AcDbArc
 50
270.0
 51
90.0
  0
LINE
  5
948
330
18
100
AcDbEntity
  8
TEXT
100
AcDbLine
 10
-4.658843163454582
 20
3.336851801885068
 30
0.0
 11
-4.724443299698883
 21
3.336851801885068
 31
0.0
  0
ARC
  5
949
330
18
100
AcDbEntity
  8
TEXT
100
AcDbCircle
 10
-4.724443299698883
 20
3.354754162690384
 30
0.0
 40
0.017902360805315
100
AcDbArc
 50
90.0
 51
270.0
  0
LINE
  5
94A
330
18
100
AcDbEntity
  8
TEXT
100
AcDbLine
 10
-4.363476984894767
 20
3.336061222039341
 30
0.0
 11
-4.422107305926705
 21
3.436933218152462
 31
0.0
  0
LINE
  5
94B
330
18
100
AcDbEntity
  8
TEXT
100
AcDbLine
 10
-4.503651038189807
 20
3.170460185163951
 30
0.0
 11
-4.407010787114812
 21
3.170730824262233
 31
0.0
  0
LWPOLYLINE
  5
94C
330
18
100
AcDbEntity
  8
TEXT
100
AcDbPolyline
 90
        6
 70
     1
 43
0.0
 10
-4.461127234614657
 20
3.372656523495696
 10
-4.491443828834865
 20
3.372656523495696
 10
-4.491443828834865
 20
3.249545525440802
 42
0.407328721240804
 10
-4.479900177673389
 20
3.237726610764416
 10
-4.419278478628658
 20
3.237726610764416
 10
-4.40181313822134
 20
3.270538839807895
  0
LINE
  5
94D
330
18
100
AcDbEntity
  8
TEXT
100
AcDbLine
 10
-4.557537645669913
 20
3.372656523495696
 30
0.0
 11
-4.557537645669913
 21
3.230252576502
 31
0.0
  0
ARC
  5
94E
330
18
100
AcDbEntity
  8
TEXT
100
AcDbCircle
 10
-4.49742162769616
 20
3.230252576502
 30
0.0
 40
0.0601160179737537
100
AcDbArc
 50
180.0000000000003
 51
264.0521544866073
  0
LINE
  5
94F
330
18
100
AcDbEntity
  8
TEXT
100
AcDbLine
 10
-4.493906272070613
 20
3.4713211357466
 30
0.0
 11
-4.55394887691462
 21
3.4713211357466
 31
0.0
  0
LINE
  5
950
330
18
100
AcDbEntity
  8
TEXT
100
AcDbLine
 10
-4.55394887691462
 20
3.4713211357466
 30
0.0
 11
-4.55394887691462
 21
3.436933218152462
 31
0.0
  0
LINE
  5
951
330
18
100
AcDbEntity
  8
TEXT
100
AcDbLine
 10
-4.493906272070613
 20
3.436933218152462
 30
0.0
 11
-4.493906272070613
 21
3.4713211357466
 31
0.0
  0
LINE
  5
952
330
18
100
AcDbEntity
  8
TEXT
100
AcDbLine
 10
-4.422107305926705
 20
3.436933218152462
 30
0.0
 11
-4.493906272070613
 21
3.436933218152462
 31
0.0
  0
LINE
  5
953
330
18
100
AcDbEntity
  8
TEXT
100
AcDbLine
 10
-4.373077221891722
 20
3.190418691268964
 30
0.0
 11
-4.275777515798277
 21
3.354768902204232
 31
0.0
  0
LINE
  5
954
330
18
100
AcDbEntity
  8
TEXT
100
AcDbLine
 10
-4.275777515798277
 20
3.354768902204232
 30
0.0
 11
-4.275777515798277
 21
3.222011527378875
 31
0.0
  0
ARC
  5
955
330
18
100
AcDbEntity
  8
TEXT
100
AcDbCircle
 10
-4.407120781803936
 20
3.210007907437646
 30
0.0
 40
0.0392772371940762
100
AcDbArc
 50
270.1604552698595
 51
330.0831797321295
  0
LINE
  5
956
330
18
100
AcDbEntity
  8
TEXT
100
AcDbLine
 10
-4.304728422088902
 20
3.436933218152462
 30
0.0
 11
-4.363476984894767
 21
3.336061222039341
 31
0.0
  0
LINE
  5
957
330
18
100
AcDbEntity
  8
TEXT
100
AcDbLine
 10
-4.274606509295526
 20
3.504944695891272
 30
0.0
 11
-4.274606509295526
 21
3.436933218152462
 31
0.0
  0
LINE
  5
958
330
18
100
AcDbEntity
  8
TEXT
100
AcDbLine
 10
-4.274606509295526
 20
3.436933218152462
 30
0.0
 11
-4.304728422088902
 21
3.436933218152462
 31
0.0
  0
LWPOLYLINE
  5
959
330
18
100
AcDbEntity
  8
TEXT
100
AcDbPolyline
 90
        4
 70
     0
 43
0.0
 10
-3.922520387675367
 20
3.365102734329586
 10
-3.922520387675367
 20
3.170460185163951
 10
-3.854042104387509
 20
3.170460185163951
 10
-3.854042104387509
 20
3.213951130114389
 42
-1.714843617202739
  0
LWPOLYLINE
  5
95A
330
18
100
AcDbEntity
  8
TEXT
100
AcDbPolyline
 90
        2
 70
     0
 43
0.0
 10
-3.887386037131157
 20
3.436933218152465
 42
-0.3277054968067132
 10
-3.851604346417992
 20
3.408610672382821
 42
6.667889725900311
  0
LWPOLYLINE
  5
95B
330
18
100
AcDbEntity
  8
TEXT
100
AcDbPolyline
 90
        2
 70
     0
 43
0.0
 10
-4.058819609710385
 20
3.372656523495696
 42
-0.4142135623731017
 10
-4.051265820544271
 20
3.365102734329586
 42
-0.9999999999999998
  0
LINE
  5
95C
330
18
100
AcDbEntity
  8
TEXT
100
AcDbLine
 10
-4.041467886660364
 20
3.436933218152462
 30
0.0
 11
-4.1754859425915
 21
3.436933218152462
 31
0.0
  0
LINE
  5
95D
330
18
100
AcDbEntity
  8
TEXT
100
AcDbLine
 10
-4.108654889533531
 20
3.170460185163951
 30
0.0
 11
-4.108654889533531
 21
3.372656523495696
 31
0.0
  0
LINE
  5
95E
330
18
100
AcDbEntity
  8
TEXT
100
AcDbLine
 10
-4.1754859425915
 20
3.436933218152462
 30
0.0
 11
-4.1754859425915
 21
3.236069011420053
 31
0.0
  0
LINE
  5
95F
330
18
100
AcDbEntity
  8
TEXT
100
AcDbLine
 10
-4.207797796729161
 20
3.25284802326695
 30
0.0
 11
-4.207797796729161
 21
3.504944695891272
 31
0.0
  0
LINE
  5
960
330
18
100
AcDbEntity
  8
TEXT
100
AcDbLine
 10
-4.206658223232966
 20
3.170460185163951
 30
0.0
 11
-4.108654889533531
 21
3.170460185163951
 31
0.0
  0
LINE
  5
961
330
18
100
AcDbEntity
  8
TEXT
100
AcDbLine
 10
-4.1754859425915
 20
3.236069011420053
 30
0.0
 11
-4.192479579476102
 21
3.236069011420053
 31
0.0
  0
ARC
  5
962
330
18
100
AcDbEntity
  8
TEXT
100
AcDbCircle
 10
-4.192479579476103
 20
3.251450817663479
 30
0.0
 40
0.0153818062434269
100
AcDbArc
 50
174.7883570302258
 51
270.0
  0
LINE
  5
963
330
18
100
AcDbEntity
  8
TEXT
100
AcDbLine
 10
-4.108654889533531
 20
3.372656523495696
 30
0.0
 11
-4.058819609710384
 21
3.372656523495696
 31
0.0
  0
LINE
  5
964
330
18
100
AcDbEntity
  8
TEXT
100
AcDbLine
 10
-4.05126582054427
 20
3.365102734329586
 30
0.0
 11
-4.05126582054427
 21
3.170460185163951
 31
0.0
  0
LINE
  5
965
330
18
100
AcDbEntity
  8
TEXT
100
AcDbLine
 10
-3.98420777376243
 20
3.170460185163951
 30
0.0
 11
-3.98420777376243
 21
3.372656523495696
 31
0.0
  0
LINE
  5
966
330
18
100
AcDbEntity
  8
TEXT
100
AcDbLine
 10
-4.05126582054427
 20
3.170460185163951
 30
0.0
 11
-3.98420777376243
 21
3.170460185163951
 31
0.0
  0
LWPOLYLINE
  5
967
330
18
100
AcDbEntity
  8
TEXT
100
AcDbPolyline
 90
        3
 70
     0
 43
0.0
 10
-3.887386037131157
 20
3.436933218152465
 10
-4.005686195947202
 20
3.436933218152465
 10
-4.005686195947202
 20
3.409765721391569
 42
-1.960274751411753
  0
LINE
  5
968
330
18
100
AcDbEntity
  8
TEXT
100
AcDbLine
 10
-3.98420777376243
 20
3.372656523495696
 30
0.0
 11
-3.93007417684148
 21
3.372656523495696
 31
0.0
  0
LWPOLYLINE
  5
969
330
18
100
AcDbEntity
  8
TEXT
100
AcDbPolyline
 90
        2
 70
     0
 43
0.0
 10
-4.041467886660363
 20
3.436933218152465
 42
-0.3328679258950098
 10
-4.005686195947202
 20
3.409765721391569
 42
6.772930709997214
  0
LWPOLYLINE
  5
96A
330
18
100
AcDbEntity
  8
TEXT
100
AcDbPolyline
 90
        2
 70
     0
 43
0.0
 10
-3.930074176841481
 20
3.372656523495696
 42
-0.4142135623731017
 10
-3.922520387675367
 20
3.365102734329586
 42
-0.9999999999999998
  0
ARC
  5
96B
330
18
100
AcDbEntity
  8
TEXT
100
AcDbCircle
 10
-3.718799376978001
 20
3.395349651031559
 30
0.0
 40
0.0416329381542859
100
AcDbArc
 50
26.56974201007528
 51
87.20939649401342
  0
LWPOLYLINE
  5
96C
330
18
100
AcDbEntity
  8
TEXT
100
AcDbPolyline
 90
        2
 70
     0
 43
0.0
 10
-3.810966171519874
 20
3.170460185163951
 10
-3.676948753888497
 20
3.170460185163951
 42
0.9999999999999998
  0
LWPOLYLINE
  5
96D
330
18
100
AcDbEntity
  8
TEXT
100
AcDbPolyline
 90
        4
 70
     1
 43
0.0
 10
-3.69707121895839
 20
3.273424163147976
 10
-3.785731537618248
 20
3.273424163147976
 42
0.9999999999999998
 10
-3.785731537618248
 20
3.231025622644115
 10
-3.69707121895839
 20
3.231025622644115
 42
1.0
  0
LWPOLYLINE
  5
96E
330
18
100
AcDbEntity
  8
TEXT
100
AcDbPolyline
 90
        2
 70
     0
 43
0.0
 10
-3.854042104387509
 20
3.213951130114389
 42
0.2901071551932823
 10
-3.810966171519874
 20
3.170460185163951
 42
5.328517124445801
  0
LINE
  5
96F
330
18
100
AcDbEntity
  8
TEXT
100
AcDbLine
 10
-3.716772437200932
 20
3.436933218152462
 30
0.0
 11
-3.851604346417992
 21
3.436933218152462
 31
0.0
  0
LINE
  5
970
330
18
100
AcDbEntity
  8
TEXT
100
AcDbLine
 10
-3.792290250024673
 20
3.335381550033564
 30
0.0
 11
-3.71000226024129
 21
3.335381550033564
 31
0.0
  0
LINE
  5
971
330
18
100
AcDbEntity
  8
TEXT
100
AcDbLine
 10
-3.745803335545411
 20
3.372656523495696
 30
0.0
 11
-3.8530096089327
 21
3.372656523495696
 31
0.0
  0
LINE
  5
972
330
18
100
AcDbEntity
  8
TEXT
100
AcDbLine
 10
-3.851604346417992
 20
3.436933218152462
 30
0.0
 11
-3.851604346417992
 21
3.408610672382818
 31
0.0
  0
ARC
  5
973
330
18
100
AcDbEntity
  8
TEXT
100
AcDbCircle
 10
-3.792290250024674
 20
3.267695968889445
 30
0.0
 40
0.0676855811441166
100
AcDbArc
 50
90.0
 51
153.7768192527749
  0
LINE
  5
974
330
18
100
AcDbEntity
  8
TEXT
100
AcDbLine
 10
-3.8530096089327
 20
3.372656523495696
 30
0.0
 11
-3.8530096089327
 21
3.29760411742149
 31
0.0
  0
LINE
  5
975
330
18
100
AcDbEntity
  8
TEXT
100
AcDbLine
 10
-3.71000226024129
 20
3.335381550033564
 30
0.0
 11
-3.720267020654854
 21
3.356632089606258
 31
0.0
  0
ARC
  5
976
330
18
100
AcDbEntity
  8
TEXT
100
AcDbCircle
 10
-3.745803335545412
 20
3.344297148495699
 30
0.0
 40
0.028359375
100
AcDbArc
 50
25.78218179591245
 51
90.0
  0
LINE
  5
977
330
18
100
AcDbEntity
  8
TEXT
100
AcDbLine
 10
-3.575517607185518
 20
3.170460185163951
 30
0.0
 11
-3.575517607185523
 21
3.347750690595419
 31
0.0
  0
LWPOLYLINE
  5
978
330
18
100
AcDbEntity
  8
TEXT
100
AcDbPolyline
 90
        2
 70
     0
 43
0.0
 10
-3.633872821020853
 20
3.170460185163951
 10
-3.575517607185519
 20
3.170460185163951
  0
LWPOLYLINE
  5
979
330
18
100
AcDbEntity
  8
TEXT
100
AcDbPolyline
 90
        2
 70
     0
 43
0.0
 10
-3.633872821020853
 20
3.213951130114389
 42
-0.2901071551932486
 10
-3.676948753888497
 20
3.170460185163951
 42
-5.328517124445184
  0
LWPOLYLINE
  5
97A
330
18
100
AcDbEntity
  8
TEXT
100
AcDbPolyline
 90
        2
 70
     0
 43
0.0
 10
-3.633872821020853
 20
3.213951130114389
 10
-3.633872821020853
 20
3.170460185163951
  0
LINE
  5
97B
330
18
100
AcDbEntity
  8
TEXT
100
AcDbLine
 10
-3.57391559202639
 20
3.436933218152462
 30
0.0
 11
-3.637812498325891
 21
3.436933218152462
 31
0.0
  0
LINE
  5
97C
330
18
100
AcDbEntity
  8
TEXT
100
AcDbLine
 10
-3.637812498325891
 20
3.436933218152462
 30
0.0
 11
-3.637812498325891
 21
3.331721239599034
 31
0.0
  0
LINE
  5
97D
330
18
100
AcDbEntity
  8
TEXT
100
AcDbLine
 10
-3.637812498325891
 20
3.331721239599034
 30
0.0
 11
-3.681563269507793
 21
3.413971515595179
 31
0.0
  0
ARC
  5
97E
330
18
100
AcDbEntity
  8
TEXT
100
AcDbCircle
 10
-3.55061173190286
 20
3.347750648213033
 30
0.0
 40
0.0249058752826653
100
AcDbArc
 50
89.99971217465335
 51
179.9999999999985
  0
ARC
  5
97F
330
18
100
AcDbEntity
  8
TEXT
100
AcDbCircle
 10
-3.542722774963282
 20
3.405687490870197
 30
0.0
 40
0.0314112657011332
100
AcDbArc
 50
95.88484768694724
 51
173.2388340632136
  0
LINE
  5
980
330
18
100
AcDbEntity
  8
TEXT
100
AcDbLine
 10
-3.57391559202639
 20
3.409385568291587
 30
0.0
 11
-3.57391559202639
 21
3.436933218152462
 31
0.0
  0
TEXT
  5
981
330
18
100
AcDbEntity
  8
TEXT
100
AcDbText
 10
-3.1050400726046
 20
3.263345993809447
 30
0.0
 40
0.0522247191011236
  1
Minneapolis, MN 55432-0008
 41
1.11444212721585
 72
     5
 11
-1.776107488334936
 21
3.263345993809447
 31
0.0
100
AcDbText
  0
TEXT
  5
982
330
18
100
AcDbEntity
  8
TEXT
100
AcDbText
 10
-3.1050400726046
 20
3.356604420775739
 30
0.0
 40
0.0522247191011236
  1
6536 Main St. N.E. * P.O. Box 32008
 41
0.8388932496075369
 72
     5
 11
-1.776107488334936
 21
3.356604420775739
 31
0.0
100
AcDbText
  0
TEXT
  5
983
330
18
100
AcDbEntity
  8
TEXT
100
AcDbText
 10
-3.1050400726046
 20
3.449862847742031
 30
0.0
 40
0.0522247191011236
  1
Stylmark  Incorporated
 41
1.221428571428571
 72
     5
 11
-1.776107488334936
 21
3.449862847742031
 31
0.0
100
AcDbText
  0
TEXT
  5
984
330
18
100
AcDbEntity
  8
TEXT
100
AcDbText
 10
-3.1050400726046
 20
3.170087566843155
 30
0.0
 40
0.0522247191011236
  1
Phone  1-800-328-2495
 41
1.272321428571429
 72
     5
 11
-1.776107488334936
 21
3.170087566843155
 31
0.0
100
AcDbText
  0
LINE
  5
985
330
18
100
AcDbEntity
  8
TEXT
100
AcDbLine
 10
-3.352595884067615
 20
3.327039975211488
 30
0.0
 11
-3.28803876810191
 21
3.436933218152462
 31
0.0
  0
LINE
  5
986
330
18
100
AcDbEntity
  8
TEXT
100
AcDbLine
 10
-3.28803876810191
 20
3.436933218152462
 30
0.0
 11
-3.363030600831536
 21
3.436933218152462
 31
0.0
  0
LINE
  5
987
330
18
100
AcDbEntity
  8
TEXT
100
AcDbLine
 10
-3.333682033080211
 20
3.170460185163951
 30
0.0
 11
-3.257103660704005
 21
3.170460185163951
 31
0.0
  0
LINE
  5
988
330
18
100
AcDbEntity
  8
TEXT
100
AcDbLine
 10
-3.257103660704005
 20
3.170460185163951
 30
0.0
 11
-3.352595884067615
 21
3.327039975211488
 31
0.0
  0
LINE
  5
989
330
18
100
AcDbEntity
  8
TEXT
100
AcDbLine
 10
-3.409585566291675
 20
3.170460185163951
 30
0.0
 11
-3.409585566291675
 21
3.302039753640131
 31
0.0
  0
LINE
  5
98A
330
18
100
AcDbEntity
  8
TEXT
100
AcDbLine
 10
-3.409585566291675
 20
3.302039753640131
 30
0.0
 11
-3.333682033080211
 21
3.170460185163951
 31
0.0
  0
LINE
  5
98B
330
18
100
AcDbEntity
  8
TEXT
100
AcDbLine
 10
-3.473963750610301
 20
3.372656523495696
 30
0.0
 11
-3.473963750610296
 21
3.170460185163951
 31
0.0
  0
LINE
  5
98C
330
18
100
AcDbEntity
  8
TEXT
100
AcDbLine
 10
-3.473963750610296
 20
3.170460185163951
 30
0.0
 11
-3.409585566291675
 21
3.170460185163951
 31
0.0
  0
LINE
  5
98D
330
18
100
AcDbEntity
  8
TEXT
100
AcDbLine
 10
-3.410128759387522
 20
3.502397423920062
 30
0.0
 11
-3.478443637936796
 21
3.502397423920062
 31
0.0
  0
LINE
  5
98E
330
18
100
AcDbEntity
  8
TEXT
100
AcDbLine
 10
-3.478443637936796
 20
3.502397423920062
 30
0.0
 11
-3.478443637936801
 21
3.436933218152462
 31
0.0
  0
LINE
  5
98F
330
18
100
AcDbEntity
  8
TEXT
100
AcDbLine
 10
-3.363030600831538
 20
3.436933218152462
 30
0.0
 11
-3.410128759387522
 21
3.361067891740924
 31
0.0
  0
LINE
  5
990
330
18
100
AcDbEntity
  8
TEXT
100
AcDbLine
 10
-3.410128759387522
 20
3.361067891740924
 30
0.0
 11
-3.410128759387522
 21
3.502397423920062
 31
0.0
  0
ENDSEC
  0
SECTION
  2
OBJECTS
  0
DICTIONARY
  5
C
330
0
100
AcDbDictionary
  3
ACAD_GROUP
350
D
  3
ACAD_LAYOUT
350
995
  3
ACAD_MLINESTYLE
350
E
  3
ACAD_PLOTSETTINGS
350
996
  3
ACAD_PLOTSTYLENAME
350
993
  3
ACDBHEADERROUNDTRIPXREC
350
9A0
  3
ACDBVARIABLEDICTIONARY
350
99D
  0
DICTIONARY
  5
9C2
330
18
100
AcDbDictionary
280
     1
  3
ACAD_LAYOUTSELFREF
360
9C3
  0
DICTIONARY
  5
9C0
330
15
100
AcDbDictionary
280
     1
  3
ACAD_LAYOUTSELFREF
360
9C1
  0
DICTIONARY
  5
D
102
{ACAD_REACTORS
330
C
102
}
330
C
100
AcDbDictionary
  3
*A1
350
66B
  3
*A2
350
824
  3
*A3
350
865
  3
*A4
350
866
  0
DICTIONARY
  5
995
102
{ACAD_REACTORS
330
C
102
}
330
C
100
AcDbDictionary
  0
DICTIONARY
  5
E
102
{ACAD_REACTORS
330
C
102
}
330
C
100
AcDbDictionary
  3
STANDARD
350
1B
  0
DICTIONARY
  5
996
102
{ACAD_REACTORS
330
C
102
}
330
C
100
AcDbDictionary
  0
ACDBDICTIONARYWDFLT
  5
993
102
{ACAD_REACTORS
330
C
102
}
330
C
100
AcDbDictionary
281
     1
  3
Normal
350
994
100
AcDbDictionaryWithDefault
340
994
  0
DICTIONARY
  5
9A0
102
{ACAD_REACTORS
330
C
102
}
330
C
100
AcDbDictionary
  3
CEPSNTYPE
350
9AA
  3
FINGERPRINTGUID
350
9AB
  3
HYPERLINKBASE
350
9A3
  3
INSUNITS
350
9A9
  3
LAYOUTDICT
350
9A5
  3
LWETCUNION
350
9A8
  3
PLOTSETDICT
350
9A6
  3
PLOTSTYLNAMDICT
350
9A7
  3
PSVPSCALE
350
9AD
  3
PUCSBASE
350
9B0
  3
PUCSORGBACK
350
9B6
  3
PUCSORGBOTTOM
350
9B2
  3
PUCSORGFRONT
350
9B5
  3
PUCSORGLEFT
350
9B3
  3
PUCSORGRIGHT
350
9B4
  3
PUCSORGTOP
350
9B1
  3
PUCSORTHOREF
350
9AE
  3
PUCSORTHOVIEW
350
9AF
  3
STYLESHEET
350
9A4
  3
TSTACKALIGN
350
9A1
  3
TSTACKSIZE
350
9A2
  3
UCSBASE
350
9B9
  3
UCSORGBACK
350
9BF
  3
UCSORGBOTTOM
350
9BB
  3
UCSORGFRONT
350
9BE
  3
UCSORGLEFT
350
9BC
  3
UCSORGRIGHT
350
9BD
  3
UCSORGTOP
350
9BA
  3
UCSORTHOREF
350
9B7
  3
UCSORTHOVIEW
350
9B8
  3
VERSIONGUID
350
9AC
  0
DICTIONARY
  5
99D
102
{ACAD_REACTORS
330
C
102
}
330
C
100
AcDbDictionary
  3
DIMASSOC
350
99E
  0
XRECORD
  5
9C3
102
{ACAD_REACTORS
330
9C2
102
}
330
9C2
100
AcDbXrecord
340
18
  0
XRECORD
  5
9C1
102
{ACAD_REACTORS
330
9C0
102
}
330
9C0
100
AcDbXrecord
340
15
  0
GROUP
  5
66B
102
{ACAD_REACTORS
330
D
102
}
330
D
100
AcDbGroup
300
BORDER FRAME 10-1-95
 70
     3
 71
     1
  0
GROUP
  5
824
102
{ACAD_REACTORS
330
D
102
}
330
D
100
AcDbGroup
300

 70
     1
 71
     1
  0
GROUP
  5
865
102
{ACAD_REACTORS
330
D
102
}
330
D
100
AcDbGroup
300
BORDER FRAME 10-1-95
 70
     3
 71
     1
  0
GROUP
  5
866
102
{ACAD_REACTORS
330
D
102
}
330
D
100
AcDbGroup
300

 70
     1
 71
     1
  0
MLINESTYLE
  5
1B
102
{ACAD_REACTORS
330
E
102
}
330
E
100
AcDbMlineStyle
  2
STANDARD
 70
     0
  3

 62
     0
 51
90.0
 52
90.0
 71
     2
 49
0.5
 62
   256
  6
BYLAYER
 49
-0.5
 62
   256
  6
BYLAYER
  0
ACDBPLACEHOLDER
  5
994
102
{ACAD_REACTORS
330
993
102
}
330
993
100
AcDbPlaceHolder
280
     0
  0
XRECORD
  5
9AA
102
{ACAD_REACTORS
330
9A0
102
}
330
9A0
100
AcDbXrecord
 90
        0
  0
XRECORD
  5
9AB
102
{ACAD_REACTORS
330
9A0
102
}
330
9A0
100
AcDbXrecord
  1
{AE3BEF80-8DB6-11D6-88E6-0090279574E7}
  0
XRECORD
  5
9A3
102
{ACAD_REACTORS
330
9A0
102
}
330
9A0
100
AcDbXrecord
  1

  0
XRECORD
  5
9A9
102
{ACAD_REACTORS
330
9A0
102
}
330
9A0
100
AcDbXrecord
 90
        0
  0
XRECORD
  5
9A5
102
{ACAD_REACTORS
330
9A0
102
}
330
9A0
100
AcDbXrecord
340
995
  0
XRECORD
  5
9A8
102
{ACAD_REACTORS
330
9A0
102
}
330
9A0
100
AcDbXrecord
 90
    14877
  0
XRECORD
  5
9A6
102
{ACAD_REACTORS
330
9A0
102
}
330
9A0
100
AcDbXrecord
340
996
  0
XRECORD
  5
9A7
102
{ACAD_REACTORS
330
9A0
102
}
330
9A0
100
AcDbXrecord
340
993
  0
XRECORD
  5
9AD
102
{ACAD_REACTORS
330
9A0
102
}
330
9A0
100
AcDbXrecord
 40
0.0
  0
XRECORD
  5
9B0
102
{ACAD_REACTORS
330
9A0
102
}
330
9A0
100
AcDbXrecord
340
0
  0
XRECORD
  5
9B6
102
{ACAD_REACTORS
330
9A0
102
}
330
9A0
100
AcDbXrecord
 10
0.0
 20
0.0
 30
0.0
  0
XRECORD
  5
9B2
102
{ACAD_REACTORS
330
9A0
102
}
330
9A0
100
AcDbXrecord
 10
0.0
 20
0.0
 30
0.0
  0
XRECORD
  5
9B5
102
{ACAD_REACTORS
330
9A0
102
}
330
9A0
100
AcDbXrecord
 10
0.0
 20
0.0
 30
0.0
  0
XRECORD
  5
9B3
102
{ACAD_REACTORS
330
9A0
102
}
330
9A0
100
AcDbXrecord
 10
0.0
 20
0.0
 30
0.0
  0
XRECORD
  5
9B4
102
{ACAD_REACTORS
330
9A0
102
}
330
9A0
100
AcDbXrecord
 10
0.0
 20
0.0
 30
0.0
  0
XRECORD
  5
9B1
102
{ACAD_REACTORS
330
9A0
102
}
330
9A0
100
AcDbXrecord
 10
0.0
 20
0.0
 30
0.0
  0
XRECORD
  5
9AE
102
{ACAD_REACTORS
330
9A0
102
}
330
9A0
100
AcDbXrecord
340
0
  0
XRECORD
  5
9AF
102
{ACAD_REACTORS
330
9A0
102
}
330
9A0
100
AcDbXrecord
 70
     0
  0
XRECORD
  5
9A4
102
{ACAD_REACTORS
330
9A0
102
}
330
9A0
100
AcDbXrecord
  1

  0
XRECORD
  5
9A1
102
{ACAD_REACTORS
330
9A0
102
}
330
9A0
100
AcDbXrecord
 90
        1
  0
XRECORD
  5
9A2
102
{ACAD_REACTORS
330
9A0
102
}
330
9A0
100
AcDbXrecord
 90
       70
  0
XRECORD
  5
9B9
102
{ACAD_REACTORS
330
9A0
102
}
330
9A0
100
AcDbXrecord
340
0
  0
XRECORD
  5
9BF
102
{ACAD_REACTORS
330
9A0
102
}
330
9A0
100
AcDbXrecord
 10
0.0
 20
0.0
 30
0.0
  0
XRECORD
  5
9BB
102
{ACAD_REACTORS
330
9A0
102
}
330
9A0
100
AcDbXrecord
 10
0.0
 20
0.0
 30
0.0
  0
XRECORD
  5
9BE
102
{ACAD_REACTORS
330
9A0
102
}
330
9A0
100
AcDbXrecord
 10
0.0
 20
0.0
 30
0.0
  0
XRECORD
  5
9BC
102
{ACAD_REACTORS
330
9A0
102
}
330
9A0
100
AcDbXrecord
 10
0.0
 20
0.0
 30
0.0
  0
XRECORD
  5
9BD
102
{ACAD_REACTORS
330
9A0
102
}
330
9A0
100
AcDbXrecord
 10
0.0
 20
0.0
 30
0.0
  0
XRECORD
  5
9BA
102
{ACAD_REACTORS
330
9A0
102
}
330
9A0
100
AcDbXrecord
 10
0.0
 20
0.0
 30
0.0
  0
XRECORD
  5
9B7
102
{ACAD_REACTORS
330
9A0
102
}
330
9A0
100
AcDbXrecord
340
0
  0
XRECORD
  5
9B8
102
{ACAD_REACTORS
330
9A0
102
}
330
9A0
100
AcDbXrecord
 70
     0
  0
XRECORD
  5
9AC
102
{ACAD_REACTORS
330
9A0
102
}
330
9A0
100
AcDbXrecord
  1
{AE3BEF82-8DB6-11D6-88E6-0090279574E7}
  0
DICTIONARYVAR
  5
99E
102
{ACAD_REACTORS
330
99D
102
}
330
99D
100
DictionaryVariables
280
     0
  1
1
  0
ENDSEC
  0
EOF
