  0
SECTION
  2
HEADER
  9
$ACADVER
  1
AC1014
  9
$ACADMAINTVER
 70
     9
  9
$DWGCODEPAGE
  3
ANSI_1252
  9
$INSBASE
 10
1.606219505347013
 20
1.194742240775219
 30
0.0
  9
$EXTMIN
 10
-0.1367620738801294
 20
0.4503315619356698
 30
0.0
  9
$EXTMAX
 10
3.348457247866998
 20
1.754742247818105
 30
0.0
  9
$LIMMIN
 10
0.0
 20
0.0
  9
$LIMMAX
 10
18.0
 20
12.0
  9
$ORTHOMODE
 70
     1
  9
$REGENMODE
 70
     1
  9
$FILLMODE
 70
     1
  9
$QTEXTMODE
 70
     0
  9
$MIRRTEXT
 70
     0
  9
$DRAGMODE
 70
     2
  9
$LTSCALE
 40
1.0
  9
$OSMODE
 70
    39
  9
$ATTMODE
 70
     1
  9
$TEXTSIZE
 40
0.125
  9
$TRACEWID
 40
0.05
  9
$TEXTSTYLE
  7
ROMANS
  9
$CLAYER
  8
0
  9
$CELTYPE
  6
BYLAYER
  9
$CECOLOR
 62
   256
  9
$CELTSCALE
 40
1.0
  9
$DELOBJ
 70
     1
  9
$DISPSILH
 70
     1
  9
$DIMSCALE
 40
1.0
  9
$DIMASZ
 40
0.125
  9
$DIMEXO
 40
0.125
  9
$DIMDLI
 40
0.375
  9
$DIMRND
 40
0.0
  9
$DIMDLE
 40
0.0
  9
$DIMEXE
 40
0.125
  9
$DIMTP
 40
0.0
  9
$DIMTM
 40
0.0
  9
$DIMTXT
 40
0.125
  9
$DIMCEN
 40
-0.125
  9
$DIMTSZ
 40
0.0
  9
$DIMTOL
 70
     0
  9
$DIMLIM
 70
     0
  9
$DIMTIH
 70
     1
  9
$DIMTOH
 70
     1
  9
$DIMSE1
 70
     0
  9
$DIMSE2
 70
     0
  9
$DIMTAD
 70
     0
  9
$DIMZIN
 70
     4
  9
$DIMBLK
  1

  9
$DIMASO
 70
     1
  9
$DIMSHO
 70
     1
  9
$DIMPOST
  1

  9
$DIMAPOST
  1

  9
$DIMALT
 70
     0
  9
$DIMALTD
 70
     2
  9
$DIMALTF
 40
25.4
  9
$DIMLFAC
 40
1.0
  9
$DIMTOFL
 70
     0
  9
$DIMTVP
 40
0.0
  9
$DIMTIX
 70
     1
  9
$DIMSOXD
 70
     0
  9
$DIMSAH
 70
     0
  9
$DIMBLK1
  1

  9
$DIMBLK2
  1

  9
$DIMSTYLE
  2
STANDARD
  9
$DIMCLRD
 70
     0
  9
$DIMCLRE
 70
     0
  9
$DIMCLRT
 70
     0
  9
$DIMTFAC
 40
1.0
  9
$DIMGAP
 40
0.09
  9
$DIMJUST
 70
     0
  9
$DIMSD1
 70
     0
  9
$DIMSD2
 70
     0
  9
$DIMTOLJ
 70
     1
  9
$DIMTZIN
 70
     4
  9
$DIMALTZ
 70
     0
  9
$DIMALTTZ
 70
     0
  9
$DIMFIT
 70
     3
  9
$DIMUPT
 70
     0
  9
$DIMUNIT
 70
     2
  9
$DIMDEC
 70
     3
  9
$DIMTDEC
 70
     3
  9
$DIMALTU
 70
     2
  9
$DIMALTTD
 70
     2
  9
$DIMTXSTY
  7
ROMANS
  9
$DIMAUNIT
 70
     0
  9
$LUNITS
 70
     2
  9
$LUPREC
 70
     3
  9
$SKETCHINC
 40
0.1
  9
$FILLETRAD
 40
0.03125
  9
$AUNITS
 70
     0
  9
$AUPREC
 70
     0
  9
$MENU
  1
ACAD
  9
$ELEVATION
 40
0.0
  9
$PELEVATION
 40
0.0
  9
$THICKNESS
 40
0.0
  9
$LIMCHECK
 70
     0
  9
$BLIPMODE
 70
     0
  9
$CHAMFERA
 40
0.0
  9
$CHAMFERB
 40
0.0
  9
$CHAMFERC
 40
0.0
  9
$CHAMFERD
 40
0.0
  9
$SKPOLY
 70
     0
  9
$TDCREATE
 40
2448994.601073611
  9
$TDUPDATE
 40
2452458.308742187
  9
$TDINDWG
 40
0.0004860648
  9
$TDUSRTIMER
 40
0.0004860648
  9
$USRTIMER
 70
     1
  9
$ANGBASE
 50
0.0
  9
$ANGDIR
 70
     0
  9
$PDMODE
 70
     0
  9
$PDSIZE
 40
0.0
  9
$PLINEWID
 40
0.0
  9
$COORDS
 70
     2
  9
$SPLFRAME
 70
     0
  9
$SPLINETYPE
 70
     6
  9
$SPLINESEGS
 70
     8
  9
$ATTDIA
 70
     0
  9
$ATTREQ
 70
     1
  9
$HANDLING
 70
 22529
  9
$HANDSEED
  5
7DE1B343D9DFECE
  9
$SURFTAB1
 70
     6
  9
$SURFTAB2
 70
     6
  9
$SURFTYPE
 70
     6
  9
$SURFU
 70
     6
  9
$SURFV
 70
     6
  9
$UCSNAME
  2

  9
$UCSORG
 10
0.0
 20
0.0
 30
0.0
  9
$UCSXDIR
 10
1.0
 20
0.0
 30
0.0
  9
$UCSYDIR
 10
0.0
 20
1.0
 30
0.0
  9
$PUCSNAME
  2

  9
$PUCSORG
 10
0.0
 20
0.0
 30
0.0
  9
$PUCSXDIR
 10
1.0
 20
0.0
 30
0.0
  9
$PUCSYDIR
 10
0.0
 20
1.0
 30
0.0
  9
$USERI1
 70
     0
  9
$USERI2
 70
     0
  9
$USERI3
 70
     0
  9
$USERI4
 70
     0
  9
$USERI5
 70
     0
  9
$USERR1
 40
0.0
  9
$USERR2
 40
0.0
  9
$USERR3
 40
0.0
  9
$USERR4
 40
0.0
  9
$USERR5
 40
0.0
  9
$WORLDVIEW
 70
     1
  9
$SHADEDGE
 70
     3
  9
$SHADEDIF
 70
    70
  9
$TILEMODE
 70
     1
  9
$MAXACTVP
 70
    16
  9
$PINSBASE
 10
0.0
 20
0.0
 30
0.0
  9
$PLIMCHECK
 70
     0
  9
$PEXTMIN
 10
1.000000000000000E+20
 20
1.000000000000000E+20
 30
1.000000000000000E+20
  9
$PEXTMAX
 10
-1.000000000000000E+20
 20
-1.000000000000000E+20
 30
-1.000000000000000E+20
  9
$PLIMMIN
 10
0.0
 20
0.0
  9
$PLIMMAX
 10
12.0
 20
9.0
  9
$UNITMODE
 70
     0
  9
$VISRETAIN
 70
     0
  9
$PLINEGEN
 70
     1
  9
$PSLTSCALE
 70
     0
  9
$TREEDEPTH
 70
  3020
  9
$PICKSTYLE
 70
     1
  9
$CMLSTYLE
  2
STANDARD
  9
$CMLJUST
 70
     0
  9
$CMLSCALE
 40
1.0
  9
$PROXYGRAPHICS
 70
     1
  9
$MEASUREMENT
 70
     0
  0
ENDSEC
  0
SECTION
  2
CLASSES
  0
CLASS
  1
LWPOLYLINE
  2
AcDbPolyline
  3
AutoCAD 2000
 90
        0
280
     0
281
     1
  0
CLASS
  1
ACDBDICTIONARYWDFLT
  2
AcDbDictionaryWithDefault
  3
AutoCAD 2000
 90
        0
280
     0
281
     0
  0
CLASS
  1
ACDBPLACEHOLDER
  2
AcDbPlaceHolder
  3
AutoCAD 2000
 90
        0
280
     0
281
     0
  0
CLASS
  1
LAYOUT
  2
AcDbLayout
  3
AutoCAD 2000
 90
        0
280
     0
281
     0
  0
CLASS
  1
DICTIONARYVAR
  2
AcDbDictionaryVar
  3
AutoCAD 2000
 90
        0
280
     0
281
     0
  0
CLASS
  1
LONG_TRANSACTION
  2
AcDbLongTransaction
  3
AutoCAD 2000
 90
        0
280
     0
281
     0
  0
CLASS
  1
LWPOLYLINE
  2
AcDbPolyline
  3
AutoCAD 2000
 90
        0
280
     0
281
     1
  0
CLASS
  1
HATCH
  2
AcDbHatch
  3
AutoCAD 2000
 90
        0
280
     0
281
     1
  0
CLASS
  1
XRECORD
  2
AcDbXrecord
  3
AutoCAD 2000
 90
        0
280
     0
281
     0
  0
ENDSEC
  0
SECTION
  2
TABLES
  0
TABLE
  2
VPORT
  5
7DE1B343D9DFE75
330
0
100
AcDbSymbolTable
 70
     2
  0
VPORT
  5
7DE1B343D9DFEA9
330
7DE1B343D9DFE75
100
AcDbSymbolTableRecord
100
AcDbViewportTableRecord
  2
*ACTIVE
 70
     0
 10
0.0
 20
0.0
 11
1.0
 21
1.0
 12
4.582686384652792
 22
1.102844260519887
 13
0.0
 23
0.0
 14
0.015625
 24
0.015625
 15
0.0
 25
0.0
 16
0.0
 26
0.0
 36
1.0
 17
0.0
 27
0.0
 37
0.0
 40
2.282779094646911
 41
4.320930232558139
 42
50.0
 43
0.0
 44
0.0
 50
0.0
 51
0.0
 71
     0
 72
  2000
 73
     1
 74
     0
 75
     0
 76
     0
 77
     0
 78
     0
  0
ENDTAB
  0
TABLE
  2
LTYPE
  5
7DE1B343D9DFE72
330
0
100
AcDbSymbolTable
 70
     1
  0
LTYPE
  5
7DE1B343D9DFE7F
330
7DE1B343D9DFE72
100
AcDbSymbolTableRecord
100
AcDbLinetypeTableRecord
  2
BYBLOCK
 70
     0
  3

 72
    65
 73
     0
 40
0.0
  0
LTYPE
  5
7DE1B343D9DFE80
330
7DE1B343D9DFE72
100
AcDbSymbolTableRecord
100
AcDbLinetypeTableRecord
  2
BYLAYER
 70
     0
  3

 72
    65
 73
     0
 40
0.0
  0
LTYPE
  5
7DE1B343D9DFE81
330
7DE1B343D9DFE72
100
AcDbSymbolTableRecord
100
AcDbLinetypeTableRecord
  2
CONTINUOUS
 70
     0
  3
Solid line
 72
    65
 73
     0
 40
0.0
  0
ENDTAB
  0
TABLE
  2
LAYER
  5
7DE1B343D9DFE6F
330
0
100
AcDbSymbolTable
 70
     2
  0
LAYER
  5
7DE1B343D9DFE7C
330
7DE1B343D9DFE6F
100
AcDbSymbolTableRecord
100
AcDbLayerTableRecord
  2
0
 70
     0
 62
     7
  6
CONTINUOUS
  0
LAYER
  5
7DE1B343D9DFE8C
330
7DE1B343D9DFE6F
100
AcDbSymbolTableRecord
100
AcDbLayerTableRecord
  2
TEXT
 70
     0
 62
     3
  6
CONTINUOUS
  0
ENDTAB
  0
TABLE
  2
STYLE
  5
7DE1B343D9DFE70
330
0
100
AcDbSymbolTable
 70
     3
  0
STYLE
  5
7DE1B343D9DFE7D
330
7DE1B343D9DFE70
100
AcDbSymbolTableRecord
100
AcDbTextStyleTableRecord
  2
STANDARD
 70
     0
 40
0.0
 41
1.0
 50
0.0
 71
     0
 42
0.3125
  3
txt
  4

  0
STYLE
  5
7DE1B343D9DFE89
330
7DE1B343D9DFE70
100
AcDbSymbolTableRecord
100
AcDbTextStyleTableRecord
  2
ITALICC
 70
     0
 40
0.0
 41
1.0
 50
0.0
 71
     0
 42
0.125
  3
italicc
  4

  0
STYLE
  5
7DE1B343D9DFE99
330
7DE1B343D9DFE70
100
AcDbSymbolTableRecord
100
AcDbTextStyleTableRecord
  2
ROMANS
 70
     0
 40
0.0
 41
1.0
 50
0.0
 71
     0
 42
0.125
  3
romans.shx
  4

  0
ENDTAB
  0
TABLE
  2
VIEW
  5
7DE1B343D9DFE73
330
0
100
AcDbSymbolTable
 70
     0
  0
ENDTAB
  0
TABLE
  2
UCS
  5
7DE1B343D9DFE74
330
0
100
AcDbSymbolTable
 70
     0
  0
ENDTAB
  0
TABLE
  2
APPID
  5
7DE1B343D9DFE76
330
0
100
AcDbSymbolTable
 70
     1
  0
APPID
  5
7DE1B343D9DFE7E
330
7DE1B343D9DFE76
100
AcDbSymbolTableRecord
100
AcDbRegAppTableRecord
  2
ACAD
 70
     0
  0
ENDTAB
  0
TABLE
  2
DIMSTYLE
  5
7DE1B343D9DFE77
330
0
100
AcDbSymbolTable
 70
     1
  0
DIMSTYLE
105
7DE1B343D9DFE91
330
7DE1B343D9DFE77
100
AcDbSymbolTableRecord
100
AcDbDimStyleTableRecord
  2
STANDARD
 70
     0
  3

  4

  5

  6

  7

 40
1.0
 41
0.125
 42
0.125
 43
0.375
 44
0.125
 45
0.0
 46
0.0
 47
0.0
 48
0.0
140
0.125
141
-0.125
142
0.0
143
25.4
144
1.0
145
0.0
146
1.0
147
0.09
 71
     0
 72
     0
 73
     1
 74
     1
 75
     0
 76
     0
 77
     0
 78
     4
170
     0
171
     2
172
     0
173
     0
174
     1
175
     0
176
     0
177
     0
178
     0
270
     2
271
     3
272
     3
273
     2
274
     2
340
7DE1B343D9DFE99
275
     0
280
     0
281
     0
282
     0
283
     1
284
     4
285
     0
286
     0
287
     3
288
     0
  0
ENDTAB
  0
TABLE
  2
BLOCK_RECORD
  5
7DE1B343D9DFE6E
330
0
100
AcDbSymbolTable
 70
     0
  0
BLOCK_RECORD
  5
7DE1B343D9DFE85
102
{ACAD_XDICTIONARY
360
7DE1B343D9DFECC
102
}
330
7DE1B343D9DFE6E
100
AcDbSymbolTableRecord
100
AcDbBlockTableRecord
  2
*MODEL_SPACE
  0
BLOCK_RECORD
  5
7DE1B343D9DFE82
102
{ACAD_XDICTIONARY
360
7DE1B343D9DFECA
102
}
330
7DE1B343D9DFE6E
100
AcDbSymbolTableRecord
100
AcDbBlockTableRecord
  2
*PAPER_SPACE
  0
ENDTAB
  0
ENDSEC
  0
SECTION
  2
BLOCKS
  0
BLOCK
  5
7DE1B343D9DFE8F
330
7DE1B343D9DFE85
100
AcDbEntity
  8
0
100
AcDbBlockBegin
  2
*MODEL_SPACE
 70
     0
 10
0.0
 20
0.0
 30
0.0
  3
*MODEL_SPACE
  1

  0
ENDBLK
  5
7DE1B343D9DFE90
330
7DE1B343D9DFE85
100
AcDbEntity
  8
0
100
AcDbBlockEnd
  0
BLOCK
  5
7DE1B343D9DFE8D
330
7DE1B343D9DFE82
100
AcDbEntity
 67
     1
  8
0
100
AcDbBlockBegin
  2
*PAPER_SPACE
 70
     0
 10
0.0
 20
0.0
 30
0.0
  3
*PAPER_SPACE
  1

  0
ENDBLK
  5
7DE1B343D9DFE8E
330
7DE1B343D9DFE82
100
AcDbEntity
 67
     1
  8
0
100
AcDbBlockEnd
  0
ENDSEC
  0
SECTION
  2
ENTITIES
  0
LWPOLYLINE
  5
7DE1B343D9DE8D4
330
7DE1B343D9DFE85
100
AcDbEntity
  8
0
100
AcDbPolyline
 90
       17
 70
     1
 43
0.0
 10
2.113719505347016
 20
1.727242254860992
 10
2.113719505347014
 20
1.249742240775219
 10
1.872469505347014
 20
1.249742240775219
 10
1.862469505347013
 20
1.239742240775219
 10
1.852469505347014
 20
1.249742240775219
 10
1.608719505347013
 20
1.249742240775219
 10
1.608719505347013
 20
1.727242250123304
 42
0.9999997273831587
 10
1.553719505347014
 20
1.727242246421062
 10
1.553719505347013
 20
1.249742240775219
 10
1.309969505347014
 20
1.249742240775219
 10
1.299969505347013
 20
1.239742240775219
 10
1.289969505347014
 20
1.249742240775219
 10
1.071219505347013
 20
1.249742240775219
 42
1.0
 10
1.071219505347013
 20
1.194742240775219
 10
2.141219505347013
 20
1.194742240775219
 42
0.4142135623730964
 10
2.168719505347013
 20
1.222242240775219
 10
2.168719505347013
 20
1.727242240775219
 42
0.9999997438950732
  0
TEXT
  5
7DE1B343D9DFD30
330
7DE1B343D9DFE85
100
AcDbEntity
  8
TEXT
100
AcDbText
 10
0.8532433148708234
 20
0.9083501660182513
 30
0.0
 40
0.125
  1
PART #110372
  7
ITALICC
 72
     1
 11
1.606219505347013
 21
0.9083501660182513
 31
0.0
100
AcDbText
  0
TEXT
  5
7DE1B343D9DFD31
330
7DE1B343D9DFE85
100
AcDbEntity
  8
TEXT
100
AcDbText
 10
2.019524663597334
 20
0.4614275233458763
 30
0.0
 40
0.0522247191011236
  1
Phone  1-800-328-2495
 41
1.272321428571429
 72
     5
 11
3.348457247866998
 21
0.4614275233458763
 31
0.0
100
AcDbText
  0
TEXT
  5
7DE1B343D9DFD32
330
7DE1B343D9DFE85
100
AcDbEntity
  8
TEXT
100
AcDbText
 10
2.019524663597334
 20
0.7412028042447528
 30
0.0
 40
0.0522247191011236
  1
Stylmark  Incorporated
 41
1.221428571428573
 72
     5
 11
3.348457247866998
 21
0.7412028042447528
 31
0.0
100
AcDbText
  0
TEXT
  5
7DE1B343D9DFD33
330
7DE1B343D9DFE85
100
AcDbEntity
  8
TEXT
100
AcDbText
 10
2.019524663597334
 20
0.6479443772784606
 30
0.0
 40
0.0522247191011236
  1
6536 Main St. N.E. * P.O. Box 32008
 41
0.8388932496075366
 72
     5
 11
3.348457247866998
 21
0.6479443772784606
 31
0.0
100
AcDbText
  0
TEXT
  5
7DE1B343D9DFD34
330
7DE1B343D9DFE85
100
AcDbEntity
  8
TEXT
100
AcDbText
 10
2.019524663597334
 20
0.5546859503121685
 30
0.0
 40
0.0522247191011236
  1
Minneapolis, MN 55432-0008
 41
1.11444212721585
 72
     5
 11
3.348457247866998
 21
0.5546859503121685
 31
0.0
100
AcDbText
  0
LWPOLYLINE
  5
7DE1B343D9DFD35
330
7DE1B343D9DFE85
100
AcDbEntity
  8
TEXT
100
AcDbPolyline
 90
        3
 70
     0
 43
0.0006660908203125
 10
-0.1364290284699732
 20
0.5750722859833111
 10
-0.1364290284699732
 20
0.4618368465301835
 10
-0.0231935890168509
 20
0.4618368465301835
  0
LWPOLYLINE
  5
7DE1B343D9DFD3A
330
7DE1B343D9DFE85
100
AcDbEntity
  8
TEXT
100
AcDbPolyline
 90
        3
 70
     0
 43
0.0006660908203125
 10
-0.1097853956574757
 20
0.5750722859833111
 10
-0.1097853956574757
 20
0.4884804793426845
 10
-0.0231935890168509
 20
0.4884804793426845
  0
LWPOLYLINE
  5
7DE1B343D9DFD3F
330
7DE1B343D9DFE85
100
AcDbEntity
  8
TEXT
100
AcDbPolyline
 90
        2
 70
     0
 43
0.0001332181640625
 10
-0.0631590382355989
 20
0.5850636482879964
 10
-0.1364290284699732
 20
0.5750722859833111
  0
LWPOLYLINE
  5
7DE1B343D9DFD43
330
7DE1B343D9DFE85
100
AcDbEntity
  8
TEXT
100
AcDbPolyline
 90
        2
 70
     0
 43
0.0001332181640625
 10
-0.1097853956574757
 20
0.5750722859833111
 10
-0.0498372218293484
 20
0.5850636482879964
  0
LWPOLYLINE
  5
7DE1B343D9DFD47
330
7DE1B343D9DFE85
100
AcDbEntity
  8
TEXT
100
AcDbPolyline
 90
        2
 70
     0
 43
0.0001332181640625
 10
-0.1097853956574757
 20
0.4884804793426845
 10
-0.0498372218293484
 20
0.5484286531708101
  0
LWPOLYLINE
  5
7DE1B343D9DFD4B
330
7DE1B343D9DFE85
100
AcDbEntity
  8
TEXT
100
AcDbPolyline
 90
        3
 70
     0
 43
0.0006660908203125
 10
-0.0231935890168509
 20
0.7282731746551868
 10
-0.1364290284699732
 20
0.7282731746551868
 10
-0.1364290284699732
 20
0.6150377352020591
  0
LWPOLYLINE
  5
7DE1B343D9DFD50
330
7DE1B343D9DFE85
100
AcDbEntity
  8
TEXT
100
AcDbPolyline
 90
        3
 70
     0
 43
0.0006660908203125
 10
-0.0231935890168509
 20
0.7016295418426857
 10
-0.1097853956574757
 20
0.7016295418426857
 10
-0.1097853956574757
 20
0.6150377352020591
  0
LWPOLYLINE
  5
7DE1B343D9DFD55
330
7DE1B343D9DFE85
100
AcDbEntity
  8
TEXT
100
AcDbPolyline
 90
        2
 70
     0
 43
0.0001332181640625
 10
-0.1097853956574757
 20
0.7016295418426857
 10
-0.0498372218293501
 20
0.6416813680145602
  0
LWPOLYLINE
  5
7DE1B343D9DFD59
330
7DE1B343D9DFE85
100
AcDbEntity
  8
TEXT
100
AcDbPolyline
 90
        2
 70
     0
 43
0.0001332181640625
 10
-0.1097853956574757
 20
0.6150377352020591
 10
-0.0498372218293501
 20
0.6050463728973704
  0
LWPOLYLINE
  5
7DE1B343D9DFD5D
330
7DE1B343D9DFE85
100
AcDbEntity
  8
TEXT
100
AcDbPolyline
 90
        2
 70
     0
 43
0.0001332181640625
 10
-0.1364290284699732
 20
0.6150377352020591
 10
-0.0631590382355989
 20
0.6050463728973704
  0
LWPOLYLINE
  5
7DE1B343D9DFD61
330
7DE1B343D9DFE85
100
AcDbEntity
  8
TEXT
100
AcDbPolyline
 90
        2
 70
     0
 43
0.0006660908203125
 10
-0.1097853956574757
 20
0.5750722859833111
 10
-0.1364290284699732
 20
0.5750722859833111
  0
LWPOLYLINE
  5
7DE1B343D9DFD65
330
7DE1B343D9DFE85
100
AcDbEntity
  8
TEXT
100
AcDbPolyline
 90
        2
 70
     0
 43
0.0006660908203125
 10
-0.1097853956574757
 20
0.6150377352020591
 10
-0.1364290284699732
 20
0.6150377352020591
  0
LINE
  5
7DE1B343D9DFD69
330
7DE1B343D9DFE85
100
AcDbEntity
  8
TEXT
100
AcDbLine
 10
1.378761400656524
 20
0.6639964799984178
 30
0.0
 11
1.271555127269234
 21
0.6639964799984178
 31
0.0
  0
LINE
  5
7DE1B343D9DFD6A
330
7DE1B343D9DFE85
100
AcDbEntity
  8
TEXT
100
AcDbLine
 10
1.407792299001002
 20
0.7282731746551832
 30
0.0
 11
1.272960389783943
 21
0.7282731746551832
 31
0.0
  0
ARC
  5
7DE1B343D9DFD6B
330
7DE1B343D9DFE85
100
AcDbEntity
  8
TEXT
100
AcDbCircle
 10
1.33227448617726
 20
0.5590359253921669
 30
0.0
 40
0.0676855811441166
100
AcDbArc
 50
90.0
 51
153.7768192527749
  0
LWPOLYLINE
  5
7DE1B343D9DFD6C
330
7DE1B343D9DFE85
100
AcDbEntity
  8
TEXT
100
AcDbPolyline
 90
        2
 70
     0
 43
0.0
 10
1.270522631814424
 20
0.5052910866171104
 42
0.2901071551932823
 10
1.31359856468206
 20
0.4618001416666722
 42
5.328517124445801
  0
ARC
  5
7DE1B343D9DFD70
330
7DE1B343D9DFE85
100
AcDbEntity
  8
TEXT
100
AcDbCircle
 10
0.6271431085057749
 20
0.5215925330047221
 30
0.0
 40
0.0601160179737537
100
AcDbArc
 50
180.0000000000003
 51
264.0521544866073
  0
LINE
  5
7DE1B343D9DFD71
330
7DE1B343D9DFE85
100
AcDbEntity
  8
TEXT
100
AcDbLine
 10
0.6306584641313227
 20
0.7626610922493214
 30
0.0
 11
0.5706158592873157
 21
0.7626610922493214
 31
0.0
  0
ARC
  5
7DE1B343D9DFD72
330
7DE1B343D9DFE85
100
AcDbEntity
  8
TEXT
100
AcDbCircle
 10
0.3948841063888042
 20
0.6461857152086815
 30
0.0
 40
0.0820874594465043
100
AcDbArc
 50
90.0
 51
270.0
  0
LWPOLYLINE
  5
7DE1B343D9DFD73
330
7DE1B343D9DFE85
100
AcDbEntity
  8
TEXT
100
AcDbPolyline
 90
        2
 70
     0
 43
0.0001332181640625
 10
-0.0132022267121603
 20
0.6550031844208072
 10
-0.0231935890168509
 20
0.7282731746551868
  0
LWPOLYLINE
  5
7DE1B343D9DFD77
330
7DE1B343D9DFE85
100
AcDbEntity
  8
TEXT
100
AcDbPolyline
 90
        2
 70
     0
 43
0.0001332181640625
 10
-0.0231935890168509
 20
0.7016295418426857
 10
-0.0132022267121603
 20
0.6416813680145602
  0
LWPOLYLINE
  5
7DE1B343D9DFD7B
330
7DE1B343D9DFE85
100
AcDbEntity
  8
TEXT
100
AcDbPolyline
 90
        3
 70
     0
 43
0.0006660908203125
 10
0.1300072996550265
 20
0.6150377352020591
 10
0.1300072996550265
 20
0.7282731746551868
 10
0.0167718602019007
 20
0.7282731746551868
  0
LWPOLYLINE
  5
7DE1B343D9DFD80
330
7DE1B343D9DFE85
100
AcDbEntity
  8
TEXT
100
AcDbPolyline
 90
        3
 70
     0
 43
0.0006660908203125
 10
0.1033636668425255
 20
0.6150377352020591
 10
0.1033636668425255
 20
0.7016295418426857
 10
0.0167718602019007
 20
0.7016295418426857
  0
LWPOLYLINE
  5
7DE1B343D9DFD85
330
7DE1B343D9DFE85
100
AcDbEntity
  8
TEXT
100
AcDbPolyline
 90
        2
 70
     0
 43
0.0001332181640625
 10
0.1033636668425255
 20
0.7016295418426857
 10
0.0434154930144017
 20
0.6416813680145602
  0
LWPOLYLINE
  5
7DE1B343D9DFD89
330
7DE1B343D9DFE85
100
AcDbEntity
  8
TEXT
100
AcDbPolyline
 90
        2
 70
     0
 43
0.0001332181640625
 10
0.0167718602019007
 20
0.7016295418426857
 10
0.0067804978972119
 20
0.6416813680145602
  0
LWPOLYLINE
  5
7DE1B343D9DFD8D
330
7DE1B343D9DFE85
100
AcDbEntity
  8
TEXT
100
AcDbPolyline
 90
        2
 70
     0
 43
0.0001332181640625
 10
0.0167718602019007
 20
0.7282731746551868
 10
0.0067804978972119
 20
0.6550031844208072
  0
LWPOLYLINE
  5
7DE1B343D9DFD91
330
7DE1B343D9DFE85
100
AcDbEntity
  8
TEXT
100
AcDbPolyline
 90
        2
 70
     0
 43
0.0001332181640625
 10
0.0567373094206505
 20
0.6050463728973704
 10
0.1300072996550265
 20
0.6150377352020591
  0
LWPOLYLINE
  5
7DE1B343D9DFD95
330
7DE1B343D9DFE85
100
AcDbEntity
  8
TEXT
100
AcDbPolyline
 90
        2
 70
     0
 43
0.0001332181640625
 10
0.1033636668425255
 20
0.6150377352020591
 10
0.0434154930144017
 20
0.6050463728973704
  0
LWPOLYLINE
  5
7DE1B343D9DFD99
330
7DE1B343D9DFE85
100
AcDbEntity
  8
TEXT
100
AcDbPolyline
 90
        2
 70
     0
 43
0.0001332181640625
 10
0.1300072996550265
 20
0.5750722859833111
 10
0.0567373094206505
 20
0.5850636482879964
  0
LWPOLYLINE
  5
7DE1B343D9DFD9D
330
7DE1B343D9DFE85
100
AcDbEntity
  8
TEXT
100
AcDbPolyline
 90
        2
 70
     0
 43
0.0001332181640625
 10
0.1033636668425255
 20
0.5750722859833111
 10
0.0434154930144017
 20
0.5850636482879964
  0
LWPOLYLINE
  5
7DE1B343D9DFDA1
330
7DE1B343D9DFE85
100
AcDbEntity
  8
TEXT
100
AcDbPolyline
 90
        2
 70
     0
 43
0.0001332181640625
 10
0.1033636668425255
 20
0.4884804793426845
 10
0.0434154930144017
 20
0.5484286531708101
  0
LWPOLYLINE
  5
7DE1B343D9DFDA5
330
7DE1B343D9DFE85
100
AcDbEntity
  8
TEXT
100
AcDbPolyline
 90
        3
 70
     0
 43
0.0006660908203125
 10
0.0167718602019007
 20
0.4884804793426845
 10
0.1033636668425255
 20
0.4884804793426845
 10
0.1033636668425255
 20
0.5750722859833111
  0
LWPOLYLINE
  5
7DE1B343D9DFDAA
330
7DE1B343D9DFE85
100
AcDbEntity
  8
TEXT
100
AcDbPolyline
 90
        3
 70
     0
 43
0.0006660908203125
 10
0.0167718602019007
 20
0.4618368465301835
 10
0.1300072996550265
 20
0.4618368465301835
 10
0.1300072996550265
 20
0.5750722859833111
  0
LWPOLYLINE
  5
7DE1B343D9DFDAF
330
7DE1B343D9DFE85
100
AcDbEntity
  8
TEXT
100
AcDbPolyline
 90
        5
 70
     0
 43
0.0001332181640625
 10
-0.0132022267121603
 20
0.5351068367645596
 10
-0.0132022267121603
 20
0.5484286531708101
 10
-0.0498372218293484
 20
0.5484286531708101
 10
-0.0498372218293484
 20
0.5850636482879964
 10
-0.0631590382355989
 20
0.5850636482879964
  0
LWPOLYLINE
  5
7DE1B343D9DFDB6
330
7DE1B343D9DFE85
100
AcDbEntity
  8
TEXT
100
AcDbPolyline
 90
        2
 70
     0
 43
0.0006660908203125
 10
-0.0231935890168509
 20
0.4884804793426845
 10
-0.0231935890168509
 20
0.4618368465301835
  0
LWPOLYLINE
  5
7DE1B343D9DFDBA
330
7DE1B343D9DFE85
100
AcDbEntity
  8
TEXT
100
AcDbPolyline
 90
        2
 70
     0
 43
0.0001332181640625
 10
-0.0231935890168509
 20
0.4884804793426845
 10
-0.0132022267121603
 20
0.5484286531708101
  0
LWPOLYLINE
  5
7DE1B343D9DFDBE
330
7DE1B343D9DFE85
100
AcDbEntity
  8
TEXT
100
AcDbPolyline
 90
        2
 70
     0
 43
0.0001332181640625
 10
-0.0231935890168509
 20
0.4618368465301835
 10
-0.0132022267121603
 20
0.5351068367645596
  0
LWPOLYLINE
  5
7DE1B343D9DFDC2
330
7DE1B343D9DFE85
100
AcDbEntity
  8
TEXT
100
AcDbPolyline
 90
        5
 70
     0
 43
0.0001332181640625
 10
-0.0631590382355989
 20
0.6050463728973704
 10
-0.0498372218293501
 20
0.6050463728973704
 10
-0.0498372218293501
 20
0.6416813680145602
 10
-0.0132022267121603
 20
0.6416813680145602
 10
-0.0132022267121603
 20
0.6550031844208072
  0
LWPOLYLINE
  5
7DE1B343D9DFDC9
330
7DE1B343D9DFE85
100
AcDbEntity
  8
TEXT
100
AcDbPolyline
 90
        5
 70
     0
 43
0.0001332181640625
 10
0.0067804978972119
 20
0.6550031844208072
 10
0.0067804978972119
 20
0.6416813680145602
 10
0.0434154930144017
 20
0.6416813680145602
 10
0.0434154930144017
 20
0.6050463728973704
 10
0.0567373094206505
 20
0.6050463728973704
  0
LWPOLYLINE
  5
7DE1B343D9DFDD0
330
7DE1B343D9DFE85
100
AcDbEntity
  8
TEXT
100
AcDbPolyline
 90
        2
 70
     0
 43
0.0001332181640625
 10
0.0167718602019007
 20
0.4884804793426845
 10
0.0067804978972119
 20
0.5484286531708101
  0
LWPOLYLINE
  5
7DE1B343D9DFDD4
330
7DE1B343D9DFE85
100
AcDbEntity
  8
TEXT
100
AcDbPolyline
 90
        2
 70
     0
 43
0.0001332181640625
 10
0.0067804978972119
 20
0.5351068367645596
 10
0.0167718602019007
 20
0.4618368465301835
  0
LWPOLYLINE
  5
7DE1B343D9DFDD8
330
7DE1B343D9DFE85
100
AcDbEntity
  8
TEXT
100
AcDbPolyline
 90
        2
 70
     0
 43
0.0006660908203125
 10
0.0167718602019007
 20
0.4884804793426845
 10
0.0167718602019007
 20
0.4618368465301835
  0
LWPOLYLINE
  5
7DE1B343D9DFDDC
330
7DE1B343D9DFE85
100
AcDbEntity
  8
TEXT
100
AcDbPolyline
 90
        5
 70
     0
 43
0.0001332181640625
 10
0.0567373094206505
 20
0.5850636482879964
 10
0.0434154930144017
 20
0.5850636482879964
 10
0.0434154930144017
 20
0.5484286531708101
 10
0.0067804978972119
 20
0.5484286531708101
 10
0.0067804978972119
 20
0.5351068367645596
  0
LWPOLYLINE
  5
7DE1B343D9DFDE3
330
7DE1B343D9DFE85
100
AcDbEntity
  8
TEXT
100
AcDbPolyline
 90
        2
 70
     0
 43
0.0006660908203125
 10
0.1033636668425255
 20
0.6150377352020591
 10
0.1300072996550265
 20
0.6150377352020591
  0
LWPOLYLINE
  5
7DE1B343D9DFDE7
330
7DE1B343D9DFE85
100
AcDbEntity
  8
TEXT
100
AcDbPolyline
 90
        2
 70
     0
 43
0.0006660908203125
 10
0.1033636668425255
 20
0.5750722859833111
 10
0.1300072996550265
 20
0.5750722859833111
  0
LINE
  5
7DE1B343D9DFDEB
330
7DE1B343D9DFE85
100
AcDbEntity
  8
TEXT
100
AcDbLine
 10
0.4001214365030515
 20
0.6639964799984178
 30
0.0
 11
0.5670270905320228
 21
0.6639964799984178
 31
0.0
  0
LINE
  5
7DE1B343D9DFDEC
330
7DE1B343D9DFE85
100
AcDbEntity
  8
TEXT
100
AcDbLine
 10
0.4657215727473525
 20
0.6281917583877899
 30
0.0
 11
0.4001214365030515
 21
0.6281917583877899
 31
0.0
  0
LINE
  5
7DE1B343D9DFDED
330
7DE1B343D9DFE85
100
AcDbEntity
  8
TEXT
100
AcDbLine
 10
0.3127966469422998
 20
0.4618001416666722
 30
0.0
 11
0.4657215727473525
 21
0.4618001416666722
 31
0.0
  0
LINE
  5
7DE1B343D9DFDEE
330
7DE1B343D9DFE85
100
AcDbEntity
  8
TEXT
100
AcDbLine
 10
0.4706619466536322
 20
0.5301571480001116
 30
0.0
 11
0.312796646942298
 21
0.5301571480001116
 31
0.0
  0
LINE
  5
7DE1B343D9DFDEF
330
7DE1B343D9DFE85
100
AcDbEntity
  8
TEXT
100
AcDbLine
 10
0.3948841063888033
 20
0.5640982557621762
 30
0.0
 11
0.4706619466536322
 21
0.5640982557621762
 31
0.0
  0
ARC
  5
7DE1B343D9DFDF0
330
7DE1B343D9DFE85
100
AcDbEntity
  8
TEXT
100
AcDbCircle
 10
0.4001214365030524
 20
0.6460941191931056
 30
0.0
 40
0.017902360805315
100
AcDbArc
 50
90.0
 51
270.0
  0
LINE
  5
7DE1B343D9DFDF1
330
7DE1B343D9DFE85
100
AcDbEntity
  8
TEXT
100
AcDbLine
 10
0.312796646942298
 20
0.5301571480001116
 30
0.0
 11
0.3127966469422998
 21
0.4618001416666722
 31
0.0
  0
LINE
  5
7DE1B343D9DFDF2
330
7DE1B343D9DFE85
100
AcDbEntity
  8
TEXT
100
AcDbLine
 10
0.5670270905320228
 20
0.6639964799984178
 30
0.0
 11
0.5670270905320228
 21
0.5215925330047221
 31
0.0
  0
ARC
  5
7DE1B343D9DFDF3
330
7DE1B343D9DFE85
100
AcDbEntity
  8
TEXT
100
AcDbCircle
 10
0.4657215727473534
 20
0.5449959500272293
 30
0.0
 40
0.0831958083605586
100
AcDbArc
 50
270.0
 51
90.0
  0
ARC
  5
7DE1B343D9DFDF4
330
7DE1B343D9DFE85
100
AcDbEntity
  8
TEXT
100
AcDbCircle
 10
0.4706619466536331
 20
0.5471277018811457
 30
0.0
 40
0.0169705538810321
100
AcDbArc
 50
270.0
 51
90.0
  0
LWPOLYLINE
  5
7DE1B343D9DFDF5
330
7DE1B343D9DFE85
100
AcDbEntity
  8
TEXT
100
AcDbPolyline
 90
        2
 70
     0
 43
0.0006660908203125
 10
-0.0231935890168509
 20
0.7016295418426857
 10
-0.0231935890168509
 20
0.7282731746551868
  0
LWPOLYLINE
  5
7DE1B343D9DFDF9
330
7DE1B343D9DFE85
100
AcDbEntity
  8
TEXT
100
AcDbPolyline
 90
        2
 70
     0
 43
0.0006660908203125
 10
0.0167718602019007
 20
0.7016295418426857
 10
0.0167718602019007
 20
0.7282731746551868
  0
LINE
  5
7DE1B343D9DFDFD
330
7DE1B343D9DFE85
100
AcDbEntity
  8
TEXT
100
AcDbLine
 10
0.5706158592873157
 20
0.7282731746551832
 30
0.0
 11
0.3948841063888033
 21
0.7282731746551832
 31
0.0
  0
LINE
  5
7DE1B343D9DFDFE
330
7DE1B343D9DFE85
100
AcDbEntity
  8
TEXT
100
AcDbLine
 10
0.5706158592873157
 20
0.7626610922493214
 30
0.0
 11
0.5706158592873157
 21
0.7282731746551832
 31
0.0
  0
LINE
  5
7DE1B343D9DFDFF
330
7DE1B343D9DFE85
100
AcDbEntity
  8
TEXT
100
AcDbLine
 10
0.7610877513071679
 20
0.6274011785420626
 30
0.0
 11
0.70245743027523
 21
0.7282731746551832
 31
0.0
  0
LINE
  5
7DE1B343D9DFE00
330
7DE1B343D9DFE85
100
AcDbEntity
  8
TEXT
100
AcDbLine
 10
0.8198363141130332
 20
0.7282731746551832
 30
0.0
 11
0.7610877513071679
 21
0.6274011785420626
 31
0.0
  0
LINE
  5
7DE1B343D9DFE01
330
7DE1B343D9DFE85
100
AcDbEntity
  8
TEXT
100
AcDbLine
 10
0.9167669394727745
 20
0.5441879797696715
 30
0.0
 11
0.9167669394727745
 21
0.7962846523939938
 31
0.0
  0
LINE
  5
7DE1B343D9DFE02
330
7DE1B343D9DFE85
100
AcDbEntity
  8
TEXT
100
AcDbLine
 10
0.9490787936104347
 20
0.7282731746551832
 30
0.0
 11
0.9490787936104347
 21
0.527408967922775
 31
0.0
  0
LINE
  5
7DE1B343D9DFE03
330
7DE1B343D9DFE85
100
AcDbEntity
  8
TEXT
100
AcDbLine
 10
0.9490787936104347
 20
0.527408967922775
 30
0.0
 11
0.9320851567258333
 21
0.527408967922775
 31
0.0
  0
LINE
  5
7DE1B343D9DFE04
330
7DE1B343D9DFE85
100
AcDbEntity
  8
TEXT
100
AcDbLine
 10
0.9179065129689693
 20
0.4618001416666722
 30
0.0
 11
1.015909846668404
 21
0.4618001416666722
 31
0.0
  0
LINE
  5
7DE1B343D9DFE05
330
7DE1B343D9DFE85
100
AcDbEntity
  8
TEXT
100
AcDbLine
 10
0.7514875143102136
 20
0.4817586477716852
 30
0.0
 11
0.848787220403658
 21
0.6461088587069533
 31
0.0
  0
ARC
  5
7DE1B343D9DFE06
330
7DE1B343D9DFE85
100
AcDbEntity
  8
TEXT
100
AcDbCircle
 10
0.7174439543979996
 20
0.501347863940368
 30
0.0
 40
0.0392772371940762
100
AcDbArc
 50
270.1604552698595
 51
330.0831797321295
  0
LINE
  5
7DE1B343D9DFE07
330
7DE1B343D9DFE85
100
AcDbEntity
  8
TEXT
100
AcDbLine
 10
0.6209136980121284
 20
0.4618001416666722
 30
0.0
 11
0.7175539490871228
 21
0.4620707807649545
 31
0.0
  0
LWPOLYLINE
  5
7DE1B343D9DFE08
330
7DE1B343D9DFE85
100
AcDbEntity
  8
TEXT
100
AcDbPolyline
 90
        6
 70
     1
 43
0.0
 10
0.663437501587278
 20
0.6639964799984178
 10
0.6331209073670699
 20
0.6639964799984178
 10
0.6331209073670699
 20
0.5408854819435235
 42
0.407328721240804
 10
0.6446645585285462
 20
0.5290665672671374
 10
0.705286257573277
 20
0.5290665672671374
 10
0.722751597980595
 20
0.5618787963106165
  0
LINE
  5
7DE1B343D9DFE10
330
7DE1B343D9DFE85
100
AcDbEntity
  8
TEXT
100
AcDbLine
 10
0.848787220403658
 20
0.6461088587069533
 30
0.0
 11
0.848787220403658
 21
0.513351483881597
 31
0.0
  0
ARC
  5
7DE1B343D9DFE11
330
7DE1B343D9DFE85
100
AcDbEntity
  8
TEXT
100
AcDbCircle
 10
0.9320851567258316
 20
0.5427907741662004
 30
0.0
 40
0.0153818062434269
100
AcDbArc
 50
174.7883570302258
 51
270.0
  0
LWPOLYLINE
  5
7DE1B343D9DFE12
330
7DE1B343D9DFE85
100
AcDbEntity
  8
TEXT
100
AcDbPolyline
 90
        2
 70
     0
 43
0.0
 10
0.8487872204036563
 20
0.5133514838816005
 42
0.3318488747599744
 10
0.9179065129689693
 20
0.4618001416666722
 42
-6.868794160588311
  0
LINE
  5
7DE1B343D9DFE16
330
7DE1B343D9DFE85
100
AcDbEntity
  8
TEXT
100
AcDbLine
 10
1.073298915657665
 20
0.4618001416666722
 30
0.0
 11
1.140356962439505
 21
0.4618001416666722
 31
0.0
  0
LINE
  5
7DE1B343D9DFE17
330
7DE1B343D9DFE85
100
AcDbEntity
  8
TEXT
100
AcDbLine
 10
1.073298915657665
 20
0.6564426908323079
 30
0.0
 11
1.073298915657665
 21
0.4618001416666722
 31
0.0
  0
LINE
  5
7DE1B343D9DFE18
330
7DE1B343D9DFE85
100
AcDbEntity
  8
TEXT
100
AcDbLine
 10
1.015909846668404
 20
0.6639964799984178
 30
0.0
 11
1.065745126491551
 21
0.6639964799984178
 31
0.0
  0
LINE
  5
7DE1B343D9DFE19
330
7DE1B343D9DFE85
100
AcDbEntity
  8
TEXT
100
AcDbLine
 10
1.015909846668404
 20
0.4618001416666722
 30
0.0
 11
1.015909846668404
 21
0.6639964799984178
 31
0.0
  0
LWPOLYLINE
  5
7DE1B343D9DFE1A
330
7DE1B343D9DFE85
100
AcDbEntity
  8
TEXT
100
AcDbPolyline
 90
        2
 70
     0
 43
0.0
 10
1.065745126491549
 20
0.6639964799984178
 42
-0.4142135623731017
 10
1.073298915657663
 20
0.6564426908323079
 42
-0.9999999999999998
  0
LINE
  5
7DE1B343D9DFE1E
330
7DE1B343D9DFE85
100
AcDbEntity
  8
TEXT
100
AcDbLine
 10
1.271555127269234
 20
0.6639964799984178
 30
0.0
 11
1.271555127269234
 21
0.5889440739242112
 31
0.0
  0
LINE
  5
7DE1B343D9DFE1F
330
7DE1B343D9DFE85
100
AcDbEntity
  8
TEXT
100
AcDbLine
 10
1.140356962439505
 20
0.6639964799984178
 30
0.0
 11
1.194490559360455
 21
0.6639964799984178
 31
0.0
  0
LINE
  5
7DE1B343D9DFE20
330
7DE1B343D9DFE85
100
AcDbEntity
  8
TEXT
100
AcDbLine
 10
1.140356962439505
 20
0.4618001416666722
 30
0.0
 11
1.140356962439505
 21
0.6639964799984178
 31
0.0
  0
LWPOLYLINE
  5
7DE1B343D9DFE21
330
7DE1B343D9DFE85
100
AcDbEntity
  8
TEXT
100
AcDbPolyline
 90
        2
 70
     0
 43
0.0
 10
1.194490559360453
 20
0.6639964799984178
 42
-0.4142135623731017
 10
1.202044348526567
 20
0.6564426908323079
 42
-0.9999999999999998
  0
LWPOLYLINE
  5
7DE1B343D9DFE25
330
7DE1B343D9DFE85
100
AcDbEntity
  8
TEXT
100
AcDbPolyline
 90
        4
 70
     0
 43
0.0
 10
1.202044348526567
 20
0.6564426908323079
 10
1.202044348526567
 20
0.4618001416666722
 10
1.270522631814424
 20
0.4618001416666722
 10
1.270522631814424
 20
0.5052910866171104
 42
-1.714843617202739
  0
LINE
  5
7DE1B343D9DFE2B
330
7DE1B343D9DFE85
100
AcDbEntity
  8
TEXT
100
AcDbLine
 10
0.6306584641313227
 20
0.7282731746551832
 30
0.0
 11
0.6306584641313227
 21
0.7626610922493214
 31
0.0
  0
LINE
  5
7DE1B343D9DFE2C
330
7DE1B343D9DFE85
100
AcDbEntity
  8
TEXT
100
AcDbLine
 10
0.70245743027523
 20
0.7282731746551832
 30
0.0
 11
0.6306584641313227
 21
0.7282731746551832
 31
0.0
  0
LINE
  5
7DE1B343D9DFE2D
330
7DE1B343D9DFE85
100
AcDbEntity
  8
TEXT
100
AcDbLine
 10
0.8499582269064095
 20
0.7282731746551832
 30
0.0
 11
0.8198363141130332
 21
0.7282731746551832
 31
0.0
  0
LINE
  5
7DE1B343D9DFE2E
330
7DE1B343D9DFE85
100
AcDbEntity
  8
TEXT
100
AcDbLine
 10
0.8499582269064095
 20
0.7962846523939938
 30
0.0
 11
0.8499582269064095
 21
0.7282731746551832
 31
0.0
  0
LINE
  5
7DE1B343D9DFE2F
330
7DE1B343D9DFE85
100
AcDbEntity
  8
TEXT
100
AcDbLine
 10
0.9167669394727745
 20
0.7962846523939938
 30
0.0
 11
0.8499582269064095
 21
0.7962846523939938
 31
0.0
  0
LWPOLYLINE
  5
7DE1B343D9DFE30
330
7DE1B343D9DFE85
100
AcDbEntity
  8
TEXT
100
AcDbPolyline
 90
        3
 70
     0
 43
0.0
 10
1.237178699070776
 20
0.7282731746551868
 10
1.118878540254732
 20
0.7282731746551868
 10
1.118878540254732
 20
0.7011056778942909
 42
-1.960274751411753
  0
LINE
  5
7DE1B343D9DFE35
330
7DE1B343D9DFE85
100
AcDbEntity
  8
TEXT
100
AcDbLine
 10
1.083096849541571
 20
0.7282731746551832
 30
0.0
 11
0.9490787936104347
 21
0.7282731746551832
 31
0.0
  0
LWPOLYLINE
  5
7DE1B343D9DFE36
330
7DE1B343D9DFE85
100
AcDbEntity
  8
TEXT
100
AcDbPolyline
 90
        2
 70
     0
 43
0.0
 10
1.083096849541571
 20
0.7282731746551868
 42
-0.3328679258950098
 10
1.118878540254732
 20
0.7011056778942909
 42
6.772930709997214
  0
LINE
  5
7DE1B343D9DFE3A
330
7DE1B343D9DFE85
100
AcDbEntity
  8
TEXT
100
AcDbLine
 10
1.272960389783943
 20
0.7282731746551832
 30
0.0
 11
1.272960389783943
 21
0.6999506288855394
 31
0.0
  0
LWPOLYLINE
  5
7DE1B343D9DFE3B
330
7DE1B343D9DFE85
100
AcDbEntity
  8
TEXT
100
AcDbPolyline
 90
        2
 70
     0
 43
0.0
 10
1.237178699070776
 20
0.7282731746551868
 42
-0.3277054968067132
 10
1.272960389783941
 20
0.6999506288855429
 42
6.667889725900311
  0
LINE
  5
7DE1B343D9DFE3F
330
7DE1B343D9DFE85
100
AcDbEntity
  8
TEXT
100
AcDbLine
 10
1.486752237876043
 20
0.6230611961017559
 30
0.0
 11
1.443001466694142
 21
0.7053114720979011
 31
0.0
  0
LINE
  5
7DE1B343D9DFE40
330
7DE1B343D9DFE85
100
AcDbEntity
  8
TEXT
100
AcDbLine
 10
1.486752237876043
 20
0.7282731746551832
 30
0.0
 11
1.486752237876043
 21
0.6230611961017559
 31
0.0
  0
LINE
  5
7DE1B343D9DFE41
330
7DE1B343D9DFE85
100
AcDbEntity
  8
TEXT
100
AcDbLine
 10
1.714435976814412
 20
0.6524078482436451
 30
0.0
 11
1.714435976814412
 21
0.7937373804227839
 31
0.0
  0
LINE
  5
7DE1B343D9DFE42
330
7DE1B343D9DFE85
100
AcDbEntity
  8
TEXT
100
AcDbLine
 10
1.761534135370397
 20
0.7282731746551832
 30
0.0
 11
1.714435976814412
 21
0.6524078482436451
 31
0.0
  0
LINE
  5
7DE1B343D9DFE43
330
7DE1B343D9DFE85
100
AcDbEntity
  8
TEXT
100
AcDbLine
 10
1.77196885213432
 20
0.6183799317142097
 30
0.0
 11
1.836525968100025
 21
0.7282731746551832
 31
0.0
  0
LINE
  5
7DE1B343D9DFE44
330
7DE1B343D9DFE85
100
AcDbEntity
  8
TEXT
100
AcDbLine
 10
1.650600985591639
 20
0.4618001416666722
 30
0.0
 11
1.71497916991026
 21
0.4618001416666722
 31
0.0
  0
LWPOLYLINE
  5
7DE1B343D9DFE45
330
7DE1B343D9DFE85
100
AcDbEntity
  8
TEXT
100
AcDbPolyline
 90
        2
 70
     0
 43
0.0
 10
1.490691915181081
 20
0.5052910866171104
 42
-0.2901071551932486
 10
1.447615982313437
 20
0.4618001416666722
 42
-5.328517124445184
  0
ARC
  5
7DE1B343D9DFE49
330
7DE1B343D9DFE85
100
AcDbEntity
  8
TEXT
100
AcDbCircle
 10
1.378761400656522
 20
0.6356371049984205
 30
0.0
 40
0.028359375
100
AcDbArc
 50
25.78218179591245
 51
90.0
  0
LINE
  5
7DE1B343D9DFE4A
330
7DE1B343D9DFE85
100
AcDbEntity
  8
TEXT
100
AcDbLine
 10
1.414562475960645
 20
0.6267215065362855
 30
0.0
 11
1.404297715547081
 21
0.6479720461089798
 31
0.0
  0
LINE
  5
7DE1B343D9DFE4B
330
7DE1B343D9DFE85
100
AcDbEntity
  8
TEXT
100
AcDbLine
 10
1.332274486177262
 20
0.6267215065362855
 30
0.0
 11
1.414562475960645
 21
0.6267215065362855
 31
0.0
  0
LWPOLYLINE
  5
7DE1B343D9DFE4C
330
7DE1B343D9DFE85
100
AcDbEntity
  8
TEXT
100
AcDbPolyline
 90
        4
 70
     1
 43
0.0
 10
1.427493517243544
 20
0.5647641196506975
 10
1.338833198583686
 20
0.5647641196506975
 42
0.9999999999999998
 10
1.338833198583686
 20
0.5223655791468368
 10
1.427493517243544
 20
0.5223655791468368
 42
1.0
  0
LWPOLYLINE
  5
7DE1B343D9DFE52
330
7DE1B343D9DFE85
100
AcDbEntity
  8
TEXT
100
AcDbPolyline
 90
        2
 70
     0
 43
0.0
 10
1.31359856468206
 20
0.4618001416666722
 10
1.447615982313437
 20
0.4618001416666722
 42
0.9999999999999998
  0
LINE
  5
7DE1B343D9DFE56
330
7DE1B343D9DFE85
100
AcDbEntity
  8
TEXT
100
AcDbLine
 10
1.573953004299076
 20
0.6639964799984178
 30
0.0
 11
1.650600985591634
 21
0.6639964799984178
 31
0.0
  0
LINE
  5
7DE1B343D9DFE57
330
7DE1B343D9DFE85
100
AcDbEntity
  8
TEXT
100
AcDbLine
 10
1.650600985591634
 20
0.6639964799984178
 30
0.0
 11
1.650600985591639
 21
0.4618001416666722
 31
0.0
  0
ARC
  5
7DE1B343D9DFE58
330
7DE1B343D9DFE85
100
AcDbEntity
  8
TEXT
100
AcDbCircle
 10
1.573953004299074
 20
0.639090604715755
 30
0.0
 40
0.0249058752826653
100
AcDbArc
 50
89.99971217465335
 51
179.9999999999985
  0
LINE
  5
7DE1B343D9DFE59
330
7DE1B343D9DFE85
100
AcDbEntity
  8
TEXT
100
AcDbLine
 10
1.549047129016417
 20
0.4618001416666722
 30
0.0
 11
1.549047129016412
 21
0.6390906470981406
 31
0.0
  0
LWPOLYLINE
  5
7DE1B343D9DFE5A
330
7DE1B343D9DFE85
100
AcDbEntity
  8
TEXT
100
AcDbPolyline
 90
        2
 70
     0
 43
0.0
 10
1.490691915181081
 20
0.4618001416666722
 10
1.549047129016415
 20
0.4618001416666722
  0
LWPOLYLINE
  5
7DE1B343D9DFE5E
330
7DE1B343D9DFE85
100
AcDbEntity
  8
TEXT
100
AcDbPolyline
 90
        2
 70
     0
 43
0.0
 10
1.490691915181081
 20
0.5052910866171104
 10
1.490691915181081
 20
0.4618001416666722
  0
LINE
  5
7DE1B343D9DFE62
330
7DE1B343D9DFE85
100
AcDbEntity
  8
TEXT
100
AcDbLine
 10
1.86746107549793
 20
0.4618001416666722
 30
0.0
 11
1.77196885213432
 21
0.6183799317142097
 31
0.0
  0
LINE
  5
7DE1B343D9DFE63
330
7DE1B343D9DFE85
100
AcDbEntity
  8
TEXT
100
AcDbLine
 10
1.790882703121724
 20
0.4618001416666722
 30
0.0
 11
1.86746107549793
 21
0.4618001416666722
 31
0.0
  0
LINE
  5
7DE1B343D9DFE64
330
7DE1B343D9DFE85
100
AcDbEntity
  8
TEXT
100
AcDbLine
 10
1.71497916991026
 20
0.5933797101428525
 30
0.0
 11
1.790882703121724
 21
0.4618001416666722
 31
0.0
  0
LINE
  5
7DE1B343D9DFE65
330
7DE1B343D9DFE85
100
AcDbEntity
  8
TEXT
100
AcDbLine
 10
1.71497916991026
 20
0.4618001416666722
 30
0.0
 11
1.71497916991026
 21
0.5933797101428525
 31
0.0
  0
LINE
  5
7DE1B343D9DFE66
330
7DE1B343D9DFE85
100
AcDbEntity
  8
TEXT
100
AcDbLine
 10
1.714435976814412
 20
0.7937373804227839
 30
0.0
 11
1.646121098265139
 21
0.7937373804227839
 31
0.0
  0
ARC
  5
7DE1B343D9DFE67
330
7DE1B343D9DFE85
100
AcDbEntity
  8
TEXT
100
AcDbCircle
 10
1.405765359223933
 20
0.6866896075342808
 30
0.0
 40
0.0416329381542859
100
AcDbArc
 50
26.56974201007528
 51
87.20939649401342
  0
LINE
  5
7DE1B343D9DFE68
330
7DE1B343D9DFE85
100
AcDbEntity
  8
TEXT
100
AcDbLine
 10
1.550649144175544
 20
0.7282731746551832
 30
0.0
 11
1.486752237876043
 21
0.7282731746551832
 31
0.0
  0
LINE
  5
7DE1B343D9DFE69
330
7DE1B343D9DFE85
100
AcDbEntity
  8
TEXT
100
AcDbLine
 10
1.550649144175544
 20
0.7007255247943086
 30
0.0
 11
1.550649144175544
 21
0.7282731746551832
 31
0.0
  0
ARC
  5
7DE1B343D9DFE6A
330
7DE1B343D9DFE85
100
AcDbEntity
  8
TEXT
100
AcDbCircle
 10
1.581841961238652
 20
0.6970274473729184
 30
0.0
 40
0.0314112657011332
100
AcDbArc
 50
95.88484768694724
 51
173.2388340632136
  0
LINE
  5
7DE1B343D9DFE6B
330
7DE1B343D9DFE85
100
AcDbEntity
  8
TEXT
100
AcDbLine
 10
1.646121098265134
 20
0.7282731746551832
 30
0.0
 11
1.578621380615617
 21
0.7282731746551832
 31
0.0
  0
LINE
  5
7DE1B343D9DFE6C
330
7DE1B343D9DFE85
100
AcDbEntity
  8
TEXT
100
AcDbLine
 10
1.646121098265139
 20
0.7937373804227839
 30
0.0
 11
1.646121098265134
 21
0.7282731746551832
 31
0.0
  0
LINE
  5
7DE1B343D9DFE6D
330
7DE1B343D9DFE85
100
AcDbEntity
  8
TEXT
100
AcDbLine
 10
1.836525968100025
 20
0.7282731746551832
 30
0.0
 11
1.761534135370399
 21
0.7282731746551832
 31
0.0
  0
ENDSEC
  0
SECTION
  2
OBJECTS
  0
DICTIONARY
  5
7DE1B343D9DFE79
330
0
100
AcDbDictionary
  3
ACAD_GROUP
350
7DE1B343D9DFE7A
  3
ACAD_LAYOUT
350
7DE1B343D9DFE9F
  3
ACAD_MLINESTYLE
350
7DE1B343D9DFE7B
  3
ACAD_PLOTSETTINGS
350
7DE1B343D9DFEA0
  3
ACAD_PLOTSTYLENAME
350
7DE1B343D9DFE9D
  3
ACDBHEADERROUNDTRIPXREC
350
7DE1B343D9DFEAA
  3
ACDBVARIABLEDICTIONARY
350
7DE1B343D9DFEA7
  0
DICTIONARY
  5
7DE1B343D9DFECC
330
7DE1B343D9DFE85
100
AcDbDictionary
280
     1
  3
ACAD_LAYOUTSELFREF
360
7DE1B343D9DFECD
  0
DICTIONARY
  5
7DE1B343D9DFECA
330
7DE1B343D9DFE82
100
AcDbDictionary
280
     1
  3
ACAD_LAYOUTSELFREF
360
7DE1B343D9DFECB
  0
DICTIONARY
  5
7DE1B343D9DFE7A
102
{ACAD_REACTORS
330
7DE1B343D9DFE79
102
}
330
7DE1B343D9DFE79
100
AcDbDictionary
  0
DICTIONARY
  5
7DE1B343D9DFE9F
102
{ACAD_REACTORS
330
7DE1B343D9DFE79
102
}
330
7DE1B343D9DFE79
100
AcDbDictionary
  0
DICTIONARY
  5
7DE1B343D9DFE7B
102
{ACAD_REACTORS
330
7DE1B343D9DFE79
102
}
330
7DE1B343D9DFE79
100
AcDbDictionary
  3
STANDARD
350
7DE1B343D9DFE88
  0
DICTIONARY
  5
7DE1B343D9DFEA0
102
{ACAD_REACTORS
330
7DE1B343D9DFE79
102
}
330
7DE1B343D9DFE79
100
AcDbDictionary
  0
ACDBDICTIONARYWDFLT
  5
7DE1B343D9DFE9D
102
{ACAD_REACTORS
330
7DE1B343D9DFE79
102
}
330
7DE1B343D9DFE79
100
AcDbDictionary
281
     1
  3
Normal
350
7DE1B343D9DFE9E
100
AcDbDictionaryWithDefault
340
7DE1B343D9DFE9E
  0
DICTIONARY
  5
7DE1B343D9DFEAA
102
{ACAD_REACTORS
330
7DE1B343D9DFE79
102
}
330
7DE1B343D9DFE79
100
AcDbDictionary
  3
CEPSNTYPE
350
7DE1B343D9DFEB4
  3
FINGERPRINTGUID
350
7DE1B343D9DFEB5
  3
HYPERLINKBASE
350
7DE1B343D9DFEAD
  3
INSUNITS
350
7DE1B343D9DFEB3
  3
LAYOUTDICT
350
7DE1B343D9DFEAF
  3
LWETCUNION
350
7DE1B343D9DFEB2
  3
PLOTSETDICT
350
7DE1B343D9DFEB0
  3
PLOTSTYLNAMDICT
350
7DE1B343D9DFEB1
  3
PSVPSCALE
350
7DE1B343D9DFEB7
  3
PUCSBASE
350
7DE1B343D9DFEBA
  3
PUCSORGBACK
350
7DE1B343D9DFEC0
  3
PUCSORGBOTTOM
350
7DE1B343D9DFEBC
  3
PUCSORGFRONT
350
7DE1B343D9DFEBF
  3
PUCSORGLEFT
350
7DE1B343D9DFEBD
  3
PUCSORGRIGHT
350
7DE1B343D9DFEBE
  3
PUCSORGTOP
350
7DE1B343D9DFEBB
  3
PUCSORTHOREF
350
7DE1B343D9DFEB8
  3
PUCSORTHOVIEW
350
7DE1B343D9DFEB9
  3
STYLESHEET
350
7DE1B343D9DFEAE
  3
TSTACKALIGN
350
7DE1B343D9DFEAB
  3
TSTACKSIZE
350
7DE1B343D9DFEAC
  3
UCSBASE
350
7DE1B343D9DFEC3
  3
UCSORGBACK
350
7DE1B343D9DFEC9
  3
UCSORGBOTTOM
350
7DE1B343D9DFEC5
  3
UCSORGFRONT
350
7DE1B343D9DFEC8
  3
UCSORGLEFT
350
7DE1B343D9DFEC6
  3
UCSORGRIGHT
350
7DE1B343D9DFEC7
  3
UCSORGTOP
350
7DE1B343D9DFEC4
  3
UCSORTHOREF
350
7DE1B343D9DFEC1
  3
UCSORTHOVIEW
350
7DE1B343D9DFEC2
  3
VERSIONGUID
350
7DE1B343D9DFEB6
  0
DICTIONARY
  5
7DE1B343D9DFEA7
102
{ACAD_REACTORS
330
7DE1B343D9DFE79
102
}
330
7DE1B343D9DFE79
100
AcDbDictionary
  3
DIMASSOC
350
7DE1B343D9DFEA8
  0
XRECORD
  5
7DE1B343D9DFECD
102
{ACAD_REACTORS
330
7DE1B343D9DFECC
102
}
330
7DE1B343D9DFECC
100
AcDbXrecord
340
7DE1B343D9DFE85
  0
XRECORD
  5
7DE1B343D9DFECB
102
{ACAD_REACTORS
330
7DE1B343D9DFECA
102
}
330
7DE1B343D9DFECA
100
AcDbXrecord
340
7DE1B343D9DFE82
  0
MLINESTYLE
  5
7DE1B343D9DFE88
102
{ACAD_REACTORS
330
7DE1B343D9DFE7B
102
}
330
7DE1B343D9DFE7B
100
AcDbMlineStyle
  2
STANDARD
 70
     0
  3

 62
     0
 51
90.0
 52
90.0
 71
     2
 49
0.5
 62
   256
  6
BYLAYER
 49
-0.5
 62
   256
  6
BYLAYER
  0
ACDBPLACEHOLDER
  5
7DE1B343D9DFE9E
102
{ACAD_REACTORS
330
7DE1B343D9DFE9D
102
}
330
7DE1B343D9DFE9D
100
AcDbPlaceHolder
280
     0
  0
XRECORD
  5
7DE1B343D9DFEB4
102
{ACAD_REACTORS
330
7DE1B343D9DFEAA
102
}
330
7DE1B343D9DFEAA
100
AcDbXrecord
 90
        0
  0
XRECORD
  5
7DE1B343D9DFEB5
102
{ACAD_REACTORS
330
7DE1B343D9DFEAA
102
}
330
7DE1B343D9DFEAA
100
AcDbXrecord
  1
{A9C984D0-8DB6-11D6-88E6-0090279574E7}
  0
XRECORD
  5
7DE1B343D9DFEAD
102
{ACAD_REACTORS
330
7DE1B343D9DFEAA
102
}
330
7DE1B343D9DFEAA
100
AcDbXrecord
  1

  0
XRECORD
  5
7DE1B343D9DFEB3
102
{ACAD_REACTORS
330
7DE1B343D9DFEAA
102
}
330
7DE1B343D9DFEAA
100
AcDbXrecord
 90
        0
  0
XRECORD
  5
7DE1B343D9DFEAF
102
{ACAD_REACTORS
330
7DE1B343D9DFEAA
102
}
330
7DE1B343D9DFEAA
100
AcDbXrecord
340
7DE1B343D9DFE9F
  0
XRECORD
  5
7DE1B343D9DFEB2
102
{ACAD_REACTORS
330
7DE1B343D9DFEAA
102
}
330
7DE1B343D9DFEAA
100
AcDbXrecord
 90
    14877
  0
XRECORD
  5
7DE1B343D9DFEB0
102
{ACAD_REACTORS
330
7DE1B343D9DFEAA
102
}
330
7DE1B343D9DFEAA
100
AcDbXrecord
340
7DE1B343D9DFEA0
  0
XRECORD
  5
7DE1B343D9DFEB1
102
{ACAD_REACTORS
330
7DE1B343D9DFEAA
102
}
330
7DE1B343D9DFEAA
100
AcDbXrecord
340
7DE1B343D9DFE9D
  0
XRECORD
  5
7DE1B343D9DFEB7
102
{ACAD_REACTORS
330
7DE1B343D9DFEAA
102
}
330
7DE1B343D9DFEAA
100
AcDbXrecord
 40
0.0
  0
XRECORD
  5
7DE1B343D9DFEBA
102
{ACAD_REACTORS
330
7DE1B343D9DFEAA
102
}
330
7DE1B343D9DFEAA
100
AcDbXrecord
340
0
  0
XRECORD
  5
7DE1B343D9DFEC0
102
{ACAD_REACTORS
330
7DE1B343D9DFEAA
102
}
330
7DE1B343D9DFEAA
100
AcDbXrecord
 10
0.0
 20
0.0
 30
0.0
  0
XRECORD
  5
7DE1B343D9DFEBC
102
{ACAD_REACTORS
330
7DE1B343D9DFEAA
102
}
330
7DE1B343D9DFEAA
100
AcDbXrecord
 10
0.0
 20
0.0
 30
0.0
  0
XRECORD
  5
7DE1B343D9DFEBF
102
{ACAD_REACTORS
330
7DE1B343D9DFEAA
102
}
330
7DE1B343D9DFEAA
100
AcDbXrecord
 10
0.0
 20
0.0
 30
0.0
  0
XRECORD
  5
7DE1B343D9DFEBD
102
{ACAD_REACTORS
330
7DE1B343D9DFEAA
102
}
330
7DE1B343D9DFEAA
100
AcDbXrecord
 10
0.0
 20
0.0
 30
0.0
  0
XRECORD
  5
7DE1B343D9DFEBE
102
{ACAD_REACTORS
330
7DE1B343D9DFEAA
102
}
330
7DE1B343D9DFEAA
100
AcDbXrecord
 10
0.0
 20
0.0
 30
0.0
  0
XRECORD
  5
7DE1B343D9DFEBB
102
{ACAD_REACTORS
330
7DE1B343D9DFEAA
102
}
330
7DE1B343D9DFEAA
100
AcDbXrecord
 10
0.0
 20
0.0
 30
0.0
  0
XRECORD
  5
7DE1B343D9DFEB8
102
{ACAD_REACTORS
330
7DE1B343D9DFEAA
102
}
330
7DE1B343D9DFEAA
100
AcDbXrecord
340
0
  0
XRECORD
  5
7DE1B343D9DFEB9
102
{ACAD_REACTORS
330
7DE1B343D9DFEAA
102
}
330
7DE1B343D9DFEAA
100
AcDbXrecord
 70
     0
  0
XRECORD
  5
7DE1B343D9DFEAE
102
{ACAD_REACTORS
330
7DE1B343D9DFEAA
102
}
330
7DE1B343D9DFEAA
100
AcDbXrecord
  1

  0
XRECORD
  5
7DE1B343D9DFEAB
102
{ACAD_REACTORS
330
7DE1B343D9DFEAA
102
}
330
7DE1B343D9DFEAA
100
AcDbXrecord
 90
        1
  0
XRECORD
  5
7DE1B343D9DFEAC
102
{ACAD_REACTORS
330
7DE1B343D9DFEAA
102
}
330
7DE1B343D9DFEAA
100
AcDbXrecord
 90
       70
  0
XRECORD
  5
7DE1B343D9DFEC3
102
{ACAD_REACTORS
330
7DE1B343D9DFEAA
102
}
330
7DE1B343D9DFEAA
100
AcDbXrecord
340
0
  0
XRECORD
  5
7DE1B343D9DFEC9
102
{ACAD_REACTORS
330
7DE1B343D9DFEAA
102
}
330
7DE1B343D9DFEAA
100
AcDbXrecord
 10
0.0
 20
0.0
 30
0.0
  0
XRECORD
  5
7DE1B343D9DFEC5
102
{ACAD_REACTORS
330
7DE1B343D9DFEAA
102
}
330
7DE1B343D9DFEAA
100
AcDbXrecord
 10
0.0
 20
0.0
 30
0.0
  0
XRECORD
  5
7DE1B343D9DFEC8
102
{ACAD_REACTORS
330
7DE1B343D9DFEAA
102
}
330
7DE1B343D9DFEAA
100
AcDbXrecord
 10
0.0
 20
0.0
 30
0.0
  0
XRECORD
  5
7DE1B343D9DFEC6
102
{ACAD_REACTORS
330
7DE1B343D9DFEAA
102
}
330
7DE1B343D9DFEAA
100
AcDbXrecord
 10
0.0
 20
0.0
 30
0.0
  0
XRECORD
  5
7DE1B343D9DFEC7
102
{ACAD_REACTORS
330
7DE1B343D9DFEAA
102
}
330
7DE1B343D9DFEAA
100
AcDbXrecord
 10
0.0
 20
0.0
 30
0.0
  0
XRECORD
  5
7DE1B343D9DFEC4
102
{ACAD_REACTORS
330
7DE1B343D9DFEAA
102
}
330
7DE1B343D9DFEAA
100
AcDbXrecord
 10
0.0
 20
0.0
 30
0.0
  0
XRECORD
  5
7DE1B343D9DFEC1
102
{ACAD_REACTORS
330
7DE1B343D9DFEAA
102
}
330
7DE1B343D9DFEAA
100
AcDbXrecord
340
0
  0
XRECORD
  5
7DE1B343D9DFEC2
102
{ACAD_REACTORS
330
7DE1B343D9DFEAA
102
}
330
7DE1B343D9DFEAA
100
AcDbXrecord
 70
     0
  0
XRECORD
  5
7DE1B343D9DFEB6
102
{ACAD_REACTORS
330
7DE1B343D9DFEAA
102
}
330
7DE1B343D9DFEAA
100
AcDbXrecord
  1
{A9C984D2-8DB6-11D6-88E6-0090279574E7}
  0
DICTIONARYVAR
  5
7DE1B343D9DFEA8
102
{ACAD_REACTORS
330
7DE1B343D9DFEA7
102
}
330
7DE1B343D9DFEA7
100
DictionaryVariables
280
     0
  1
1
  0
ENDSEC
  0
EOF
