  0
SECTION
  2
HEADER
  9
$ACADVER
  1
AC1014
  9
$ACADMAINTVER
 70
     9
  9
$DWGCODEPAGE
  3
ANSI_1252
  9
$INSBASE
 10
2.028407004282678
 20
1.759629443991956
 30
0.0
  9
$EXTMIN
 10
0.285425425055535
 20
0.5703970480933787
 30
0.0
  9
$EXTMAX
 10
3.770644746802662
 20
2.216129443991956
 30
0.0
  9
$LIMMIN
 10
0.0
 20
0.0
  9
$LIMMAX
 10
18.0
 20
12.0
  9
$ORTHOMODE
 70
     1
  9
$REGENMODE
 70
     1
  9
$FILLMODE
 70
     1
  9
$QTEXTMODE
 70
     0
  9
$MIRRTEXT
 70
     0
  9
$DRAGMODE
 70
     2
  9
$LTSCALE
 40
1.0
  9
$OSMODE
 70
    39
  9
$ATTMODE
 70
     1
  9
$TEXTSIZE
 40
0.125
  9
$TRACEWID
 40
0.05
  9
$TEXTSTYLE
  7
ROMANS
  9
$CLAYER
  8
0
  9
$CELTYPE
  6
BYLAYER
  9
$CECOLOR
 62
   256
  9
$CELTSCALE
 40
1.0
  9
$DELOBJ
 70
     1
  9
$DISPSILH
 70
     1
  9
$DIMSCALE
 40
1.0
  9
$DIMASZ
 40
0.125
  9
$DIMEXO
 40
0.125
  9
$DIMDLI
 40
0.375
  9
$DIMRND
 40
0.0
  9
$DIMDLE
 40
0.0
  9
$DIMEXE
 40
0.125
  9
$DIMTP
 40
0.0
  9
$DIMTM
 40
0.0
  9
$DIMTXT
 40
0.125
  9
$DIMCEN
 40
-0.125
  9
$DIMTSZ
 40
0.0
  9
$DIMTOL
 70
     0
  9
$DIMLIM
 70
     0
  9
$DIMTIH
 70
     1
  9
$DIMTOH
 70
     1
  9
$DIMSE1
 70
     0
  9
$DIMSE2
 70
     0
  9
$DIMTAD
 70
     0
  9
$DIMZIN
 70
     4
  9
$DIMBLK
  1

  9
$DIMASO
 70
     1
  9
$DIMSHO
 70
     1
  9
$DIMPOST
  1

  9
$DIMAPOST
  1

  9
$DIMALT
 70
     0
  9
$DIMALTD
 70
     2
  9
$DIMALTF
 40
25.4
  9
$DIMLFAC
 40
1.0
  9
$DIMTOFL
 70
     0
  9
$DIMTVP
 40
0.0
  9
$DIMTIX
 70
     1
  9
$DIMSOXD
 70
     0
  9
$DIMSAH
 70
     0
  9
$DIMBLK1
  1

  9
$DIMBLK2
  1

  9
$DIMSTYLE
  2
STANDARD
  9
$DIMCLRD
 70
     0
  9
$DIMCLRE
 70
     0
  9
$DIMCLRT
 70
     0
  9
$DIMTFAC
 40
1.0
  9
$DIMGAP
 40
0.09
  9
$DIMJUST
 70
     0
  9
$DIMSD1
 70
     0
  9
$DIMSD2
 70
     0
  9
$DIMTOLJ
 70
     1
  9
$DIMTZIN
 70
     4
  9
$DIMALTZ
 70
     0
  9
$DIMALTTZ
 70
     0
  9
$DIMFIT
 70
     3
  9
$DIMUPT
 70
     0
  9
$DIMUNIT
 70
     2
  9
$DIMDEC
 70
     3
  9
$DIMTDEC
 70
     3
  9
$DIMALTU
 70
     2
  9
$DIMALTTD
 70
     2
  9
$DIMTXSTY
  7
ROMANS
  9
$DIMAUNIT
 70
     0
  9
$LUNITS
 70
     2
  9
$LUPREC
 70
     3
  9
$SKETCHINC
 40
0.1
  9
$FILLETRAD
 40
0.03125
  9
$AUNITS
 70
     0
  9
$AUPREC
 70
     0
  9
$MENU
  1
ACAD
  9
$ELEVATION
 40
0.0
  9
$PELEVATION
 40
0.0
  9
$THICKNESS
 40
0.0
  9
$LIMCHECK
 70
     0
  9
$BLIPMODE
 70
     0
  9
$CHAMFERA
 40
0.0
  9
$CHAMFERB
 40
0.0
  9
$CHAMFERC
 40
0.0
  9
$CHAMFERD
 40
0.0
  9
$SKPOLY
 70
     0
  9
$TDCREATE
 40
2448994.599103588
  9
$TDUPDATE
 40
2452458.308566701
  9
$TDINDWG
 40
0.0005734491
  9
$TDUSRTIMER
 40
0.0005734491
  9
$USRTIMER
 70
     1
  9
$ANGBASE
 50
0.0
  9
$ANGDIR
 70
     0
  9
$PDMODE
 70
     0
  9
$PDSIZE
 40
0.0
  9
$PLINEWID
 40
0.0
  9
$COORDS
 70
     2
  9
$SPLFRAME
 70
     0
  9
$SPLINETYPE
 70
     6
  9
$SPLINESEGS
 70
     8
  9
$ATTDIA
 70
     0
  9
$ATTREQ
 70
     1
  9
$HANDLING
 70
 22529
  9
$HANDSEED
  5
7DE1B343D9E2252
  9
$SURFTAB1
 70
     6
  9
$SURFTAB2
 70
     6
  9
$SURFTYPE
 70
     6
  9
$SURFU
 70
     6
  9
$SURFV
 70
     6
  9
$UCSNAME
  2

  9
$UCSORG
 10
0.0
 20
0.0
 30
0.0
  9
$UCSXDIR
 10
1.0
 20
0.0
 30
0.0
  9
$UCSYDIR
 10
0.0
 20
1.0
 30
0.0
  9
$PUCSNAME
  2

  9
$PUCSORG
 10
0.0
 20
0.0
 30
0.0
  9
$PUCSXDIR
 10
1.0
 20
0.0
 30
0.0
  9
$PUCSYDIR
 10
0.0
 20
1.0
 30
0.0
  9
$USERI1
 70
     0
  9
$USERI2
 70
     0
  9
$USERI3
 70
     0
  9
$USERI4
 70
     0
  9
$USERI5
 70
     0
  9
$USERR1
 40
0.0
  9
$USERR2
 40
0.0
  9
$USERR3
 40
0.0
  9
$USERR4
 40
0.0
  9
$USERR5
 40
0.0
  9
$WORLDVIEW
 70
     1
  9
$SHADEDGE
 70
     3
  9
$SHADEDIF
 70
    70
  9
$TILEMODE
 70
     1
  9
$MAXACTVP
 70
    16
  9
$PINSBASE
 10
0.6306718989752903
 20
50.00000000000001
 30
0.6310975549896842
  9
$PLIMCHECK
 70
     0
  9
$PEXTMIN
 10
1.000000000000000E+20
 20
1.000000000000000E+20
 30
1.000000000000000E+20
  9
$PEXTMAX
 10
-1.000000000000000E+20
 20
-1.000000000000000E+20
 30
-1.000000000000000E+20
  9
$PLIMMIN
 10
0.0
 20
0.0
  9
$PLIMMAX
 10
12.0
 20
9.0
  9
$UNITMODE
 70
     0
  9
$VISRETAIN
 70
     0
  9
$PLINEGEN
 70
     1
  9
$PSLTSCALE
 70
     0
  9
$TREEDEPTH
 70
  3020
  9
$PICKSTYLE
 70
     1
  9
$CMLSTYLE
  2
STANDARD
  9
$CMLJUST
 70
     0
  9
$CMLSCALE
 40
1.0
  9
$PROXYGRAPHICS
 70
     1
  9
$MEASUREMENT
 70
     0
  0
ENDSEC
  0
SECTION
  2
CLASSES
  0
CLASS
  1
LWPOLYLINE
  2
AcDbPolyline
  3
AutoCAD 2000
 90
        0
280
     0
281
     1
  0
CLASS
  1
ACDBDICTIONARYWDFLT
  2
AcDbDictionaryWithDefault
  3
AutoCAD 2000
 90
        0
280
     0
281
     0
  0
CLASS
  1
ACDBPLACEHOLDER
  2
AcDbPlaceHolder
  3
AutoCAD 2000
 90
        0
280
     0
281
     0
  0
CLASS
  1
LAYOUT
  2
AcDbLayout
  3
AutoCAD 2000
 90
        0
280
     0
281
     0
  0
CLASS
  1
DICTIONARYVAR
  2
AcDbDictionaryVar
  3
AutoCAD 2000
 90
        0
280
     0
281
     0
  0
CLASS
  1
LONG_TRANSACTION
  2
AcDbLongTransaction
  3
AutoCAD 2000
 90
        0
280
     0
281
     0
  0
CLASS
  1
LWPOLYLINE
  2
AcDbPolyline
  3
AutoCAD 2000
 90
        0
280
     0
281
     1
  0
CLASS
  1
HATCH
  2
AcDbHatch
  3
AutoCAD 2000
 90
        0
280
     0
281
     1
  0
CLASS
  1
XRECORD
  2
AcDbXrecord
  3
AutoCAD 2000
 90
        0
280
     0
281
     0
  0
ENDSEC
  0
SECTION
  2
TABLES
  0
TABLE
  2
VPORT
  5
7DE1B343D9E21F9
330
0
100
AcDbSymbolTable
 70
     2
  0
VPORT
  5
7DE1B343D9E222D
330
7DE1B343D9E21F9
100
AcDbSymbolTableRecord
100
AcDbViewportTableRecord
  2
*ACTIVE
 70
     0
 10
0.0
 20
0.0
 11
1.0
 21
1.0
 12
5.004824482011902
 22
1.393524192498908
 13
0.0
 23
0.0
 14
0.015625
 24
0.015625
 15
0.0
 25
0.0
 16
0.0
 26
0.0
 36
1.0
 17
0.0
 27
0.0
 37
0.0
 40
2.282647215150728
 41
4.320930232558139
 42
50.0
 43
0.0
 44
0.0
 50
0.0
 51
0.0
 71
     0
 72
  2000
 73
     1
 74
     0
 75
     0
 76
     0
 77
     0
 78
     0
  0
ENDTAB
  0
TABLE
  2
LTYPE
  5
7DE1B343D9E21F6
330
0
100
AcDbSymbolTable
 70
     1
  0
LTYPE
  5
7DE1B343D9E2203
330
7DE1B343D9E21F6
100
AcDbSymbolTableRecord
100
AcDbLinetypeTableRecord
  2
BYBLOCK
 70
     0
  3

 72
    65
 73
     0
 40
0.0
  0
LTYPE
  5
7DE1B343D9E2204
330
7DE1B343D9E21F6
100
AcDbSymbolTableRecord
100
AcDbLinetypeTableRecord
  2
BYLAYER
 70
     0
  3

 72
    65
 73
     0
 40
0.0
  0
LTYPE
  5
7DE1B343D9E2205
330
7DE1B343D9E21F6
100
AcDbSymbolTableRecord
100
AcDbLinetypeTableRecord
  2
CONTINUOUS
 70
     0
  3
Solid line
 72
    65
 73
     0
 40
0.0
  0
ENDTAB
  0
TABLE
  2
LAYER
  5
7DE1B343D9E21F3
330
0
100
AcDbSymbolTable
 70
     2
  0
LAYER
  5
7DE1B343D9E2200
330
7DE1B343D9E21F3
100
AcDbSymbolTableRecord
100
AcDbLayerTableRecord
  2
0
 70
     0
 62
     7
  6
CONTINUOUS
  0
LAYER
  5
7DE1B343D9E2210
330
7DE1B343D9E21F3
100
AcDbSymbolTableRecord
100
AcDbLayerTableRecord
  2
TEXT
 70
     0
 62
     3
  6
CONTINUOUS
  0
ENDTAB
  0
TABLE
  2
STYLE
  5
7DE1B343D9E21F4
330
0
100
AcDbSymbolTable
 70
     3
  0
STYLE
  5
7DE1B343D9E2201
330
7DE1B343D9E21F4
100
AcDbSymbolTableRecord
100
AcDbTextStyleTableRecord
  2
STANDARD
 70
     0
 40
0.0
 41
1.0
 50
0.0
 71
     0
 42
0.3125
  3
txt
  4

  0
STYLE
  5
7DE1B343D9E220D
330
7DE1B343D9E21F4
100
AcDbSymbolTableRecord
100
AcDbTextStyleTableRecord
  2
ITALICC
 70
     0
 40
0.0
 41
1.0
 50
0.0
 71
     0
 42
0.125
  3
italicc
  4

  0
STYLE
  5
7DE1B343D9E221D
330
7DE1B343D9E21F4
100
AcDbSymbolTableRecord
100
AcDbTextStyleTableRecord
  2
ROMANS
 70
     0
 40
0.0
 41
1.0
 50
0.0
 71
     0
 42
0.125
  3
romans.shx
  4

  0
ENDTAB
  0
TABLE
  2
VIEW
  5
7DE1B343D9E21F7
330
0
100
AcDbSymbolTable
 70
     0
  0
ENDTAB
  0
TABLE
  2
UCS
  5
7DE1B343D9E21F8
330
0
100
AcDbSymbolTable
 70
     0
  0
ENDTAB
  0
TABLE
  2
APPID
  5
7DE1B343D9E21FA
330
0
100
AcDbSymbolTable
 70
     1
  0
APPID
  5
7DE1B343D9E2202
330
7DE1B343D9E21FA
100
AcDbSymbolTableRecord
100
AcDbRegAppTableRecord
  2
ACAD
 70
     0
  0
ENDTAB
  0
TABLE
  2
DIMSTYLE
  5
7DE1B343D9E21FB
330
0
100
AcDbSymbolTable
 70
     1
  0
DIMSTYLE
105
7DE1B343D9E2215
330
7DE1B343D9E21FB
100
AcDbSymbolTableRecord
100
AcDbDimStyleTableRecord
  2
STANDARD
 70
     0
  3

  4

  5

  6

  7

 40
1.0
 41
0.125
 42
0.125
 43
0.375
 44
0.125
 45
0.0
 46
0.0
 47
0.0
 48
0.0
140
0.125
141
-0.125
142
0.0
143
25.4
144
1.0
145
0.0
146
1.0
147
0.09
 71
     0
 72
     0
 73
     1
 74
     1
 75
     0
 76
     0
 77
     0
 78
     4
170
     0
171
     2
172
     0
173
     0
174
     1
175
     0
176
     0
177
     0
178
     0
270
     2
271
     3
272
     3
273
     2
274
     2
340
7DE1B343D9E221D
275
     0
280
     0
281
     0
282
     0
283
     1
284
     4
285
     0
286
     0
287
     3
288
     0
  0
ENDTAB
  0
TABLE
  2
BLOCK_RECORD
  5
7DE1B343D9E21F2
330
0
100
AcDbSymbolTable
 70
     0
  0
BLOCK_RECORD
  5
7DE1B343D9E2209
102
{ACAD_XDICTIONARY
360
7DE1B343D9E2250
102
}
330
7DE1B343D9E21F2
100
AcDbSymbolTableRecord
100
AcDbBlockTableRecord
  2
*MODEL_SPACE
  0
BLOCK_RECORD
  5
7DE1B343D9E2206
102
{ACAD_XDICTIONARY
360
7DE1B343D9E224E
102
}
330
7DE1B343D9E21F2
100
AcDbSymbolTableRecord
100
AcDbBlockTableRecord
  2
*PAPER_SPACE
  0
ENDTAB
  0
ENDSEC
  0
SECTION
  2
BLOCKS
  0
BLOCK
  5
7DE1B343D9E2213
330
7DE1B343D9E2209
100
AcDbEntity
  8
0
100
AcDbBlockBegin
  2
*MODEL_SPACE
 70
     0
 10
0.0
 20
0.0
 30
0.0
  3
*MODEL_SPACE
  1

  0
ENDBLK
  5
7DE1B343D9E2214
330
7DE1B343D9E2209
100
AcDbEntity
  8
0
100
AcDbBlockEnd
  0
BLOCK
  5
7DE1B343D9E2211
330
7DE1B343D9E2206
100
AcDbEntity
 67
     1
  8
0
100
AcDbBlockBegin
  2
*PAPER_SPACE
 70
     0
 10
0.0
 20
0.0
 30
0.0
  3
*PAPER_SPACE
  1

  0
ENDBLK
  5
7DE1B343D9E2212
330
7DE1B343D9E2206
100
AcDbEntity
 67
     1
  8
0
100
AcDbBlockEnd
  0
ENDSEC
  0
SECTION
  2
ENTITIES
  0
CIRCLE
  5
7DE1B343D9E0CD4
330
7DE1B343D9E2209
100
AcDbEntity
  8
0
100
AcDbCircle
 10
2.028407004282678
 20
1.759629443991956
 30
0.0
 40
0.4565
  0
TEXT
  5
7DE1B343D9E20B4
330
7DE1B343D9E2209
100
AcDbEntity
  8
TEXT
100
AcDbText
 10
1.275430813806488
 20
1.02841565217596
 30
0.0
 40
0.125
  1
PART #110370
  7
ITALICC
 72
     1
 11
2.028407004282678
 21
1.02841565217596
 31
0.0
100
AcDbText
  0
TEXT
  5
7DE1B343D9E20B5
330
7DE1B343D9E2209
100
AcDbEntity
  8
TEXT
100
AcDbText
 10
2.441712162532998
 20
0.5814930095035851
 30
0.0
 40
0.0522247191011236
  1
Phone  1-800-328-2495
 41
1.272321428571429
 72
     5
 11
3.770644746802662
 21
0.5814930095035851
 31
0.0
100
AcDbText
  0
TEXT
  5
7DE1B343D9E20B6
330
7DE1B343D9E2209
100
AcDbEntity
  8
TEXT
100
AcDbText
 10
2.441712162532998
 20
0.8612682904024616
 30
0.0
 40
0.0522247191011236
  1
Stylmark  Incorporated
 41
1.221428571428573
 72
     5
 11
3.770644746802662
 21
0.8612682904024616
 31
0.0
100
AcDbText
  0
TEXT
  5
7DE1B343D9E20B7
330
7DE1B343D9E2209
100
AcDbEntity
  8
TEXT
100
AcDbText
 10
2.441712162532998
 20
0.7680098634361694
 30
0.0
 40
0.0522247191011236
  1
6536 Main St. N.E. * P.O. Box 32008
 41
0.8388932496075366
 72
     5
 11
3.770644746802662
 21
0.7680098634361694
 31
0.0
100
AcDbText
  0
TEXT
  5
7DE1B343D9E20B8
330
7DE1B343D9E2209
100
AcDbEntity
  8
TEXT
100
AcDbText
 10
2.441712162532998
 20
0.6747514364698773
 30
0.0
 40
0.0522247191011236
  1
Minneapolis, MN 55432-0008
 41
1.11444212721585
 72
     5
 11
3.770644746802662
 21
0.6747514364698773
 31
0.0
100
AcDbText
  0
LWPOLYLINE
  5
7DE1B343D9E20B9
330
7DE1B343D9E2209
100
AcDbEntity
  8
TEXT
100
AcDbPolyline
 90
        3
 70
     0
 43
0.0006660908203125
 10
0.2857584704656913
 20
0.6951377721410199
 10
0.2857584704656913
 20
0.5819023326878923
 10
0.3989939099188136
 20
0.5819023326878923
  0
LWPOLYLINE
  5
7DE1B343D9E20BE
330
7DE1B343D9E2209
100
AcDbEntity
  8
TEXT
100
AcDbPolyline
 90
        3
 70
     0
 43
0.0006660908203125
 10
0.3124021032781887
 20
0.6951377721410199
 10
0.3124021032781887
 20
0.6085459655003933
 10
0.3989939099188136
 20
0.6085459655003933
  0
LWPOLYLINE
  5
7DE1B343D9E20C3
330
7DE1B343D9E2209
100
AcDbEntity
  8
TEXT
100
AcDbPolyline
 90
        2
 70
     0
 43
0.0001332181640625
 10
0.3590284607000655
 20
0.7051291344457052
 10
0.2857584704656913
 20
0.6951377721410199
  0
LWPOLYLINE
  5
7DE1B343D9E20C7
330
7DE1B343D9E2209
100
AcDbEntity
  8
TEXT
100
AcDbPolyline
 90
        2
 70
     0
 43
0.0001332181640625
 10
0.3124021032781887
 20
0.6951377721410199
 10
0.3723502771063161
 20
0.7051291344457052
  0
LWPOLYLINE
  5
7DE1B343D9E20CB
330
7DE1B343D9E2209
100
AcDbEntity
  8
TEXT
100
AcDbPolyline
 90
        2
 70
     0
 43
0.0001332181640625
 10
0.3124021032781887
 20
0.6085459655003933
 10
0.3723502771063161
 20
0.6684941393285189
  0
LWPOLYLINE
  5
7DE1B343D9E20CF
330
7DE1B343D9E2209
100
AcDbEntity
  8
TEXT
100
AcDbPolyline
 90
        3
 70
     0
 43
0.0006660908203125
 10
0.3989939099188136
 20
0.8483386608128956
 10
0.2857584704656913
 20
0.8483386608128956
 10
0.2857584704656913
 20
0.7351032213597679
  0
LWPOLYLINE
  5
7DE1B343D9E20D4
330
7DE1B343D9E2209
100
AcDbEntity
  8
TEXT
100
AcDbPolyline
 90
        3
 70
     0
 43
0.0006660908203125
 10
0.3989939099188136
 20
0.8216950280003946
 10
0.3124021032781887
 20
0.8216950280003946
 10
0.3124021032781887
 20
0.7351032213597679
  0
LWPOLYLINE
  5
7DE1B343D9E20D9
330
7DE1B343D9E2209
100
AcDbEntity
  8
TEXT
100
AcDbPolyline
 90
        2
 70
     0
 43
0.0001332181640625
 10
0.3124021032781887
 20
0.8216950280003946
 10
0.3723502771063143
 20
0.761746854172269
  0
LWPOLYLINE
  5
7DE1B343D9E20DD
330
7DE1B343D9E2209
100
AcDbEntity
  8
TEXT
100
AcDbPolyline
 90
        2
 70
     0
 43
0.0001332181640625
 10
0.3124021032781887
 20
0.7351032213597679
 10
0.3723502771063143
 20
0.7251118590550792
  0
LWPOLYLINE
  5
7DE1B343D9E20E1
330
7DE1B343D9E2209
100
AcDbEntity
  8
TEXT
100
AcDbPolyline
 90
        2
 70
     0
 43
0.0001332181640625
 10
0.2857584704656913
 20
0.7351032213597679
 10
0.3590284607000655
 20
0.7251118590550792
  0
LWPOLYLINE
  5
7DE1B343D9E20E5
330
7DE1B343D9E2209
100
AcDbEntity
  8
TEXT
100
AcDbPolyline
 90
        2
 70
     0
 43
0.0006660908203125
 10
0.3124021032781887
 20
0.6951377721410199
 10
0.2857584704656913
 20
0.6951377721410199
  0
LWPOLYLINE
  5
7DE1B343D9E20E9
330
7DE1B343D9E2209
100
AcDbEntity
  8
TEXT
100
AcDbPolyline
 90
        2
 70
     0
 43
0.0006660908203125
 10
0.3124021032781887
 20
0.7351032213597679
 10
0.2857584704656913
 20
0.7351032213597679
  0
LINE
  5
7DE1B343D9E20ED
330
7DE1B343D9E2209
100
AcDbEntity
  8
TEXT
100
AcDbLine
 10
1.800948899592188
 20
0.7840619661561266
 30
0.0
 11
1.693742626204899
 21
0.7840619661561266
 31
0.0
  0
LINE
  5
7DE1B343D9E20EE
330
7DE1B343D9E2209
100
AcDbEntity
  8
TEXT
100
AcDbLine
 10
1.829979797936667
 20
0.848338660812892
 30
0.0
 11
1.695147888719608
 21
0.848338660812892
 31
0.0
  0
ARC
  5
7DE1B343D9E20EF
330
7DE1B343D9E2209
100
AcDbEntity
  8
TEXT
100
AcDbCircle
 10
1.754461985112925
 20
0.6791014115498757
 30
0.0
 40
0.0676855811441166
100
AcDbArc
 50
90.0
 51
153.7768192527749
  0
LWPOLYLINE
  5
7DE1B343D9E20F0
330
7DE1B343D9E2209
100
AcDbEntity
  8
TEXT
100
AcDbPolyline
 90
        2
 70
     0
 43
0.0
 10
1.692710130750089
 20
0.6253565727748192
 42
0.2901071551932823
 10
1.735786063617724
 20
0.581865627824381
 42
5.328517124445801
  0
ARC
  5
7DE1B343D9E20F4
330
7DE1B343D9E2209
100
AcDbEntity
  8
TEXT
100
AcDbCircle
 10
1.049330607441439
 20
0.6416580191624309
 30
0.0
 40
0.0601160179737537
100
AcDbArc
 50
180.0000000000003
 51
264.0521544866073
  0
LINE
  5
7DE1B343D9E20F5
330
7DE1B343D9E2209
100
AcDbEntity
  8
TEXT
100
AcDbLine
 10
1.052845963066987
 20
0.8827265784070302
 30
0.0
 11
0.9928033582229801
 21
0.8827265784070302
 31
0.0
  0
ARC
  5
7DE1B343D9E20F6
330
7DE1B343D9E2209
100
AcDbEntity
  8
TEXT
100
AcDbCircle
 10
0.8170716053244685
 20
0.7662512013663903
 30
0.0
 40
0.0820874594465043
100
AcDbArc
 50
90.0
 51
270.0
  0
LWPOLYLINE
  5
7DE1B343D9E20F7
330
7DE1B343D9E2209
100
AcDbEntity
  8
TEXT
100
AcDbPolyline
 90
        2
 70
     0
 43
0.0001332181640625
 10
0.4089852722235042
 20
0.775068670578516
 10
0.3989939099188136
 20
0.8483386608128956
  0
LWPOLYLINE
  5
7DE1B343D9E20FB
330
7DE1B343D9E2209
100
AcDbEntity
  8
TEXT
100
AcDbPolyline
 90
        2
 70
     0
 43
0.0001332181640625
 10
0.3989939099188136
 20
0.8216950280003946
 10
0.4089852722235042
 20
0.761746854172269
  0
LWPOLYLINE
  5
7DE1B343D9E20FF
330
7DE1B343D9E2209
100
AcDbEntity
  8
TEXT
100
AcDbPolyline
 90
        3
 70
     0
 43
0.0006660908203125
 10
0.552194798590691
 20
0.7351032213597679
 10
0.552194798590691
 20
0.8483386608128956
 10
0.4389593591375652
 20
0.8483386608128956
  0
LWPOLYLINE
  5
7DE1B343D9E2104
330
7DE1B343D9E2209
100
AcDbEntity
  8
TEXT
100
AcDbPolyline
 90
        3
 70
     0
 43
0.0006660908203125
 10
0.52555116577819
 20
0.7351032213597679
 10
0.52555116577819
 20
0.8216950280003946
 10
0.4389593591375652
 20
0.8216950280003946
  0
LWPOLYLINE
  5
7DE1B343D9E2109
330
7DE1B343D9E2209
100
AcDbEntity
  8
TEXT
100
AcDbPolyline
 90
        2
 70
     0
 43
0.0001332181640625
 10
0.52555116577819
 20
0.8216950280003946
 10
0.4656029919500662
 20
0.761746854172269
  0
LWPOLYLINE
  5
7DE1B343D9E210D
330
7DE1B343D9E2209
100
AcDbEntity
  8
TEXT
100
AcDbPolyline
 90
        2
 70
     0
 43
0.0001332181640625
 10
0.4389593591375652
 20
0.8216950280003946
 10
0.4289679968328764
 20
0.761746854172269
  0
LWPOLYLINE
  5
7DE1B343D9E2111
330
7DE1B343D9E2209
100
AcDbEntity
  8
TEXT
100
AcDbPolyline
 90
        2
 70
     0
 43
0.0001332181640625
 10
0.4389593591375652
 20
0.8483386608128956
 10
0.4289679968328764
 20
0.775068670578516
  0
LWPOLYLINE
  5
7DE1B343D9E2115
330
7DE1B343D9E2209
100
AcDbEntity
  8
TEXT
100
AcDbPolyline
 90
        2
 70
     0
 43
0.0001332181640625
 10
0.4789248083563149
 20
0.7251118590550792
 10
0.552194798590691
 20
0.7351032213597679
  0
LWPOLYLINE
  5
7DE1B343D9E2119
330
7DE1B343D9E2209
100
AcDbEntity
  8
TEXT
100
AcDbPolyline
 90
        2
 70
     0
 43
0.0001332181640625
 10
0.52555116577819
 20
0.7351032213597679
 10
0.4656029919500662
 20
0.7251118590550792
  0
LWPOLYLINE
  5
7DE1B343D9E211D
330
7DE1B343D9E2209
100
AcDbEntity
  8
TEXT
100
AcDbPolyline
 90
        2
 70
     0
 43
0.0001332181640625
 10
0.552194798590691
 20
0.6951377721410199
 10
0.4789248083563149
 20
0.7051291344457052
  0
LWPOLYLINE
  5
7DE1B343D9E2121
330
7DE1B343D9E2209
100
AcDbEntity
  8
TEXT
100
AcDbPolyline
 90
        2
 70
     0
 43
0.0001332181640625
 10
0.52555116577819
 20
0.6951377721410199
 10
0.4656029919500662
 20
0.7051291344457052
  0
LWPOLYLINE
  5
7DE1B343D9E2125
330
7DE1B343D9E2209
100
AcDbEntity
  8
TEXT
100
AcDbPolyline
 90
        2
 70
     0
 43
0.0001332181640625
 10
0.52555116577819
 20
0.6085459655003933
 10
0.4656029919500662
 20
0.6684941393285189
  0
LWPOLYLINE
  5
7DE1B343D9E2129
330
7DE1B343D9E2209
100
AcDbEntity
  8
TEXT
100
AcDbPolyline
 90
        3
 70
     0
 43
0.0006660908203125
 10
0.4389593591375652
 20
0.6085459655003933
 10
0.52555116577819
 20
0.6085459655003933
 10
0.52555116577819
 20
0.6951377721410199
  0
LWPOLYLINE
  5
7DE1B343D9E212E
330
7DE1B343D9E2209
100
AcDbEntity
  8
TEXT
100
AcDbPolyline
 90
        3
 70
     0
 43
0.0006660908203125
 10
0.4389593591375652
 20
0.5819023326878923
 10
0.552194798590691
 20
0.5819023326878923
 10
0.552194798590691
 20
0.6951377721410199
  0
LWPOLYLINE
  5
7DE1B343D9E2133
330
7DE1B343D9E2209
100
AcDbEntity
  8
TEXT
100
AcDbPolyline
 90
        5
 70
     0
 43
0.0001332181640625
 10
0.4089852722235042
 20
0.6551723229222684
 10
0.4089852722235042
 20
0.6684941393285189
 10
0.3723502771063161
 20
0.6684941393285189
 10
0.3723502771063161
 20
0.7051291344457052
 10
0.3590284607000655
 20
0.7051291344457052
  0
LWPOLYLINE
  5
7DE1B343D9E213A
330
7DE1B343D9E2209
100
AcDbEntity
  8
TEXT
100
AcDbPolyline
 90
        2
 70
     0
 43
0.0006660908203125
 10
0.3989939099188136
 20
0.6085459655003933
 10
0.3989939099188136
 20
0.5819023326878923
  0
LWPOLYLINE
  5
7DE1B343D9E213E
330
7DE1B343D9E2209
100
AcDbEntity
  8
TEXT
100
AcDbPolyline
 90
        2
 70
     0
 43
0.0001332181640625
 10
0.3989939099188136
 20
0.6085459655003933
 10
0.4089852722235042
 20
0.6684941393285189
  0
LWPOLYLINE
  5
7DE1B343D9E2142
330
7DE1B343D9E2209
100
AcDbEntity
  8
TEXT
100
AcDbPolyline
 90
        2
 70
     0
 43
0.0001332181640625
 10
0.3989939099188136
 20
0.5819023326878923
 10
0.4089852722235042
 20
0.6551723229222684
  0
LWPOLYLINE
  5
7DE1B343D9E2146
330
7DE1B343D9E2209
100
AcDbEntity
  8
TEXT
100
AcDbPolyline
 90
        5
 70
     0
 43
0.0001332181640625
 10
0.3590284607000655
 20
0.7251118590550792
 10
0.3723502771063143
 20
0.7251118590550792
 10
0.3723502771063143
 20
0.761746854172269
 10
0.4089852722235042
 20
0.761746854172269
 10
0.4089852722235042
 20
0.775068670578516
  0
LWPOLYLINE
  5
7DE1B343D9E214D
330
7DE1B343D9E2209
100
AcDbEntity
  8
TEXT
100
AcDbPolyline
 90
        5
 70
     0
 43
0.0001332181640625
 10
0.4289679968328764
 20
0.775068670578516
 10
0.4289679968328764
 20
0.761746854172269
 10
0.4656029919500662
 20
0.761746854172269
 10
0.4656029919500662
 20
0.7251118590550792
 10
0.4789248083563149
 20
0.7251118590550792
  0
LWPOLYLINE
  5
7DE1B343D9E2154
330
7DE1B343D9E2209
100
AcDbEntity
  8
TEXT
100
AcDbPolyline
 90
        2
 70
     0
 43
0.0001332181640625
 10
0.4389593591375652
 20
0.6085459655003933
 10
0.4289679968328764
 20
0.6684941393285189
  0
LWPOLYLINE
  5
7DE1B343D9E2158
330
7DE1B343D9E2209
100
AcDbEntity
  8
TEXT
100
AcDbPolyline
 90
        2
 70
     0
 43
0.0001332181640625
 10
0.4289679968328764
 20
0.6551723229222684
 10
0.4389593591375652
 20
0.5819023326878923
  0
LWPOLYLINE
  5
7DE1B343D9E215C
330
7DE1B343D9E2209
100
AcDbEntity
  8
TEXT
100
AcDbPolyline
 90
        2
 70
     0
 43
0.0006660908203125
 10
0.4389593591375652
 20
0.6085459655003933
 10
0.4389593591375652
 20
0.5819023326878923
  0
LWPOLYLINE
  5
7DE1B343D9E2160
330
7DE1B343D9E2209
100
AcDbEntity
  8
TEXT
100
AcDbPolyline
 90
        5
 70
     0
 43
0.0001332181640625
 10
0.4789248083563149
 20
0.7051291344457052
 10
0.4656029919500662
 20
0.7051291344457052
 10
0.4656029919500662
 20
0.6684941393285189
 10
0.4289679968328764
 20
0.6684941393285189
 10
0.4289679968328764
 20
0.6551723229222684
  0
LWPOLYLINE
  5
7DE1B343D9E2167
330
7DE1B343D9E2209
100
AcDbEntity
  8
TEXT
100
AcDbPolyline
 90
        2
 70
     0
 43
0.0006660908203125
 10
0.52555116577819
 20
0.7351032213597679
 10
0.552194798590691
 20
0.7351032213597679
  0
LWPOLYLINE
  5
7DE1B343D9E216B
330
7DE1B343D9E2209
100
AcDbEntity
  8
TEXT
100
AcDbPolyline
 90
        2
 70
     0
 43
0.0006660908203125
 10
0.52555116577819
 20
0.6951377721410199
 10
0.552194798590691
 20
0.6951377721410199
  0
LINE
  5
7DE1B343D9E216F
330
7DE1B343D9E2209
100
AcDbEntity
  8
TEXT
100
AcDbLine
 10
0.8223089354387159
 20
0.7840619661561266
 30
0.0
 11
0.9892145894676872
 21
0.7840619661561266
 31
0.0
  0
LINE
  5
7DE1B343D9E2170
330
7DE1B343D9E2209
100
AcDbEntity
  8
TEXT
100
AcDbLine
 10
0.887909071683017
 20
0.7482572445454987
 30
0.0
 11
0.8223089354387159
 21
0.7482572445454987
 31
0.0
  0
LINE
  5
7DE1B343D9E2171
330
7DE1B343D9E2209
100
AcDbEntity
  8
TEXT
100
AcDbLine
 10
0.7349841458779643
 20
0.581865627824381
 30
0.0
 11
0.887909071683017
 21
0.581865627824381
 31
0.0
  0
LINE
  5
7DE1B343D9E2172
330
7DE1B343D9E2209
100
AcDbEntity
  8
TEXT
100
AcDbLine
 10
0.8928494455892966
 20
0.6502226341578204
 30
0.0
 11
0.7349841458779625
 21
0.6502226341578204
 31
0.0
  0
LINE
  5
7DE1B343D9E2173
330
7DE1B343D9E2209
100
AcDbEntity
  8
TEXT
100
AcDbLine
 10
0.8170716053244678
 20
0.684163741919885
 30
0.0
 11
0.8928494455892966
 21
0.684163741919885
 31
0.0
  0
ARC
  5
7DE1B343D9E2174
330
7DE1B343D9E2209
100
AcDbEntity
  8
TEXT
100
AcDbCircle
 10
0.8223089354387166
 20
0.7661596053508144
 30
0.0
 40
0.017902360805315
100
AcDbArc
 50
90.0
 51
270.0
  0
LINE
  5
7DE1B343D9E2175
330
7DE1B343D9E2209
100
AcDbEntity
  8
TEXT
100
AcDbLine
 10
0.7349841458779625
 20
0.6502226341578204
 30
0.0
 11
0.7349841458779643
 21
0.581865627824381
 31
0.0
  0
LINE
  5
7DE1B343D9E2176
330
7DE1B343D9E2209
100
AcDbEntity
  8
TEXT
100
AcDbLine
 10
0.9892145894676872
 20
0.7840619661561266
 30
0.0
 11
0.9892145894676872
 21
0.6416580191624309
 31
0.0
  0
ARC
  5
7DE1B343D9E2177
330
7DE1B343D9E2209
100
AcDbEntity
  8
TEXT
100
AcDbCircle
 10
0.8879090716830177
 20
0.6650614361849381
 30
0.0
 40
0.0831958083605586
100
AcDbArc
 50
270.0
 51
90.0
  0
ARC
  5
7DE1B343D9E2178
330
7DE1B343D9E2209
100
AcDbEntity
  8
TEXT
100
AcDbCircle
 10
0.8928494455892973
 20
0.6671931880388545
 30
0.0
 40
0.0169705538810321
100
AcDbArc
 50
270.0
 51
90.0
  0
LWPOLYLINE
  5
7DE1B343D9E2179
330
7DE1B343D9E2209
100
AcDbEntity
  8
TEXT
100
AcDbPolyline
 90
        2
 70
     0
 43
0.0006660908203125
 10
0.3989939099188136
 20
0.8216950280003946
 10
0.3989939099188136
 20
0.8483386608128956
  0
LWPOLYLINE
  5
7DE1B343D9E217D
330
7DE1B343D9E2209
100
AcDbEntity
  8
TEXT
100
AcDbPolyline
 90
        2
 70
     0
 43
0.0006660908203125
 10
0.4389593591375652
 20
0.8216950280003946
 10
0.4389593591375652
 20
0.8483386608128956
  0
LINE
  5
7DE1B343D9E2181
330
7DE1B343D9E2209
100
AcDbEntity
  8
TEXT
100
AcDbLine
 10
0.9928033582229801
 20
0.848338660812892
 30
0.0
 11
0.8170716053244678
 21
0.848338660812892
 31
0.0
  0
LINE
  5
7DE1B343D9E2182
330
7DE1B343D9E2209
100
AcDbEntity
  8
TEXT
100
AcDbLine
 10
0.9928033582229801
 20
0.8827265784070302
 30
0.0
 11
0.9928033582229801
 21
0.848338660812892
 31
0.0
  0
LINE
  5
7DE1B343D9E2183
330
7DE1B343D9E2209
100
AcDbEntity
  8
TEXT
100
AcDbLine
 10
1.183275250242832
 20
0.7474666646997714
 30
0.0
 11
1.124644929210894
 21
0.848338660812892
 31
0.0
  0
LINE
  5
7DE1B343D9E2184
330
7DE1B343D9E2209
100
AcDbEntity
  8
TEXT
100
AcDbLine
 10
1.242023813048697
 20
0.848338660812892
 30
0.0
 11
1.183275250242832
 21
0.7474666646997714
 31
0.0
  0
LINE
  5
7DE1B343D9E2185
330
7DE1B343D9E2209
100
AcDbEntity
  8
TEXT
100
AcDbLine
 10
1.338954438408439
 20
0.6642534659273803
 30
0.0
 11
1.338954438408439
 21
0.9163501385517026
 31
0.0
  0
LINE
  5
7DE1B343D9E2186
330
7DE1B343D9E2209
100
AcDbEntity
  8
TEXT
100
AcDbLine
 10
1.371266292546099
 20
0.848338660812892
 30
0.0
 11
1.371266292546099
 21
0.6474744540804838
 31
0.0
  0
LINE
  5
7DE1B343D9E2187
330
7DE1B343D9E2209
100
AcDbEntity
  8
TEXT
100
AcDbLine
 10
1.371266292546099
 20
0.6474744540804838
 30
0.0
 11
1.354272655661497
 21
0.6474744540804838
 31
0.0
  0
LINE
  5
7DE1B343D9E2188
330
7DE1B343D9E2209
100
AcDbEntity
  8
TEXT
100
AcDbLine
 10
1.340094011904633
 20
0.581865627824381
 30
0.0
 11
1.438097345604068
 21
0.581865627824381
 31
0.0
  0
LINE
  5
7DE1B343D9E2189
330
7DE1B343D9E2209
100
AcDbEntity
  8
TEXT
100
AcDbLine
 10
1.173675013245877
 20
0.601824133929394
 30
0.0
 11
1.270974719339322
 21
0.7661743448646621
 31
0.0
  0
ARC
  5
7DE1B343D9E218A
330
7DE1B343D9E2209
100
AcDbEntity
  8
TEXT
100
AcDbCircle
 10
1.139631453333664
 20
0.6214133500980768
 30
0.0
 40
0.0392772371940762
100
AcDbArc
 50
270.1604552698595
 51
330.0831797321295
  0
LINE
  5
7DE1B343D9E218B
330
7DE1B343D9E2209
100
AcDbEntity
  8
TEXT
100
AcDbLine
 10
1.043101196947792
 20
0.581865627824381
 30
0.0
 11
1.139741448022787
 21
0.5821362669226633
 31
0.0
  0
LWPOLYLINE
  5
7DE1B343D9E218C
330
7DE1B343D9E2209
100
AcDbEntity
  8
TEXT
100
AcDbPolyline
 90
        6
 70
     1
 43
0.0
 10
1.085625000522942
 20
0.7840619661561266
 10
1.055308406302734
 20
0.7840619661561266
 10
1.055308406302734
 20
0.6609509681012323
 42
0.407328721240804
 10
1.06685205746421
 20
0.6491320534248462
 10
1.127473756508941
 20
0.6491320534248462
 10
1.144939096916259
 20
0.6819442824683253
  0
LINE
  5
7DE1B343D9E2194
330
7DE1B343D9E2209
100
AcDbEntity
  8
TEXT
100
AcDbLine
 10
1.270974719339322
 20
0.7661743448646621
 30
0.0
 11
1.270974719339322
 21
0.6334169700393058
 31
0.0
  0
ARC
  5
7DE1B343D9E2195
330
7DE1B343D9E2209
100
AcDbEntity
  8
TEXT
100
AcDbCircle
 10
1.354272655661496
 20
0.6628562603239092
 30
0.0
 40
0.0153818062434269
100
AcDbArc
 50
174.7883570302258
 51
270.0
  0
LWPOLYLINE
  5
7DE1B343D9E2196
330
7DE1B343D9E2209
100
AcDbEntity
  8
TEXT
100
AcDbPolyline
 90
        2
 70
     0
 43
0.0
 10
1.27097471933932
 20
0.6334169700393093
 42
0.3318488747599744
 10
1.340094011904633
 20
0.581865627824381
 42
-6.868794160588311
  0
LINE
  5
7DE1B343D9E219A
330
7DE1B343D9E2209
100
AcDbEntity
  8
TEXT
100
AcDbLine
 10
1.495486414593329
 20
0.581865627824381
 30
0.0
 11
1.562544461375169
 21
0.581865627824381
 31
0.0
  0
LINE
  5
7DE1B343D9E219B
330
7DE1B343D9E2209
100
AcDbEntity
  8
TEXT
100
AcDbLine
 10
1.495486414593329
 20
0.7765081769900167
 30
0.0
 11
1.495486414593329
 21
0.581865627824381
 31
0.0
  0
LINE
  5
7DE1B343D9E219C
330
7DE1B343D9E2209
100
AcDbEntity
  8
TEXT
100
AcDbLine
 10
1.438097345604068
 20
0.7840619661561266
 30
0.0
 11
1.487932625427216
 21
0.7840619661561266
 31
0.0
  0
LINE
  5
7DE1B343D9E219D
330
7DE1B343D9E2209
100
AcDbEntity
  8
TEXT
100
AcDbLine
 10
1.438097345604068
 20
0.581865627824381
 30
0.0
 11
1.438097345604068
 21
0.7840619661561266
 31
0.0
  0
LWPOLYLINE
  5
7DE1B343D9E219E
330
7DE1B343D9E2209
100
AcDbEntity
  8
TEXT
100
AcDbPolyline
 90
        2
 70
     0
 43
0.0
 10
1.487932625427214
 20
0.7840619661561266
 42
-0.4142135623731017
 10
1.495486414593327
 20
0.7765081769900167
 42
-0.9999999999999998
  0
LINE
  5
7DE1B343D9E21A2
330
7DE1B343D9E2209
100
AcDbEntity
  8
TEXT
100
AcDbLine
 10
1.693742626204899
 20
0.7840619661561266
 30
0.0
 11
1.693742626204899
 21
0.70900956008192
 31
0.0
  0
LINE
  5
7DE1B343D9E21A3
330
7DE1B343D9E2209
100
AcDbEntity
  8
TEXT
100
AcDbLine
 10
1.562544461375169
 20
0.7840619661561266
 30
0.0
 11
1.616678058296119
 21
0.7840619661561266
 31
0.0
  0
LINE
  5
7DE1B343D9E21A4
330
7DE1B343D9E2209
100
AcDbEntity
  8
TEXT
100
AcDbLine
 10
1.562544461375169
 20
0.581865627824381
 30
0.0
 11
1.562544461375169
 21
0.7840619661561266
 31
0.0
  0
LWPOLYLINE
  5
7DE1B343D9E21A5
330
7DE1B343D9E2209
100
AcDbEntity
  8
TEXT
100
AcDbPolyline
 90
        2
 70
     0
 43
0.0
 10
1.616678058296117
 20
0.7840619661561266
 42
-0.4142135623731017
 10
1.624231847462231
 20
0.7765081769900167
 42
-0.9999999999999998
  0
LWPOLYLINE
  5
7DE1B343D9E21A9
330
7DE1B343D9E2209
100
AcDbEntity
  8
TEXT
100
AcDbPolyline
 90
        4
 70
     0
 43
0.0
 10
1.624231847462231
 20
0.7765081769900167
 10
1.624231847462231
 20
0.581865627824381
 10
1.692710130750089
 20
0.581865627824381
 10
1.692710130750089
 20
0.6253565727748192
 42
-1.714843617202739
  0
LINE
  5
7DE1B343D9E21AF
330
7DE1B343D9E2209
100
AcDbEntity
  8
TEXT
100
AcDbLine
 10
1.052845963066987
 20
0.848338660812892
 30
0.0
 11
1.052845963066987
 21
0.8827265784070302
 31
0.0
  0
LINE
  5
7DE1B343D9E21B0
330
7DE1B343D9E2209
100
AcDbEntity
  8
TEXT
100
AcDbLine
 10
1.124644929210894
 20
0.848338660812892
 30
0.0
 11
1.052845963066987
 21
0.848338660812892
 31
0.0
  0
LINE
  5
7DE1B343D9E21B1
330
7DE1B343D9E2209
100
AcDbEntity
  8
TEXT
100
AcDbLine
 10
1.272145725842074
 20
0.848338660812892
 30
0.0
 11
1.242023813048697
 21
0.848338660812892
 31
0.0
  0
LINE
  5
7DE1B343D9E21B2
330
7DE1B343D9E2209
100
AcDbEntity
  8
TEXT
100
AcDbLine
 10
1.272145725842074
 20
0.9163501385517026
 30
0.0
 11
1.272145725842074
 21
0.848338660812892
 31
0.0
  0
LINE
  5
7DE1B343D9E21B3
330
7DE1B343D9E2209
100
AcDbEntity
  8
TEXT
100
AcDbLine
 10
1.338954438408439
 20
0.9163501385517026
 30
0.0
 11
1.272145725842074
 21
0.9163501385517026
 31
0.0
  0
LWPOLYLINE
  5
7DE1B343D9E21B4
330
7DE1B343D9E2209
100
AcDbEntity
  8
TEXT
100
AcDbPolyline
 90
        3
 70
     0
 43
0.0
 10
1.659366198006441
 20
0.8483386608128956
 10
1.541066039190396
 20
0.8483386608128956
 10
1.541066039190396
 20
0.8211711640519997
 42
-1.960274751411753
  0
LINE
  5
7DE1B343D9E21B9
330
7DE1B343D9E2209
100
AcDbEntity
  8
TEXT
100
AcDbLine
 10
1.505284348477235
 20
0.848338660812892
 30
0.0
 11
1.371266292546099
 21
0.848338660812892
 31
0.0
  0
LWPOLYLINE
  5
7DE1B343D9E21BA
330
7DE1B343D9E2209
100
AcDbEntity
  8
TEXT
100
AcDbPolyline
 90
        2
 70
     0
 43
0.0
 10
1.505284348477235
 20
0.8483386608128956
 42
-0.3328679258950098
 10
1.541066039190396
 20
0.8211711640519997
 42
6.772930709997214
  0
LINE
  5
7DE1B343D9E21BE
330
7DE1B343D9E2209
100
AcDbEntity
  8
TEXT
100
AcDbLine
 10
1.695147888719608
 20
0.848338660812892
 30
0.0
 11
1.695147888719608
 21
0.8200161150432482
 31
0.0
  0
LWPOLYLINE
  5
7DE1B343D9E21BF
330
7DE1B343D9E2209
100
AcDbEntity
  8
TEXT
100
AcDbPolyline
 90
        2
 70
     0
 43
0.0
 10
1.659366198006441
 20
0.8483386608128956
 42
-0.3277054968067132
 10
1.695147888719606
 20
0.8200161150432517
 42
6.667889725900311
  0
LINE
  5
7DE1B343D9E21C3
330
7DE1B343D9E2209
100
AcDbEntity
  8
TEXT
100
AcDbLine
 10
1.908939736811708
 20
0.7431266822594647
 30
0.0
 11
1.865188965629806
 21
0.8253769582556099
 31
0.0
  0
LINE
  5
7DE1B343D9E21C4
330
7DE1B343D9E2209
100
AcDbEntity
  8
TEXT
100
AcDbLine
 10
1.908939736811708
 20
0.848338660812892
 30
0.0
 11
1.908939736811708
 21
0.7431266822594647
 31
0.0
  0
LINE
  5
7DE1B343D9E21C5
330
7DE1B343D9E2209
100
AcDbEntity
  8
TEXT
100
AcDbLine
 10
2.136623475750077
 20
0.7724733344013539
 30
0.0
 11
2.136623475750077
 21
0.9138028665804927
 31
0.0
  0
LINE
  5
7DE1B343D9E21C6
330
7DE1B343D9E2209
100
AcDbEntity
  8
TEXT
100
AcDbLine
 10
2.183721634306061
 20
0.848338660812892
 30
0.0
 11
2.136623475750077
 21
0.7724733344013539
 31
0.0
  0
LINE
  5
7DE1B343D9E21C7
330
7DE1B343D9E2209
100
AcDbEntity
  8
TEXT
100
AcDbLine
 10
2.194156351069984
 20
0.7384454178719185
 30
0.0
 11
2.258713467035689
 21
0.848338660812892
 31
0.0
  0
LINE
  5
7DE1B343D9E21C8
330
7DE1B343D9E2209
100
AcDbEntity
  8
TEXT
100
AcDbLine
 10
2.072788484527304
 20
0.581865627824381
 30
0.0
 11
2.137166668845924
 21
0.581865627824381
 31
0.0
  0
LWPOLYLINE
  5
7DE1B343D9E21C9
330
7DE1B343D9E2209
100
AcDbEntity
  8
TEXT
100
AcDbPolyline
 90
        2
 70
     0
 43
0.0
 10
1.912879414116746
 20
0.6253565727748192
 42
-0.2901071551932486
 10
1.869803481249101
 20
0.581865627824381
 42
-5.328517124445184
  0
ARC
  5
7DE1B343D9E21CD
330
7DE1B343D9E2209
100
AcDbEntity
  8
TEXT
100
AcDbCircle
 10
1.800948899592187
 20
0.7557025911561293
 30
0.0
 40
0.028359375
100
AcDbArc
 50
25.78218179591245
 51
90.0
  0
LINE
  5
7DE1B343D9E21CE
330
7DE1B343D9E2209
100
AcDbEntity
  8
TEXT
100
AcDbLine
 10
1.83674997489631
 20
0.7467869926939943
 30
0.0
 11
1.826485214482745
 21
0.7680375322666886
 31
0.0
  0
LINE
  5
7DE1B343D9E21CF
330
7DE1B343D9E2209
100
AcDbEntity
  8
TEXT
100
AcDbLine
 10
1.754461985112926
 20
0.7467869926939943
 30
0.0
 11
1.83674997489631
 21
0.7467869926939943
 31
0.0
  0
LWPOLYLINE
  5
7DE1B343D9E21D0
330
7DE1B343D9E2209
100
AcDbEntity
  8
TEXT
100
AcDbPolyline
 90
        4
 70
     1
 43
0.0
 10
1.849681016179209
 20
0.6848296058084063
 10
1.76102069751935
 20
0.6848296058084063
 42
0.9999999999999998
 10
1.76102069751935
 20
0.6424310653045456
 10
1.849681016179209
 20
0.6424310653045456
 42
1.0
  0
LWPOLYLINE
  5
7DE1B343D9E21D6
330
7DE1B343D9E2209
100
AcDbEntity
  8
TEXT
100
AcDbPolyline
 90
        2
 70
     0
 43
0.0
 10
1.735786063617724
 20
0.581865627824381
 10
1.869803481249101
 20
0.581865627824381
 42
0.9999999999999998
  0
LINE
  5
7DE1B343D9E21DA
330
7DE1B343D9E2209
100
AcDbEntity
  8
TEXT
100
AcDbLine
 10
1.996140503234741
 20
0.7840619661561266
 30
0.0
 11
2.072788484527298
 21
0.7840619661561266
 31
0.0
  0
LINE
  5
7DE1B343D9E21DB
330
7DE1B343D9E2209
100
AcDbEntity
  8
TEXT
100
AcDbLine
 10
2.072788484527298
 20
0.7840619661561266
 30
0.0
 11
2.072788484527304
 21
0.581865627824381
 31
0.0
  0
ARC
  5
7DE1B343D9E21DC
330
7DE1B343D9E2209
100
AcDbEntity
  8
TEXT
100
AcDbCircle
 10
1.996140503234739
 20
0.7591560908734638
 30
0.0
 40
0.0249058752826653
100
AcDbArc
 50
89.99971217465335
 51
179.9999999999985
  0
LINE
  5
7DE1B343D9E21DD
330
7DE1B343D9E2209
100
AcDbEntity
  8
TEXT
100
AcDbLine
 10
1.971234627952081
 20
0.581865627824381
 30
0.0
 11
1.971234627952076
 21
0.7591561332558494
 31
0.0
  0
LWPOLYLINE
  5
7DE1B343D9E21DE
330
7DE1B343D9E2209
100
AcDbEntity
  8
TEXT
100
AcDbPolyline
 90
        2
 70
     0
 43
0.0
 10
1.912879414116746
 20
0.581865627824381
 10
1.97123462795208
 20
0.581865627824381
  0
LWPOLYLINE
  5
7DE1B343D9E21E2
330
7DE1B343D9E2209
100
AcDbEntity
  8
TEXT
100
AcDbPolyline
 90
        2
 70
     0
 43
0.0
 10
1.912879414116746
 20
0.6253565727748192
 10
1.912879414116746
 20
0.581865627824381
  0
LINE
  5
7DE1B343D9E21E6
330
7DE1B343D9E2209
100
AcDbEntity
  8
TEXT
100
AcDbLine
 10
2.289648574433595
 20
0.581865627824381
 30
0.0
 11
2.194156351069984
 21
0.7384454178719185
 31
0.0
  0
LINE
  5
7DE1B343D9E21E7
330
7DE1B343D9E2209
100
AcDbEntity
  8
TEXT
100
AcDbLine
 10
2.213070202057389
 20
0.581865627824381
 30
0.0
 11
2.289648574433595
 21
0.581865627824381
 31
0.0
  0
LINE
  5
7DE1B343D9E21E8
330
7DE1B343D9E2209
100
AcDbEntity
  8
TEXT
100
AcDbLine
 10
2.137166668845924
 20
0.7134451963005613
 30
0.0
 11
2.213070202057389
 21
0.581865627824381
 31
0.0
  0
LINE
  5
7DE1B343D9E21E9
330
7DE1B343D9E2209
100
AcDbEntity
  8
TEXT
100
AcDbLine
 10
2.137166668845924
 20
0.581865627824381
 30
0.0
 11
2.137166668845924
 21
0.7134451963005613
 31
0.0
  0
LINE
  5
7DE1B343D9E21EA
330
7DE1B343D9E2209
100
AcDbEntity
  8
TEXT
100
AcDbLine
 10
2.136623475750077
 20
0.9138028665804927
 30
0.0
 11
2.068308597200803
 21
0.9138028665804927
 31
0.0
  0
ARC
  5
7DE1B343D9E21EB
330
7DE1B343D9E2209
100
AcDbEntity
  8
TEXT
100
AcDbCircle
 10
1.827952858159597
 20
0.8067550936919896
 30
0.0
 40
0.0416329381542859
100
AcDbArc
 50
26.56974201007528
 51
87.20939649401342
  0
LINE
  5
7DE1B343D9E21EC
330
7DE1B343D9E2209
100
AcDbEntity
  8
TEXT
100
AcDbLine
 10
1.972836643111209
 20
0.848338660812892
 30
0.0
 11
1.908939736811708
 21
0.848338660812892
 31
0.0
  0
LINE
  5
7DE1B343D9E21ED
330
7DE1B343D9E2209
100
AcDbEntity
  8
TEXT
100
AcDbLine
 10
1.972836643111209
 20
0.8207910109520174
 30
0.0
 11
1.972836643111209
 21
0.848338660812892
 31
0.0
  0
ARC
  5
7DE1B343D9E21EE
330
7DE1B343D9E2209
100
AcDbEntity
  8
TEXT
100
AcDbCircle
 10
2.004029460174316
 20
0.8170929335306272
 30
0.0
 40
0.0314112657011332
100
AcDbArc
 50
95.88484768694724
 51
173.2388340632136
  0
LINE
  5
7DE1B343D9E21EF
330
7DE1B343D9E2209
100
AcDbEntity
  8
TEXT
100
AcDbLine
 10
2.068308597200798
 20
0.848338660812892
 30
0.0
 11
2.000808879551282
 21
0.848338660812892
 31
0.0
  0
LINE
  5
7DE1B343D9E21F0
330
7DE1B343D9E2209
100
AcDbEntity
  8
TEXT
100
AcDbLine
 10
2.068308597200803
 20
0.9138028665804927
 30
0.0
 11
2.068308597200798
 21
0.848338660812892
 31
0.0
  0
LINE
  5
7DE1B343D9E21F1
330
7DE1B343D9E2209
100
AcDbEntity
  8
TEXT
100
AcDbLine
 10
2.258713467035689
 20
0.848338660812892
 30
0.0
 11
2.183721634306063
 21
0.848338660812892
 31
0.0
  0
ENDSEC
  0
SECTION
  2
OBJECTS
  0
DICTIONARY
  5
7DE1B343D9E21FD
330
0
100
AcDbDictionary
  3
ACAD_GROUP
350
7DE1B343D9E21FE
  3
ACAD_LAYOUT
350
7DE1B343D9E2223
  3
ACAD_MLINESTYLE
350
7DE1B343D9E21FF
  3
ACAD_PLOTSETTINGS
350
7DE1B343D9E2224
  3
ACAD_PLOTSTYLENAME
350
7DE1B343D9E2221
  3
ACDBHEADERROUNDTRIPXREC
350
7DE1B343D9E222E
  3
ACDBVARIABLEDICTIONARY
350
7DE1B343D9E222B
  0
DICTIONARY
  5
7DE1B343D9E2250
330
7DE1B343D9E2209
100
AcDbDictionary
280
     1
  3
ACAD_LAYOUTSELFREF
360
7DE1B343D9E2251
  0
DICTIONARY
  5
7DE1B343D9E224E
330
7DE1B343D9E2206
100
AcDbDictionary
280
     1
  3
ACAD_LAYOUTSELFREF
360
7DE1B343D9E224F
  0
DICTIONARY
  5
7DE1B343D9E21FE
102
{ACAD_REACTORS
330
7DE1B343D9E21FD
102
}
330
7DE1B343D9E21FD
100
AcDbDictionary
  0
DICTIONARY
  5
7DE1B343D9E2223
102
{ACAD_REACTORS
330
7DE1B343D9E21FD
102
}
330
7DE1B343D9E21FD
100
AcDbDictionary
  0
DICTIONARY
  5
7DE1B343D9E21FF
102
{ACAD_REACTORS
330
7DE1B343D9E21FD
102
}
330
7DE1B343D9E21FD
100
AcDbDictionary
  3
STANDARD
350
7DE1B343D9E220C
  0
DICTIONARY
  5
7DE1B343D9E2224
102
{ACAD_REACTORS
330
7DE1B343D9E21FD
102
}
330
7DE1B343D9E21FD
100
AcDbDictionary
  0
ACDBDICTIONARYWDFLT
  5
7DE1B343D9E2221
102
{ACAD_REACTORS
330
7DE1B343D9E21FD
102
}
330
7DE1B343D9E21FD
100
AcDbDictionary
281
     1
  3
Normal
350
7DE1B343D9E2222
100
AcDbDictionaryWithDefault
340
7DE1B343D9E2222
  0
DICTIONARY
  5
7DE1B343D9E222E
102
{ACAD_REACTORS
330
7DE1B343D9E21FD
102
}
330
7DE1B343D9E21FD
100
AcDbDictionary
  3
CEPSNTYPE
350
7DE1B343D9E2238
  3
FINGERPRINTGUID
350
7DE1B343D9E2239
  3
HYPERLINKBASE
350
7DE1B343D9E2231
  3
INSUNITS
350
7DE1B343D9E2237
  3
LAYOUTDICT
350
7DE1B343D9E2233
  3
LWETCUNION
350
7DE1B343D9E2236
  3
PLOTSETDICT
350
7DE1B343D9E2234
  3
PLOTSTYLNAMDICT
350
7DE1B343D9E2235
  3
PSVPSCALE
350
7DE1B343D9E223B
  3
PUCSBASE
350
7DE1B343D9E223E
  3
PUCSORGBACK
350
7DE1B343D9E2244
  3
PUCSORGBOTTOM
350
7DE1B343D9E2240
  3
PUCSORGFRONT
350
7DE1B343D9E2243
  3
PUCSORGLEFT
350
7DE1B343D9E2241
  3
PUCSORGRIGHT
350
7DE1B343D9E2242
  3
PUCSORGTOP
350
7DE1B343D9E223F
  3
PUCSORTHOREF
350
7DE1B343D9E223C
  3
PUCSORTHOVIEW
350
7DE1B343D9E223D
  3
STYLESHEET
350
7DE1B343D9E2232
  3
TSTACKALIGN
350
7DE1B343D9E222F
  3
TSTACKSIZE
350
7DE1B343D9E2230
  3
UCSBASE
350
7DE1B343D9E2247
  3
UCSORGBACK
350
7DE1B343D9E224D
  3
UCSORGBOTTOM
350
7DE1B343D9E2249
  3
UCSORGFRONT
350
7DE1B343D9E224C
  3
UCSORGLEFT
350
7DE1B343D9E224A
  3
UCSORGRIGHT
350
7DE1B343D9E224B
  3
UCSORGTOP
350
7DE1B343D9E2248
  3
UCSORTHOREF
350
7DE1B343D9E2245
  3
UCSORTHOVIEW
350
7DE1B343D9E2246
  3
VERSIONGUID
350
7DE1B343D9E223A
  0
DICTIONARY
  5
7DE1B343D9E222B
102
{ACAD_REACTORS
330
7DE1B343D9E21FD
102
}
330
7DE1B343D9E21FD
100
AcDbDictionary
  3
DIMASSOC
350
7DE1B343D9E222C
  0
XRECORD
  5
7DE1B343D9E2251
102
{ACAD_REACTORS
330
7DE1B343D9E2250
102
}
330
7DE1B343D9E2250
100
AcDbXrecord
340
7DE1B343D9E2209
  0
XRECORD
  5
7DE1B343D9E224F
102
{ACAD_REACTORS
330
7DE1B343D9E224E
102
}
330
7DE1B343D9E224E
100
AcDbXrecord
340
7DE1B343D9E2206
  0
MLINESTYLE
  5
7DE1B343D9E220C
102
{ACAD_REACTORS
330
7DE1B343D9E21FF
102
}
330
7DE1B343D9E21FF
100
AcDbMlineStyle
  2
STANDARD
 70
     0
  3

 62
     0
 51
90.0
 52
90.0
 71
     2
 49
0.5
 62
   256
  6
BYLAYER
 49
-0.5
 62
   256
  6
BYLAYER
  0
ACDBPLACEHOLDER
  5
7DE1B343D9E2222
102
{ACAD_REACTORS
330
7DE1B343D9E2221
102
}
330
7DE1B343D9E2221
100
AcDbPlaceHolder
280
     0
  0
XRECORD
  5
7DE1B343D9E2238
102
{ACAD_REACTORS
330
7DE1B343D9E222E
102
}
330
7DE1B343D9E222E
100
AcDbXrecord
 90
        0
  0
XRECORD
  5
7DE1B343D9E2239
102
{ACAD_REACTORS
330
7DE1B343D9E222E
102
}
330
7DE1B343D9E222E
100
AcDbXrecord
  1
{A0C31150-8DB6-11D6-88E6-0090279574E7}
  0
XRECORD
  5
7DE1B343D9E2231
102
{ACAD_REACTORS
330
7DE1B343D9E222E
102
}
330
7DE1B343D9E222E
100
AcDbXrecord
  1

  0
XRECORD
  5
7DE1B343D9E2237
102
{ACAD_REACTORS
330
7DE1B343D9E222E
102
}
330
7DE1B343D9E222E
100
AcDbXrecord
 90
        0
  0
XRECORD
  5
7DE1B343D9E2233
102
{ACAD_REACTORS
330
7DE1B343D9E222E
102
}
330
7DE1B343D9E222E
100
AcDbXrecord
340
7DE1B343D9E2223
  0
XRECORD
  5
7DE1B343D9E2236
102
{ACAD_REACTORS
330
7DE1B343D9E222E
102
}
330
7DE1B343D9E222E
100
AcDbXrecord
 90
    14877
  0
XRECORD
  5
7DE1B343D9E2234
102
{ACAD_REACTORS
330
7DE1B343D9E222E
102
}
330
7DE1B343D9E222E
100
AcDbXrecord
340
7DE1B343D9E2224
  0
XRECORD
  5
7DE1B343D9E2235
102
{ACAD_REACTORS
330
7DE1B343D9E222E
102
}
330
7DE1B343D9E222E
100
AcDbXrecord
340
7DE1B343D9E2221
  0
XRECORD
  5
7DE1B343D9E223B
102
{ACAD_REACTORS
330
7DE1B343D9E222E
102
}
330
7DE1B343D9E222E
100
AcDbXrecord
 40
0.0
  0
XRECORD
  5
7DE1B343D9E223E
102
{ACAD_REACTORS
330
7DE1B343D9E222E
102
}
330
7DE1B343D9E222E
100
AcDbXrecord
340
0
  0
XRECORD
  5
7DE1B343D9E2244
102
{ACAD_REACTORS
330
7DE1B343D9E222E
102
}
330
7DE1B343D9E222E
100
AcDbXrecord
 10
0.0
 20
0.0
 30
0.0
  0
XRECORD
  5
7DE1B343D9E2240
102
{ACAD_REACTORS
330
7DE1B343D9E222E
102
}
330
7DE1B343D9E222E
100
AcDbXrecord
 10
0.0
 20
0.0
 30
0.0
  0
XRECORD
  5
7DE1B343D9E2243
102
{ACAD_REACTORS
330
7DE1B343D9E222E
102
}
330
7DE1B343D9E222E
100
AcDbXrecord
 10
0.0
 20
0.0
 30
0.0
  0
XRECORD
  5
7DE1B343D9E2241
102
{ACAD_REACTORS
330
7DE1B343D9E222E
102
}
330
7DE1B343D9E222E
100
AcDbXrecord
 10
0.0
 20
0.0
 30
0.0
  0
XRECORD
  5
7DE1B343D9E2242
102
{ACAD_REACTORS
330
7DE1B343D9E222E
102
}
330
7DE1B343D9E222E
100
AcDbXrecord
 10
0.0
 20
0.0
 30
0.0
  0
XRECORD
  5
7DE1B343D9E223F
102
{ACAD_REACTORS
330
7DE1B343D9E222E
102
}
330
7DE1B343D9E222E
100
AcDbXrecord
 10
0.0
 20
0.0
 30
0.0
  0
XRECORD
  5
7DE1B343D9E223C
102
{ACAD_REACTORS
330
7DE1B343D9E222E
102
}
330
7DE1B343D9E222E
100
AcDbXrecord
340
0
  0
XRECORD
  5
7DE1B343D9E223D
102
{ACAD_REACTORS
330
7DE1B343D9E222E
102
}
330
7DE1B343D9E222E
100
AcDbXrecord
 70
     0
  0
XRECORD
  5
7DE1B343D9E2232
102
{ACAD_REACTORS
330
7DE1B343D9E222E
102
}
330
7DE1B343D9E222E
100
AcDbXrecord
  1

  0
XRECORD
  5
7DE1B343D9E222F
102
{ACAD_REACTORS
330
7DE1B343D9E222E
102
}
330
7DE1B343D9E222E
100
AcDbXrecord
 90
        1
  0
XRECORD
  5
7DE1B343D9E2230
102
{ACAD_REACTORS
330
7DE1B343D9E222E
102
}
330
7DE1B343D9E222E
100
AcDbXrecord
 90
       70
  0
XRECORD
  5
7DE1B343D9E2247
102
{ACAD_REACTORS
330
7DE1B343D9E222E
102
}
330
7DE1B343D9E222E
100
AcDbXrecord
340
0
  0
XRECORD
  5
7DE1B343D9E224D
102
{ACAD_REACTORS
330
7DE1B343D9E222E
102
}
330
7DE1B343D9E222E
100
AcDbXrecord
 10
0.0
 20
0.0
 30
0.0
  0
XRECORD
  5
7DE1B343D9E2249
102
{ACAD_REACTORS
330
7DE1B343D9E222E
102
}
330
7DE1B343D9E222E
100
AcDbXrecord
 10
0.0
 20
0.0
 30
0.0
  0
XRECORD
  5
7DE1B343D9E224C
102
{ACAD_REACTORS
330
7DE1B343D9E222E
102
}
330
7DE1B343D9E222E
100
AcDbXrecord
 10
0.0
 20
0.0
 30
0.0
  0
XRECORD
  5
7DE1B343D9E224A
102
{ACAD_REACTORS
330
7DE1B343D9E222E
102
}
330
7DE1B343D9E222E
100
AcDbXrecord
 10
0.0
 20
0.0
 30
0.0
  0
XRECORD
  5
7DE1B343D9E224B
102
{ACAD_REACTORS
330
7DE1B343D9E222E
102
}
330
7DE1B343D9E222E
100
AcDbXrecord
 10
0.0
 20
0.0
 30
0.0
  0
XRECORD
  5
7DE1B343D9E2248
102
{ACAD_REACTORS
330
7DE1B343D9E222E
102
}
330
7DE1B343D9E222E
100
AcDbXrecord
 10
0.0
 20
0.0
 30
0.0
  0
XRECORD
  5
7DE1B343D9E2245
102
{ACAD_REACTORS
330
7DE1B343D9E222E
102
}
330
7DE1B343D9E222E
100
AcDbXrecord
340
0
  0
XRECORD
  5
7DE1B343D9E2246
102
{ACAD_REACTORS
330
7DE1B343D9E222E
102
}
330
7DE1B343D9E222E
100
AcDbXrecord
 70
     0
  0
XRECORD
  5
7DE1B343D9E223A
102
{ACAD_REACTORS
330
7DE1B343D9E222E
102
}
330
7DE1B343D9E222E
100
AcDbXrecord
  1
{A0C31152-8DB6-11D6-88E6-0090279574E7}
  0
DICTIONARYVAR
  5
7DE1B343D9E222C
102
{ACAD_REACTORS
330
7DE1B343D9E222B
102
}
330
7DE1B343D9E222B
100
DictionaryVariables
280
     0
  1
1
  0
ENDSEC
  0
EOF
