  0
SECTION
  2
HEADER
  9
$ACADVER
  1
AC1014
  9
$ACADMAINTVER
 70
     9
  9
$DWGCODEPAGE
  3
ANSI_1252
  9
$INSBASE
 10
1.75
 20
0.7160644878812264
 30
0.0
  9
$EXTMIN
 10
0.0070184207728567
 20
-0.0344396295773678
 30
0.0
  9
$EXTMAX
 10
3.492237742519984
 20
1.720206623504957
 30
0.0
  9
$LIMMIN
 10
0.0
 20
0.0
  9
$LIMMAX
 10
18.0
 20
12.0
  9
$ORTHOMODE
 70
     1
  9
$REGENMODE
 70
     1
  9
$FILLMODE
 70
     1
  9
$QTEXTMODE
 70
     0
  9
$MIRRTEXT
 70
     0
  9
$DRAGMODE
 70
     2
  9
$LTSCALE
 40
1.0
  9
$OSMODE
 70
    39
  9
$ATTMODE
 70
     1
  9
$TEXTSIZE
 40
0.125
  9
$TRACEWID
 40
0.05
  9
$TEXTSTYLE
  7
ROMANS
  9
$CLAYER
  8
0
  9
$CELTYPE
  6
BYLAYER
  9
$CECOLOR
 62
   256
  9
$CELTSCALE
 40
1.0
  9
$DELOBJ
 70
     1
  9
$DISPSILH
 70
     1
  9
$DIMSCALE
 40
1.0
  9
$DIMASZ
 40
0.125
  9
$DIMEXO
 40
0.125
  9
$DIMDLI
 40
0.375
  9
$DIMRND
 40
0.0
  9
$DIMDLE
 40
0.0
  9
$DIMEXE
 40
0.125
  9
$DIMTP
 40
0.0
  9
$DIMTM
 40
0.0
  9
$DIMTXT
 40
0.125
  9
$DIMCEN
 40
-0.125
  9
$DIMTSZ
 40
0.0
  9
$DIMTOL
 70
     0
  9
$DIMLIM
 70
     0
  9
$DIMTIH
 70
     1
  9
$DIMTOH
 70
     1
  9
$DIMSE1
 70
     0
  9
$DIMSE2
 70
     0
  9
$DIMTAD
 70
     0
  9
$DIMZIN
 70
     4
  9
$DIMBLK
  1

  9
$DIMASO
 70
     1
  9
$DIMSHO
 70
     1
  9
$DIMPOST
  1

  9
$DIMAPOST
  1

  9
$DIMALT
 70
     0
  9
$DIMALTD
 70
     2
  9
$DIMALTF
 40
25.4
  9
$DIMLFAC
 40
1.0
  9
$DIMTOFL
 70
     0
  9
$DIMTVP
 40
0.0
  9
$DIMTIX
 70
     1
  9
$DIMSOXD
 70
     0
  9
$DIMSAH
 70
     0
  9
$DIMBLK1
  1

  9
$DIMBLK2
  1

  9
$DIMSTYLE
  2
STANDARD
  9
$DIMCLRD
 70
     0
  9
$DIMCLRE
 70
     0
  9
$DIMCLRT
 70
     0
  9
$DIMTFAC
 40
1.0
  9
$DIMGAP
 40
0.09
  9
$DIMJUST
 70
     0
  9
$DIMSD1
 70
     0
  9
$DIMSD2
 70
     0
  9
$DIMTOLJ
 70
     1
  9
$DIMTZIN
 70
     4
  9
$DIMALTZ
 70
     0
  9
$DIMALTTZ
 70
     0
  9
$DIMFIT
 70
     3
  9
$DIMUPT
 70
     0
  9
$DIMUNIT
 70
     2
  9
$DIMDEC
 70
     3
  9
$DIMTDEC
 70
     3
  9
$DIMALTU
 70
     2
  9
$DIMALTTD
 70
     2
  9
$DIMTXSTY
  7
ROMANS
  9
$DIMAUNIT
 70
     0
  9
$LUNITS
 70
     2
  9
$LUPREC
 70
     3
  9
$SKETCHINC
 40
0.1
  9
$FILLETRAD
 40
0.03125
  9
$AUNITS
 70
     0
  9
$AUPREC
 70
     0
  9
$MENU
  1
ACAD
  9
$ELEVATION
 40
0.0
  9
$PELEVATION
 40
0.0
  9
$THICKNESS
 40
0.0
  9
$LIMCHECK
 70
     0
  9
$BLIPMODE
 70
     0
  9
$CHAMFERA
 40
0.0
  9
$CHAMFERB
 40
0.0
  9
$CHAMFERC
 40
0.0
  9
$CHAMFERD
 40
0.0
  9
$SKPOLY
 70
     0
  9
$TDCREATE
 40
2448994.594321759
  9
$TDUPDATE
 40
2452458.308480578
  9
$TDINDWG
 40
0.0006345486
  9
$TDUSRTIMER
 40
0.0006345486
  9
$USRTIMER
 70
     1
  9
$ANGBASE
 50
0.0
  9
$ANGDIR
 70
     0
  9
$PDMODE
 70
     0
  9
$PDSIZE
 40
0.0
  9
$PLINEWID
 40
0.0
  9
$COORDS
 70
     2
  9
$SPLFRAME
 70
     0
  9
$SPLINETYPE
 70
     6
  9
$SPLINESEGS
 70
     8
  9
$ATTDIA
 70
     0
  9
$ATTREQ
 70
     1
  9
$HANDLING
 70
 22529
  9
$HANDSEED
  5
7DE1B343D9E0C2B
  9
$SURFTAB1
 70
     6
  9
$SURFTAB2
 70
     6
  9
$SURFTYPE
 70
     6
  9
$SURFU
 70
     6
  9
$SURFV
 70
     6
  9
$UCSNAME
  2

  9
$UCSORG
 10
0.0
 20
0.0
 30
0.0
  9
$UCSXDIR
 10
1.0
 20
0.0
 30
0.0
  9
$UCSYDIR
 10
0.0
 20
1.0
 30
0.0
  9
$PUCSNAME
  2

  9
$PUCSORG
 10
0.0
 20
0.0
 30
0.0
  9
$PUCSXDIR
 10
1.0
 20
0.0
 30
0.0
  9
$PUCSYDIR
 10
0.0
 20
1.0
 30
0.0
  9
$USERI1
 70
     0
  9
$USERI2
 70
     0
  9
$USERI3
 70
     0
  9
$USERI4
 70
     0
  9
$USERI5
 70
     0
  9
$USERR1
 40
0.0
  9
$USERR2
 40
0.0
  9
$USERR3
 40
0.0
  9
$USERR4
 40
0.0
  9
$USERR5
 40
0.0
  9
$WORLDVIEW
 70
     1
  9
$SHADEDGE
 70
     3
  9
$SHADEDIF
 70
    70
  9
$TILEMODE
 70
     1
  9
$MAXACTVP
 70
    16
  9
$PINSBASE
 10
0.8317556868036927
 20
50.00000000000001
 30
2.771341464317003
  9
$PLIMCHECK
 70
     0
  9
$PEXTMIN
 10
1.000000000000000E+20
 20
1.000000000000000E+20
 30
1.000000000000000E+20
  9
$PEXTMAX
 10
-1.000000000000000E+20
 20
-1.000000000000000E+20
 30
-1.000000000000000E+20
  9
$PLIMMIN
 10
0.0
 20
0.0
  9
$PLIMMAX
 10
12.0
 20
9.0
  9
$UNITMODE
 70
     0
  9
$VISRETAIN
 70
     0
  9
$PLINEGEN
 70
     1
  9
$PSLTSCALE
 70
     0
  9
$TREEDEPTH
 70
  3020
  9
$PICKSTYLE
 70
     1
  9
$CMLSTYLE
  2
STANDARD
  9
$CMLJUST
 70
     0
  9
$CMLSCALE
 40
1.0
  9
$PROXYGRAPHICS
 70
     1
  9
$MEASUREMENT
 70
     0
  0
ENDSEC
  0
SECTION
  2
CLASSES
  0
CLASS
  1
LWPOLYLINE
  2
AcDbPolyline
  3
AutoCAD 2000
 90
        0
280
     0
281
     1
  0
CLASS
  1
ACDBDICTIONARYWDFLT
  2
AcDbDictionaryWithDefault
  3
AutoCAD 2000
 90
        0
280
     0
281
     0
  0
CLASS
  1
ACDBPLACEHOLDER
  2
AcDbPlaceHolder
  3
AutoCAD 2000
 90
        0
280
     0
281
     0
  0
CLASS
  1
LAYOUT
  2
AcDbLayout
  3
AutoCAD 2000
 90
        0
280
     0
281
     0
  0
CLASS
  1
DICTIONARYVAR
  2
AcDbDictionaryVar
  3
AutoCAD 2000
 90
        0
280
     0
281
     0
  0
CLASS
  1
LONG_TRANSACTION
  2
AcDbLongTransaction
  3
AutoCAD 2000
 90
        0
280
     0
281
     0
  0
CLASS
  1
LWPOLYLINE
  2
AcDbPolyline
  3
AutoCAD 2000
 90
        0
280
     0
281
     1
  0
CLASS
  1
HATCH
  2
AcDbHatch
  3
AutoCAD 2000
 90
        0
280
     0
281
     1
  0
CLASS
  1
XRECORD
  2
AcDbXrecord
  3
AutoCAD 2000
 90
        0
280
     0
281
     0
  0
ENDSEC
  0
SECTION
  2
TABLES
  0
TABLE
  2
VPORT
  5
7DE1B343D9E0BD2
330
0
100
AcDbSymbolTable
 70
     2
  0
VPORT
  5
7DE1B343D9E0C06
330
7DE1B343D9E0BD2
100
AcDbSymbolTableRecord
100
AcDbViewportTableRecord
  2
*ACTIVE
 70
     0
 10
0.0
 20
0.0
 11
1.0
 21
1.0
 12
4.726046405515486
 22
0.8429491947984342
 13
0.0
 23
0.0
 14
0.015625
 24
0.015625
 15
0.0
 25
0.0
 16
0.0
 26
0.0
 36
1.0
 17
0.0
 27
0.0
 37
0.0
 40
2.282647215150728
 41
4.320930232558139
 42
50.0
 43
0.0
 44
0.0
 50
0.0
 51
0.0
 71
     0
 72
  2000
 73
     1
 74
     0
 75
     0
 76
     0
 77
     0
 78
     0
  0
ENDTAB
  0
TABLE
  2
LTYPE
  5
7DE1B343D9E0BCF
330
0
100
AcDbSymbolTable
 70
     1
  0
LTYPE
  5
7DE1B343D9E0BDC
330
7DE1B343D9E0BCF
100
AcDbSymbolTableRecord
100
AcDbLinetypeTableRecord
  2
BYBLOCK
 70
     0
  3

 72
    65
 73
     0
 40
0.0
  0
LTYPE
  5
7DE1B343D9E0BDD
330
7DE1B343D9E0BCF
100
AcDbSymbolTableRecord
100
AcDbLinetypeTableRecord
  2
BYLAYER
 70
     0
  3

 72
    65
 73
     0
 40
0.0
  0
LTYPE
  5
7DE1B343D9E0BDE
330
7DE1B343D9E0BCF
100
AcDbSymbolTableRecord
100
AcDbLinetypeTableRecord
  2
CONTINUOUS
 70
     0
  3
Solid line
 72
    65
 73
     0
 40
0.0
  0
ENDTAB
  0
TABLE
  2
LAYER
  5
7DE1B343D9E0BCC
330
0
100
AcDbSymbolTable
 70
     2
  0
LAYER
  5
7DE1B343D9E0BD9
330
7DE1B343D9E0BCC
100
AcDbSymbolTableRecord
100
AcDbLayerTableRecord
  2
0
 70
     0
 62
     7
  6
CONTINUOUS
  0
LAYER
  5
7DE1B343D9E0BE9
330
7DE1B343D9E0BCC
100
AcDbSymbolTableRecord
100
AcDbLayerTableRecord
  2
TEXT
 70
     0
 62
     3
  6
CONTINUOUS
  0
ENDTAB
  0
TABLE
  2
STYLE
  5
7DE1B343D9E0BCD
330
0
100
AcDbSymbolTable
 70
     3
  0
STYLE
  5
7DE1B343D9E0BDA
330
7DE1B343D9E0BCD
100
AcDbSymbolTableRecord
100
AcDbTextStyleTableRecord
  2
STANDARD
 70
     0
 40
0.0
 41
1.0
 50
0.0
 71
     0
 42
0.3125
  3
txt
  4

  0
STYLE
  5
7DE1B343D9E0BE6
330
7DE1B343D9E0BCD
100
AcDbSymbolTableRecord
100
AcDbTextStyleTableRecord
  2
ITALICC
 70
     0
 40
0.0
 41
1.0
 50
0.0
 71
     0
 42
0.125
  3
italicc
  4

  0
STYLE
  5
7DE1B343D9E0BF6
330
7DE1B343D9E0BCD
100
AcDbSymbolTableRecord
100
AcDbTextStyleTableRecord
  2
ROMANS
 70
     0
 40
0.0
 41
1.0
 50
0.0
 71
     0
 42
0.125
  3
romans.shx
  4

  0
ENDTAB
  0
TABLE
  2
VIEW
  5
7DE1B343D9E0BD0
330
0
100
AcDbSymbolTable
 70
     0
  0
ENDTAB
  0
TABLE
  2
UCS
  5
7DE1B343D9E0BD1
330
0
100
AcDbSymbolTable
 70
     0
  0
ENDTAB
  0
TABLE
  2
APPID
  5
7DE1B343D9E0BD3
330
0
100
AcDbSymbolTable
 70
     1
  0
APPID
  5
7DE1B343D9E0BDB
330
7DE1B343D9E0BD3
100
AcDbSymbolTableRecord
100
AcDbRegAppTableRecord
  2
ACAD
 70
     0
  0
ENDTAB
  0
TABLE
  2
DIMSTYLE
  5
7DE1B343D9E0BD4
330
0
100
AcDbSymbolTable
 70
     1
  0
DIMSTYLE
105
7DE1B343D9E0BEE
330
7DE1B343D9E0BD4
100
AcDbSymbolTableRecord
100
AcDbDimStyleTableRecord
  2
STANDARD
 70
     0
  3

  4

  5

  6

  7

 40
1.0
 41
0.125
 42
0.125
 43
0.375
 44
0.125
 45
0.0
 46
0.0
 47
0.0
 48
0.0
140
0.125
141
-0.125
142
0.0
143
25.4
144
1.0
145
0.0
146
1.0
147
0.09
 71
     0
 72
     0
 73
     1
 74
     1
 75
     0
 76
     0
 77
     0
 78
     4
170
     0
171
     2
172
     0
173
     0
174
     1
175
     0
176
     0
177
     0
178
     0
270
     2
271
     3
272
     3
273
     2
274
     2
340
7DE1B343D9E0BF6
275
     0
280
     0
281
     0
282
     0
283
     1
284
     4
285
     0
286
     0
287
     3
288
     0
  0
ENDTAB
  0
TABLE
  2
BLOCK_RECORD
  5
7DE1B343D9E0BCB
330
0
100
AcDbSymbolTable
 70
     0
  0
BLOCK_RECORD
  5
7DE1B343D9E0BE2
102
{ACAD_XDICTIONARY
360
7DE1B343D9E0C29
102
}
330
7DE1B343D9E0BCB
100
AcDbSymbolTableRecord
100
AcDbBlockTableRecord
  2
*MODEL_SPACE
  0
BLOCK_RECORD
  5
7DE1B343D9E0BDF
102
{ACAD_XDICTIONARY
360
7DE1B343D9E0C27
102
}
330
7DE1B343D9E0BCB
100
AcDbSymbolTableRecord
100
AcDbBlockTableRecord
  2
*PAPER_SPACE
  0
ENDTAB
  0
ENDSEC
  0
SECTION
  2
BLOCKS
  0
BLOCK
  5
7DE1B343D9E0BEC
330
7DE1B343D9E0BE2
100
AcDbEntity
  8
0
100
AcDbBlockBegin
  2
*MODEL_SPACE
 70
     0
 10
0.0
 20
0.0
 30
0.0
  3
*MODEL_SPACE
  1

  0
ENDBLK
  5
7DE1B343D9E0BED
330
7DE1B343D9E0BE2
100
AcDbEntity
  8
0
100
AcDbBlockEnd
  0
BLOCK
  5
7DE1B343D9E0BEA
330
7DE1B343D9E0BDF
100
AcDbEntity
 67
     1
  8
0
100
AcDbBlockBegin
  2
*PAPER_SPACE
 70
     0
 10
0.0
 20
0.0
 30
0.0
  3
*PAPER_SPACE
  1

  0
ENDBLK
  5
7DE1B343D9E0BEB
330
7DE1B343D9E0BDF
100
AcDbEntity
 67
     1
  8
0
100
AcDbBlockEnd
  0
ENDSEC
  0
SECTION
  2
ENTITIES
  0
LWPOLYLINE
  5
7DE1B343D9DF804
330
7DE1B343D9E0BE2
100
AcDbEntity
  8
0
100
AcDbPolyline
 90
       17
 70
     1
 43
0.0
 10
1.759999999999999
 20
0.8410644878812263
 10
2.125
 20
0.8410644878812263
 10
2.125
 20
1.696064487881226
 42
-0.4142135623730951
 10
2.144999999999999
 20
1.716064487881226
 10
2.22
 20
1.716064487881226
 42
-0.402063421001528
 10
2.239982646420824
 20
1.69689745968166
 42
-0.0208333333333321
 10
2.239982646420824
 20
0.7352315160807899
 42
-0.402063421001528
 10
2.22
 20
0.7160644878812264
 10
1.279999999999999
 20
0.7160644878812264
 42
-0.4020634210015281
 10
1.260017353579175
 20
0.7352315160807899
 42
-0.020833333333332
 10
1.260017353579175
 20
1.69689745968166
 42
-0.4020634210015281
 10
1.279999999999999
 20
1.716064487881226
 10
1.354999999999999
 20
1.716064487881226
 42
-0.4142135623730951
 10
1.375
 20
1.696064487881226
 10
1.375
 20
0.8410644878812263
 10
1.739999999999999
 20
0.8410644878812263
 10
1.75
 20
0.8310644878812263
  0
TEXT
  5
7DE1B343D9E0A8D
330
7DE1B343D9E0BE2
100
AcDbEntity
  8
TEXT
100
AcDbText
 10
1.008928571428571
 20
0.4235789745052138
 30
0.0
 40
0.125
  1
PART #110361
  7
ITALICC
 72
     1
 11
1.75
 21
0.4235789745052138
 31
0.0
100
AcDbText
  0
TEXT
  5
7DE1B343D9E0A8E
330
7DE1B343D9E0BE2
100
AcDbEntity
  8
TEXT
100
AcDbText
 10
2.16330515825032
 20
-0.0233436681671614
 30
0.0
 40
0.0522247191011236
  1
Phone  1-800-328-2495
 41
1.272321428571429
 72
     5
 11
3.492237742519984
 21
-0.0233436681671614
 31
0.0
100
AcDbText
  0
TEXT
  5
7DE1B343D9E0A8F
330
7DE1B343D9E0BE2
100
AcDbEntity
  8
TEXT
100
AcDbText
 10
2.16330515825032
 20
0.2564316127317151
 30
0.0
 40
0.0522247191011236
  1
Stylmark  Incorporated
 41
1.221428571428573
 72
     5
 11
3.492237742519984
 21
0.2564316127317151
 31
0.0
100
AcDbText
  0
TEXT
  5
7DE1B343D9E0A90
330
7DE1B343D9E0BE2
100
AcDbEntity
  8
TEXT
100
AcDbText
 10
2.16330515825032
 20
0.1631731857654229
 30
0.0
 40
0.0522247191011236
  1
6536 Main St. N.E. * P.O. Box 32008
 41
0.8388932496075366
 72
     5
 11
3.492237742519984
 21
0.1631731857654229
 31
0.0
100
AcDbText
  0
TEXT
  5
7DE1B343D9E0A91
330
7DE1B343D9E0BE2
100
AcDbEntity
  8
TEXT
100
AcDbText
 10
2.16330515825032
 20
0.0699147587991308
 30
0.0
 40
0.0522247191011236
  1
Minneapolis, MN 55432-0008
 41
1.11444212721585
 72
     5
 11
3.492237742519984
 21
0.0699147587991308
 31
0.0
100
AcDbText
  0
LWPOLYLINE
  5
7DE1B343D9E0A92
330
7DE1B343D9E0BE2
100
AcDbEntity
  8
TEXT
100
AcDbPolyline
 90
        3
 70
     0
 43
0.0006660908203125
 10
0.007351466183013
 20
0.0903010944702735
 10
0.007351466183013
 20
-0.0229343449828542
 10
0.1205869056361353
 20
-0.0229343449828542
  0
LWPOLYLINE
  5
7DE1B343D9E0A97
330
7DE1B343D9E0BE2
100
AcDbEntity
  8
TEXT
100
AcDbPolyline
 90
        3
 70
     0
 43
0.0006660908203125
 10
0.0339950989955105
 20
0.0903010944702735
 10
0.0339950989955105
 20
0.0037092878296469
 10
0.1205869056361353
 20
0.0037092878296469
  0
LWPOLYLINE
  5
7DE1B343D9E0A9C
330
7DE1B343D9E0BE2
100
AcDbEntity
  8
TEXT
100
AcDbPolyline
 90
        2
 70
     0
 43
0.0001332181640625
 10
0.0806214564173873
 20
0.1002924567749587
 10
0.007351466183013
 20
0.0903010944702735
  0
LWPOLYLINE
  5
7DE1B343D9E0AA0
330
7DE1B343D9E0BE2
100
AcDbEntity
  8
TEXT
100
AcDbPolyline
 90
        2
 70
     0
 43
0.0001332181640625
 10
0.0339950989955105
 20
0.0903010944702735
 10
0.0939432728236378
 20
0.1002924567749587
  0
LWPOLYLINE
  5
7DE1B343D9E0AA4
330
7DE1B343D9E0BE2
100
AcDbEntity
  8
TEXT
100
AcDbPolyline
 90
        2
 70
     0
 43
0.0001332181640625
 10
0.0339950989955105
 20
0.0037092878296469
 10
0.0939432728236378
 20
0.0636574616577724
  0
LWPOLYLINE
  5
7DE1B343D9E0AA8
330
7DE1B343D9E0BE2
100
AcDbEntity
  8
TEXT
100
AcDbPolyline
 90
        3
 70
     0
 43
0.0006660908203125
 10
0.1205869056361353
 20
0.2435019831421491
 10
0.007351466183013
 20
0.2435019831421491
 10
0.007351466183013
 20
0.1302665436890215
  0
LWPOLYLINE
  5
7DE1B343D9E0AAD
330
7DE1B343D9E0BE2
100
AcDbEntity
  8
TEXT
100
AcDbPolyline
 90
        3
 70
     0
 43
0.0006660908203125
 10
0.1205869056361353
 20
0.2168583503296481
 10
0.0339950989955105
 20
0.2168583503296481
 10
0.0339950989955105
 20
0.1302665436890215
  0
LWPOLYLINE
  5
7DE1B343D9E0AB2
330
7DE1B343D9E0BE2
100
AcDbEntity
  8
TEXT
100
AcDbPolyline
 90
        2
 70
     0
 43
0.0001332181640625
 10
0.0339950989955105
 20
0.2168583503296481
 10
0.093943272823636
 20
0.1569101765015225
  0
LWPOLYLINE
  5
7DE1B343D9E0AB6
330
7DE1B343D9E0BE2
100
AcDbEntity
  8
TEXT
100
AcDbPolyline
 90
        2
 70
     0
 43
0.0001332181640625
 10
0.0339950989955105
 20
0.1302665436890215
 10
0.093943272823636
 20
0.1202751813843327
  0
LWPOLYLINE
  5
7DE1B343D9E0ABA
330
7DE1B343D9E0BE2
100
AcDbEntity
  8
TEXT
100
AcDbPolyline
 90
        2
 70
     0
 43
0.0001332181640625
 10
0.007351466183013
 20
0.1302665436890215
 10
0.0806214564173873
 20
0.1202751813843327
  0
LWPOLYLINE
  5
7DE1B343D9E0ABE
330
7DE1B343D9E0BE2
100
AcDbEntity
  8
TEXT
100
AcDbPolyline
 90
        2
 70
     0
 43
0.0006660908203125
 10
0.0339950989955105
 20
0.0903010944702735
 10
0.007351466183013
 20
0.0903010944702735
  0
LWPOLYLINE
  5
7DE1B343D9E0AC2
330
7DE1B343D9E0BE2
100
AcDbEntity
  8
TEXT
100
AcDbPolyline
 90
        2
 70
     0
 43
0.0006660908203125
 10
0.0339950989955105
 20
0.1302665436890215
 10
0.007351466183013
 20
0.1302665436890215
  0
LINE
  5
7DE1B343D9E0AC6
330
7DE1B343D9E0BE2
100
AcDbEntity
  8
TEXT
100
AcDbLine
 10
1.52254189530951
 20
0.1792252884853801
 30
0.0
 11
1.415335621922221
 21
0.1792252884853801
 31
0.0
  0
LINE
  5
7DE1B343D9E0AC7
330
7DE1B343D9E0BE2
100
AcDbEntity
  8
TEXT
100
AcDbLine
 10
1.551572793653988
 20
0.2435019831421456
 30
0.0
 11
1.416740884436929
 21
0.2435019831421456
 31
0.0
  0
ARC
  5
7DE1B343D9E0AC8
330
7DE1B343D9E0BE2
100
AcDbEntity
  8
TEXT
100
AcDbCircle
 10
1.476054980830246
 20
0.0742647338791293
 30
0.0
 40
0.0676855811441166
100
AcDbArc
 50
90.0
 51
153.7768192527749
  0
LWPOLYLINE
  5
7DE1B343D9E0AC9
330
7DE1B343D9E0BE2
100
AcDbEntity
  8
TEXT
100
AcDbPolyline
 90
        2
 70
     0
 43
0.0
 10
1.414303126467411
 20
0.0205198951040727
 42
0.2901071551932823
 10
1.457379059335046
 20
-0.0229710498463655
 42
5.328517124445801
  0
ARC
  5
7DE1B343D9E0ACD
330
7DE1B343D9E0BE2
100
AcDbEntity
  8
TEXT
100
AcDbCircle
 10
0.770923603158761
 20
0.0368213414916844
 30
0.0
 40
0.0601160179737537
100
AcDbArc
 50
180.0000000000003
 51
264.0521544866073
  0
LINE
  5
7DE1B343D9E0ACE
330
7DE1B343D9E0BE2
100
AcDbEntity
  8
TEXT
100
AcDbLine
 10
0.7744389587843088
 20
0.2778899007362837
 30
0.0
 11
0.7143963539403018
 21
0.2778899007362837
 31
0.0
  0
ARC
  5
7DE1B343D9E0ACF
330
7DE1B343D9E0BE2
100
AcDbEntity
  8
TEXT
100
AcDbCircle
 10
0.5386646010417904
 20
0.1614145236956438
 30
0.0
 40
0.0820874594465043
100
AcDbArc
 50
90.0
 51
270.0
  0
LWPOLYLINE
  5
7DE1B343D9E0AD0
330
7DE1B343D9E0BE2
100
AcDbEntity
  8
TEXT
100
AcDbPolyline
 90
        2
 70
     0
 43
0.0001332181640625
 10
0.1305782679408258
 20
0.1702319929077695
 10
0.1205869056361353
 20
0.2435019831421491
  0
LWPOLYLINE
  5
7DE1B343D9E0AD4
330
7DE1B343D9E0BE2
100
AcDbEntity
  8
TEXT
100
AcDbPolyline
 90
        2
 70
     0
 43
0.0001332181640625
 10
0.1205869056361353
 20
0.2168583503296481
 10
0.1305782679408258
 20
0.1569101765015225
  0
LWPOLYLINE
  5
7DE1B343D9E0AD8
330
7DE1B343D9E0BE2
100
AcDbEntity
  8
TEXT
100
AcDbPolyline
 90
        3
 70
     0
 43
0.0006660908203125
 10
0.2737877943080127
 20
0.1302665436890215
 10
0.2737877943080127
 20
0.2435019831421491
 10
0.1605523548548868
 20
0.2435019831421491
  0
LWPOLYLINE
  5
7DE1B343D9E0ADD
330
7DE1B343D9E0BE2
100
AcDbEntity
  8
TEXT
100
AcDbPolyline
 90
        3
 70
     0
 43
0.0006660908203125
 10
0.2471441614955117
 20
0.1302665436890215
 10
0.2471441614955117
 20
0.2168583503296481
 10
0.1605523548548868
 20
0.2168583503296481
  0
LWPOLYLINE
  5
7DE1B343D9E0AE2
330
7DE1B343D9E0BE2
100
AcDbEntity
  8
TEXT
100
AcDbPolyline
 90
        2
 70
     0
 43
0.0001332181640625
 10
0.2471441614955117
 20
0.2168583503296481
 10
0.1871959876673879
 20
0.1569101765015225
  0
LWPOLYLINE
  5
7DE1B343D9E0AE6
330
7DE1B343D9E0BE2
100
AcDbEntity
  8
TEXT
100
AcDbPolyline
 90
        2
 70
     0
 43
0.0001332181640625
 10
0.1605523548548868
 20
0.2168583503296481
 10
0.1505609925501981
 20
0.1569101765015225
  0
LWPOLYLINE
  5
7DE1B343D9E0AEA
330
7DE1B343D9E0BE2
100
AcDbEntity
  8
TEXT
100
AcDbPolyline
 90
        2
 70
     0
 43
0.0001332181640625
 10
0.1605523548548868
 20
0.2435019831421491
 10
0.1505609925501981
 20
0.1702319929077695
  0
LWPOLYLINE
  5
7DE1B343D9E0AEE
330
7DE1B343D9E0BE2
100
AcDbEntity
  8
TEXT
100
AcDbPolyline
 90
        2
 70
     0
 43
0.0001332181640625
 10
0.2005178040736366
 20
0.1202751813843327
 10
0.2737877943080127
 20
0.1302665436890215
  0
LWPOLYLINE
  5
7DE1B343D9E0AF2
330
7DE1B343D9E0BE2
100
AcDbEntity
  8
TEXT
100
AcDbPolyline
 90
        2
 70
     0
 43
0.0001332181640625
 10
0.2471441614955117
 20
0.1302665436890215
 10
0.1871959876673879
 20
0.1202751813843327
  0
LWPOLYLINE
  5
7DE1B343D9E0AF6
330
7DE1B343D9E0BE2
100
AcDbEntity
  8
TEXT
100
AcDbPolyline
 90
        2
 70
     0
 43
0.0001332181640625
 10
0.2737877943080127
 20
0.0903010944702735
 10
0.2005178040736366
 20
0.1002924567749587
  0
LWPOLYLINE
  5
7DE1B343D9E0AFA
330
7DE1B343D9E0BE2
100
AcDbEntity
  8
TEXT
100
AcDbPolyline
 90
        2
 70
     0
 43
0.0001332181640625
 10
0.2471441614955117
 20
0.0903010944702735
 10
0.1871959876673879
 20
0.1002924567749587
  0
LWPOLYLINE
  5
7DE1B343D9E0AFE
330
7DE1B343D9E0BE2
100
AcDbEntity
  8
TEXT
100
AcDbPolyline
 90
        2
 70
     0
 43
0.0001332181640625
 10
0.2471441614955117
 20
0.0037092878296469
 10
0.1871959876673879
 20
0.0636574616577724
  0
LWPOLYLINE
  5
7DE1B343D9E0B02
330
7DE1B343D9E0BE2
100
AcDbEntity
  8
TEXT
100
AcDbPolyline
 90
        3
 70
     0
 43
0.0006660908203125
 10
0.1605523548548868
 20
0.0037092878296469
 10
0.2471441614955117
 20
0.0037092878296469
 10
0.2471441614955117
 20
0.0903010944702735
  0
LWPOLYLINE
  5
7DE1B343D9E0B07
330
7DE1B343D9E0BE2
100
AcDbEntity
  8
TEXT
100
AcDbPolyline
 90
        3
 70
     0
 43
0.0006660908203125
 10
0.1605523548548868
 20
-0.0229343449828542
 10
0.2737877943080127
 20
-0.0229343449828542
 10
0.2737877943080127
 20
0.0903010944702735
  0
LWPOLYLINE
  5
7DE1B343D9E0B0C
330
7DE1B343D9E0BE2
100
AcDbEntity
  8
TEXT
100
AcDbPolyline
 90
        5
 70
     0
 43
0.0001332181640625
 10
0.1305782679408258
 20
0.0503356452515219
 10
0.1305782679408258
 20
0.0636574616577724
 10
0.0939432728236378
 20
0.0636574616577724
 10
0.0939432728236378
 20
0.1002924567749587
 10
0.0806214564173873
 20
0.1002924567749587
  0
LWPOLYLINE
  5
7DE1B343D9E0B13
330
7DE1B343D9E0BE2
100
AcDbEntity
  8
TEXT
100
AcDbPolyline
 90
        2
 70
     0
 43
0.0006660908203125
 10
0.1205869056361353
 20
0.0037092878296469
 10
0.1205869056361353
 20
-0.0229343449828542
  0
LWPOLYLINE
  5
7DE1B343D9E0B17
330
7DE1B343D9E0BE2
100
AcDbEntity
  8
TEXT
100
AcDbPolyline
 90
        2
 70
     0
 43
0.0001332181640625
 10
0.1205869056361353
 20
0.0037092878296469
 10
0.1305782679408258
 20
0.0636574616577724
  0
LWPOLYLINE
  5
7DE1B343D9E0B1B
330
7DE1B343D9E0BE2
100
AcDbEntity
  8
TEXT
100
AcDbPolyline
 90
        2
 70
     0
 43
0.0001332181640625
 10
0.1205869056361353
 20
-0.0229343449828542
 10
0.1305782679408258
 20
0.0503356452515219
  0
LWPOLYLINE
  5
7DE1B343D9E0B1F
330
7DE1B343D9E0BE2
100
AcDbEntity
  8
TEXT
100
AcDbPolyline
 90
        5
 70
     0
 43
0.0001332181640625
 10
0.0806214564173873
 20
0.1202751813843327
 10
0.093943272823636
 20
0.1202751813843327
 10
0.093943272823636
 20
0.1569101765015225
 10
0.1305782679408258
 20
0.1569101765015225
 10
0.1305782679408258
 20
0.1702319929077695
  0
LWPOLYLINE
  5
7DE1B343D9E0B26
330
7DE1B343D9E0BE2
100
AcDbEntity
  8
TEXT
100
AcDbPolyline
 90
        5
 70
     0
 43
0.0001332181640625
 10
0.1505609925501981
 20
0.1702319929077695
 10
0.1505609925501981
 20
0.1569101765015225
 10
0.1871959876673879
 20
0.1569101765015225
 10
0.1871959876673879
 20
0.1202751813843327
 10
0.2005178040736366
 20
0.1202751813843327
  0
LWPOLYLINE
  5
7DE1B343D9E0B2D
330
7DE1B343D9E0BE2
100
AcDbEntity
  8
TEXT
100
AcDbPolyline
 90
        2
 70
     0
 43
0.0001332181640625
 10
0.1605523548548868
 20
0.0037092878296469
 10
0.1505609925501981
 20
0.0636574616577724
  0
LWPOLYLINE
  5
7DE1B343D9E0B31
330
7DE1B343D9E0BE2
100
AcDbEntity
  8
TEXT
100
AcDbPolyline
 90
        2
 70
     0
 43
0.0001332181640625
 10
0.1505609925501981
 20
0.0503356452515219
 10
0.1605523548548868
 20
-0.0229343449828542
  0
LWPOLYLINE
  5
7DE1B343D9E0B35
330
7DE1B343D9E0BE2
100
AcDbEntity
  8
TEXT
100
AcDbPolyline
 90
        2
 70
     0
 43
0.0006660908203125
 10
0.1605523548548868
 20
0.0037092878296469
 10
0.1605523548548868
 20
-0.0229343449828542
  0
LWPOLYLINE
  5
7DE1B343D9E0B39
330
7DE1B343D9E0BE2
100
AcDbEntity
  8
TEXT
100
AcDbPolyline
 90
        5
 70
     0
 43
0.0001332181640625
 10
0.2005178040736366
 20
0.1002924567749587
 10
0.1871959876673879
 20
0.1002924567749587
 10
0.1871959876673879
 20
0.0636574616577724
 10
0.1505609925501981
 20
0.0636574616577724
 10
0.1505609925501981
 20
0.0503356452515219
  0
LWPOLYLINE
  5
7DE1B343D9E0B40
330
7DE1B343D9E0BE2
100
AcDbEntity
  8
TEXT
100
AcDbPolyline
 90
        2
 70
     0
 43
0.0006660908203125
 10
0.2471441614955117
 20
0.1302665436890215
 10
0.2737877943080127
 20
0.1302665436890215
  0
LWPOLYLINE
  5
7DE1B343D9E0B44
330
7DE1B343D9E0BE2
100
AcDbEntity
  8
TEXT
100
AcDbPolyline
 90
        2
 70
     0
 43
0.0006660908203125
 10
0.2471441614955117
 20
0.0903010944702735
 10
0.2737877943080127
 20
0.0903010944702735
  0
LINE
  5
7DE1B343D9E0B48
330
7DE1B343D9E0BE2
100
AcDbEntity
  8
TEXT
100
AcDbLine
 10
0.5439019311560376
 20
0.1792252884853801
 30
0.0
 11
0.7108075851850089
 21
0.1792252884853801
 31
0.0
  0
LINE
  5
7DE1B343D9E0B49
330
7DE1B343D9E0BE2
100
AcDbEntity
  8
TEXT
100
AcDbLine
 10
0.6095020674003387
 20
0.1434205668747522
 30
0.0
 11
0.5439019311560376
 21
0.1434205668747522
 31
0.0
  0
LINE
  5
7DE1B343D9E0B4A
330
7DE1B343D9E0BE2
100
AcDbEntity
  8
TEXT
100
AcDbLine
 10
0.456577141595286
 20
-0.0229710498463655
 30
0.0
 11
0.6095020674003387
 21
-0.0229710498463655
 31
0.0
  0
LINE
  5
7DE1B343D9E0B4B
330
7DE1B343D9E0BE2
100
AcDbEntity
  8
TEXT
100
AcDbLine
 10
0.6144424413066183
 20
0.0453859564870739
 30
0.0
 11
0.4565771415952842
 21
0.0453859564870739
 31
0.0
  0
LINE
  5
7DE1B343D9E0B4C
330
7DE1B343D9E0BE2
100
AcDbEntity
  8
TEXT
100
AcDbLine
 10
0.5386646010417895
 20
0.0793270642491385
 30
0.0
 11
0.6144424413066183
 21
0.0793270642491385
 31
0.0
  0
ARC
  5
7DE1B343D9E0B4D
330
7DE1B343D9E0BE2
100
AcDbEntity
  8
TEXT
100
AcDbCircle
 10
0.5439019311560385
 20
0.1613229276800679
 30
0.0
 40
0.017902360805315
100
AcDbArc
 50
90.0
 51
270.0
  0
LINE
  5
7DE1B343D9E0B4E
330
7DE1B343D9E0BE2
100
AcDbEntity
  8
TEXT
100
AcDbLine
 10
0.4565771415952842
 20
0.0453859564870739
 30
0.0
 11
0.456577141595286
 21
-0.0229710498463655
 31
0.0
  0
LINE
  5
7DE1B343D9E0B4F
330
7DE1B343D9E0BE2
100
AcDbEntity
  8
TEXT
100
AcDbLine
 10
0.7108075851850089
 20
0.1792252884853801
 30
0.0
 11
0.7108075851850089
 21
0.0368213414916844
 31
0.0
  0
ARC
  5
7DE1B343D9E0B50
330
7DE1B343D9E0BE2
100
AcDbEntity
  8
TEXT
100
AcDbCircle
 10
0.6095020674003396
 20
0.0602247585141916
 30
0.0
 40
0.0831958083605586
100
AcDbArc
 50
270.0
 51
90.0
  0
ARC
  5
7DE1B343D9E0B51
330
7DE1B343D9E0BE2
100
AcDbEntity
  8
TEXT
100
AcDbCircle
 10
0.6144424413066192
 20
0.062356510368108
 30
0.0
 40
0.0169705538810321
100
AcDbArc
 50
270.0
 51
90.0
  0
LWPOLYLINE
  5
7DE1B343D9E0B52
330
7DE1B343D9E0BE2
100
AcDbEntity
  8
TEXT
100
AcDbPolyline
 90
        2
 70
     0
 43
0.0006660908203125
 10
0.1205869056361353
 20
0.2168583503296481
 10
0.1205869056361353
 20
0.2435019831421491
  0
LWPOLYLINE
  5
7DE1B343D9E0B56
330
7DE1B343D9E0BE2
100
AcDbEntity
  8
TEXT
100
AcDbPolyline
 90
        2
 70
     0
 43
0.0006660908203125
 10
0.1605523548548868
 20
0.2168583503296481
 10
0.1605523548548868
 20
0.2435019831421491
  0
LINE
  5
7DE1B343D9E0B5A
330
7DE1B343D9E0BE2
100
AcDbEntity
  8
TEXT
100
AcDbLine
 10
0.7143963539403018
 20
0.2435019831421456
 30
0.0
 11
0.5386646010417895
 21
0.2435019831421456
 31
0.0
  0
LINE
  5
7DE1B343D9E0B5B
330
7DE1B343D9E0BE2
100
AcDbEntity
  8
TEXT
100
AcDbLine
 10
0.7143963539403018
 20
0.2778899007362837
 30
0.0
 11
0.7143963539403018
 21
0.2435019831421456
 31
0.0
  0
LINE
  5
7DE1B343D9E0B5C
330
7DE1B343D9E0BE2
100
AcDbEntity
  8
TEXT
100
AcDbLine
 10
0.904868245960154
 20
0.142629987029025
 30
0.0
 11
0.8462379249282161
 21
0.2435019831421456
 31
0.0
  0
LINE
  5
7DE1B343D9E0B5D
330
7DE1B343D9E0BE2
100
AcDbEntity
  8
TEXT
100
AcDbLine
 10
0.9636168087660195
 20
0.2435019831421456
 30
0.0
 11
0.904868245960154
 21
0.142629987029025
 31
0.0
  0
LINE
  5
7DE1B343D9E0B5E
330
7DE1B343D9E0BE2
100
AcDbEntity
  8
TEXT
100
AcDbLine
 10
1.06054743412576
 20
0.0594167882566338
 30
0.0
 11
1.06054743412576
 21
0.3115134608809561
 31
0.0
  0
LINE
  5
7DE1B343D9E0B5F
330
7DE1B343D9E0BE2
100
AcDbEntity
  8
TEXT
100
AcDbLine
 10
1.09285928826342
 20
0.2435019831421456
 30
0.0
 11
1.09285928826342
 21
0.0426377764097373
 31
0.0
  0
LINE
  5
7DE1B343D9E0B60
330
7DE1B343D9E0BE2
100
AcDbEntity
  8
TEXT
100
AcDbLine
 10
1.09285928826342
 20
0.0426377764097373
 30
0.0
 11
1.075865651378819
 21
0.0426377764097373
 31
0.0
  0
LINE
  5
7DE1B343D9E0B61
330
7DE1B343D9E0BE2
100
AcDbEntity
  8
TEXT
100
AcDbLine
 10
1.061687007621955
 20
-0.0229710498463655
 30
0.0
 11
1.15969034132139
 21
-0.0229710498463655
 31
0.0
  0
LINE
  5
7DE1B343D9E0B62
330
7DE1B343D9E0BE2
100
AcDbEntity
  8
TEXT
100
AcDbLine
 10
0.8952680089631996
 20
-0.0030125437413525
 30
0.0
 11
0.9925677150566443
 21
0.1613376671939156
 31
0.0
  0
ARC
  5
7DE1B343D9E0B63
330
7DE1B343D9E0BE2
100
AcDbEntity
  8
TEXT
100
AcDbCircle
 10
0.8612244490509857
 20
0.0165766724273303
 30
0.0
 40
0.0392772371940762
100
AcDbArc
 50
270.1604552698595
 51
330.0831797321295
  0
LINE
  5
7DE1B343D9E0B64
330
7DE1B343D9E0BE2
100
AcDbEntity
  8
TEXT
100
AcDbLine
 10
0.7646941926651146
 20
-0.0229710498463655
 30
0.0
 11
0.8613344437401089
 21
-0.0227004107480832
 31
0.0
  0
LWPOLYLINE
  5
7DE1B343D9E0B65
330
7DE1B343D9E0BE2
100
AcDbEntity
  8
TEXT
100
AcDbPolyline
 90
        6
 70
     1
 43
0.0
 10
0.8072179962402641
 20
0.1792252884853801
 10
0.776901402020056
 20
0.1792252884853801
 10
0.776901402020056
 20
0.0561142904304858
 42
0.407328721240804
 10
0.7884450531815324
 20
0.0442953757540997
 10
0.8490667522262631
 20
0.0442953757540997
 10
0.8665320926335811
 20
0.0771076047975788
  0
LINE
  5
7DE1B343D9E0B6D
330
7DE1B343D9E0BE2
100
AcDbEntity
  8
TEXT
100
AcDbLine
 10
0.9925677150566443
 20
0.1613376671939156
 30
0.0
 11
0.9925677150566443
 21
0.0285802923685593
 31
0.0
  0
ARC
  5
7DE1B343D9E0B6E
330
7DE1B343D9E0BE2
100
AcDbEntity
  8
TEXT
100
AcDbCircle
 10
1.075865651378817
 20
0.0580195826531628
 30
0.0
 40
0.0153818062434269
100
AcDbArc
 50
174.7883570302258
 51
270.0
  0
LWPOLYLINE
  5
7DE1B343D9E0B6F
330
7DE1B343D9E0BE2
100
AcDbEntity
  8
TEXT
100
AcDbPolyline
 90
        2
 70
     0
 43
0.0
 10
0.9925677150566425
 20
0.0285802923685629
 42
0.3318488747599744
 10
1.061687007621955
 20
-0.0229710498463655
 42
-6.868794160588311
  0
LINE
  5
7DE1B343D9E0B73
330
7DE1B343D9E0BE2
100
AcDbEntity
  8
TEXT
100
AcDbLine
 10
1.217079410310651
 20
-0.0229710498463655
 30
0.0
 11
1.284137457092491
 21
-0.0229710498463655
 31
0.0
  0
LINE
  5
7DE1B343D9E0B74
330
7DE1B343D9E0BE2
100
AcDbEntity
  8
TEXT
100
AcDbLine
 10
1.217079410310651
 20
0.1716714993192702
 30
0.0
 11
1.217079410310651
 21
-0.0229710498463655
 31
0.0
  0
LINE
  5
7DE1B343D9E0B75
330
7DE1B343D9E0BE2
100
AcDbEntity
  8
TEXT
100
AcDbLine
 10
1.15969034132139
 20
0.1792252884853801
 30
0.0
 11
1.209525621144537
 21
0.1792252884853801
 31
0.0
  0
LINE
  5
7DE1B343D9E0B76
330
7DE1B343D9E0BE2
100
AcDbEntity
  8
TEXT
100
AcDbLine
 10
1.15969034132139
 20
-0.0229710498463655
 30
0.0
 11
1.15969034132139
 21
0.1792252884853801
 31
0.0
  0
LWPOLYLINE
  5
7DE1B343D9E0B77
330
7DE1B343D9E0BE2
100
AcDbEntity
  8
TEXT
100
AcDbPolyline
 90
        2
 70
     0
 43
0.0
 10
1.209525621144535
 20
0.1792252884853801
 42
-0.4142135623731017
 10
1.217079410310649
 20
0.1716714993192702
 42
-0.9999999999999998
  0
LINE
  5
7DE1B343D9E0B7B
330
7DE1B343D9E0BE2
100
AcDbEntity
  8
TEXT
100
AcDbLine
 10
1.415335621922221
 20
0.1792252884853801
 30
0.0
 11
1.415335621922221
 21
0.1041728824111735
 31
0.0
  0
LINE
  5
7DE1B343D9E0B7C
330
7DE1B343D9E0BE2
100
AcDbEntity
  8
TEXT
100
AcDbLine
 10
1.284137457092491
 20
0.1792252884853801
 30
0.0
 11
1.338271054013441
 21
0.1792252884853801
 31
0.0
  0
LINE
  5
7DE1B343D9E0B7D
330
7DE1B343D9E0BE2
100
AcDbEntity
  8
TEXT
100
AcDbLine
 10
1.284137457092491
 20
-0.0229710498463655
 30
0.0
 11
1.284137457092491
 21
0.1792252884853801
 31
0.0
  0
LWPOLYLINE
  5
7DE1B343D9E0B7E
330
7DE1B343D9E0BE2
100
AcDbEntity
  8
TEXT
100
AcDbPolyline
 90
        2
 70
     0
 43
0.0
 10
1.338271054013439
 20
0.1792252884853801
 42
-0.4142135623731017
 10
1.345824843179553
 20
0.1716714993192702
 42
-0.9999999999999998
  0
LWPOLYLINE
  5
7DE1B343D9E0B82
330
7DE1B343D9E0BE2
100
AcDbEntity
  8
TEXT
100
AcDbPolyline
 90
        4
 70
     0
 43
0.0
 10
1.345824843179553
 20
0.1716714993192702
 10
1.345824843179553
 20
-0.0229710498463655
 10
1.414303126467411
 20
-0.0229710498463655
 10
1.414303126467411
 20
0.0205198951040727
 42
-1.714843617202739
  0
LINE
  5
7DE1B343D9E0B88
330
7DE1B343D9E0BE2
100
AcDbEntity
  8
TEXT
100
AcDbLine
 10
0.7744389587843088
 20
0.2435019831421456
 30
0.0
 11
0.7744389587843088
 21
0.2778899007362837
 31
0.0
  0
LINE
  5
7DE1B343D9E0B89
330
7DE1B343D9E0BE2
100
AcDbEntity
  8
TEXT
100
AcDbLine
 10
0.8462379249282161
 20
0.2435019831421456
 30
0.0
 11
0.7744389587843088
 21
0.2435019831421456
 31
0.0
  0
LINE
  5
7DE1B343D9E0B8A
330
7DE1B343D9E0BE2
100
AcDbEntity
  8
TEXT
100
AcDbLine
 10
0.9937387215593957
 20
0.2435019831421456
 30
0.0
 11
0.9636168087660195
 21
0.2435019831421456
 31
0.0
  0
LINE
  5
7DE1B343D9E0B8B
330
7DE1B343D9E0BE2
100
AcDbEntity
  8
TEXT
100
AcDbLine
 10
0.9937387215593957
 20
0.3115134608809561
 30
0.0
 11
0.9937387215593957
 21
0.2435019831421456
 31
0.0
  0
LINE
  5
7DE1B343D9E0B8C
330
7DE1B343D9E0BE2
100
AcDbEntity
  8
TEXT
100
AcDbLine
 10
1.06054743412576
 20
0.3115134608809561
 30
0.0
 11
0.9937387215593957
 21
0.3115134608809561
 31
0.0
  0
LWPOLYLINE
  5
7DE1B343D9E0B8D
330
7DE1B343D9E0BE2
100
AcDbEntity
  8
TEXT
100
AcDbPolyline
 90
        3
 70
     0
 43
0.0
 10
1.380959193723763
 20
0.2435019831421491
 10
1.262659034907718
 20
0.2435019831421491
 10
1.262659034907718
 20
0.2163344863812532
 42
-1.960274751411753
  0
LINE
  5
7DE1B343D9E0B92
330
7DE1B343D9E0BE2
100
AcDbEntity
  8
TEXT
100
AcDbLine
 10
1.226877344194557
 20
0.2435019831421456
 30
0.0
 11
1.09285928826342
 21
0.2435019831421456
 31
0.0
  0
LWPOLYLINE
  5
7DE1B343D9E0B93
330
7DE1B343D9E0BE2
100
AcDbEntity
  8
TEXT
100
AcDbPolyline
 90
        2
 70
     0
 43
0.0
 10
1.226877344194557
 20
0.2435019831421491
 42
-0.3328679258950098
 10
1.262659034907718
 20
0.2163344863812532
 42
6.772930709997214
  0
LINE
  5
7DE1B343D9E0B97
330
7DE1B343D9E0BE2
100
AcDbEntity
  8
TEXT
100
AcDbLine
 10
1.416740884436929
 20
0.2435019831421456
 30
0.0
 11
1.416740884436929
 21
0.2151794373725017
 31
0.0
  0
LWPOLYLINE
  5
7DE1B343D9E0B98
330
7DE1B343D9E0BE2
100
AcDbEntity
  8
TEXT
100
AcDbPolyline
 90
        2
 70
     0
 43
0.0
 10
1.380959193723763
 20
0.2435019831421491
 42
-0.3277054968067132
 10
1.416740884436928
 20
0.2151794373725052
 42
6.667889725900311
  0
LINE
  5
7DE1B343D9E0B9C
330
7DE1B343D9E0BE2
100
AcDbEntity
  8
TEXT
100
AcDbLine
 10
1.630532732529029
 20
0.1382900045887182
 30
0.0
 11
1.586781961347128
 21
0.2205402805848634
 31
0.0
  0
LINE
  5
7DE1B343D9E0B9D
330
7DE1B343D9E0BE2
100
AcDbEntity
  8
TEXT
100
AcDbLine
 10
1.630532732529029
 20
0.2435019831421456
 30
0.0
 11
1.630532732529029
 21
0.1382900045887182
 31
0.0
  0
LINE
  5
7DE1B343D9E0B9E
330
7DE1B343D9E0BE2
100
AcDbEntity
  8
TEXT
100
AcDbLine
 10
1.858216471467398
 20
0.1676366567306074
 30
0.0
 11
1.858216471467398
 21
0.3089661889097463
 31
0.0
  0
LINE
  5
7DE1B343D9E0B9F
330
7DE1B343D9E0BE2
100
AcDbEntity
  8
TEXT
100
AcDbLine
 10
1.905314630023383
 20
0.2435019831421456
 30
0.0
 11
1.858216471467398
 21
0.1676366567306074
 31
0.0
  0
LINE
  5
7DE1B343D9E0BA0
330
7DE1B343D9E0BE2
100
AcDbEntity
  8
TEXT
100
AcDbLine
 10
1.915749346787306
 20
0.133608740201172
 30
0.0
 11
1.980306462753011
 21
0.2435019831421456
 31
0.0
  0
LINE
  5
7DE1B343D9E0BA1
330
7DE1B343D9E0BE2
100
AcDbEntity
  8
TEXT
100
AcDbLine
 10
1.794381480244625
 20
-0.0229710498463655
 30
0.0
 11
1.858759664563246
 21
-0.0229710498463655
 31
0.0
  0
LWPOLYLINE
  5
7DE1B343D9E0BA2
330
7DE1B343D9E0BE2
100
AcDbEntity
  8
TEXT
100
AcDbPolyline
 90
        2
 70
     0
 43
0.0
 10
1.634472409834067
 20
0.0205198951040727
 42
-0.2901071551932486
 10
1.591396476966423
 20
-0.0229710498463655
 42
-5.328517124445184
  0
ARC
  5
7DE1B343D9E0BA6
330
7DE1B343D9E0BE2
100
AcDbEntity
  8
TEXT
100
AcDbCircle
 10
1.522541895309508
 20
0.1508659134853828
 30
0.0
 40
0.028359375
100
AcDbArc
 50
25.78218179591245
 51
90.0
  0
LINE
  5
7DE1B343D9E0BA7
330
7DE1B343D9E0BE2
100
AcDbEntity
  8
TEXT
100
AcDbLine
 10
1.558342970613631
 20
0.1419503150232478
 30
0.0
 11
1.548078210200067
 21
0.1632008545959421
 31
0.0
  0
LINE
  5
7DE1B343D9E0BA8
330
7DE1B343D9E0BE2
100
AcDbEntity
  8
TEXT
100
AcDbLine
 10
1.476054980830248
 20
0.1419503150232478
 30
0.0
 11
1.558342970613631
 21
0.1419503150232478
 31
0.0
  0
LWPOLYLINE
  5
7DE1B343D9E0BA9
330
7DE1B343D9E0BE2
100
AcDbEntity
  8
TEXT
100
AcDbPolyline
 90
        4
 70
     1
 43
0.0
 10
1.57127401189653
 20
0.0799929281376598
 10
1.482613693236672
 20
0.0799929281376598
 42
0.9999999999999998
 10
1.482613693236672
 20
0.0375943876337991
 10
1.57127401189653
 20
0.0375943876337991
 42
1.0
  0
LWPOLYLINE
  5
7DE1B343D9E0BAF
330
7DE1B343D9E0BE2
100
AcDbEntity
  8
TEXT
100
AcDbPolyline
 90
        2
 70
     0
 43
0.0
 10
1.457379059335046
 20
-0.0229710498463655
 10
1.591396476966423
 20
-0.0229710498463655
 42
0.9999999999999998
  0
LINE
  5
7DE1B343D9E0BB3
330
7DE1B343D9E0BE2
100
AcDbEntity
  8
TEXT
100
AcDbLine
 10
1.717733498952062
 20
0.1792252884853801
 30
0.0
 11
1.79438148024462
 21
0.1792252884853801
 31
0.0
  0
LINE
  5
7DE1B343D9E0BB4
330
7DE1B343D9E0BE2
100
AcDbEntity
  8
TEXT
100
AcDbLine
 10
1.79438148024462
 20
0.1792252884853801
 30
0.0
 11
1.794381480244625
 21
-0.0229710498463655
 31
0.0
  0
ARC
  5
7DE1B343D9E0BB5
330
7DE1B343D9E0BE2
100
AcDbEntity
  8
TEXT
100
AcDbCircle
 10
1.71773349895206
 20
0.1543194132027173
 30
0.0
 40
0.0249058752826653
100
AcDbArc
 50
89.99971217465335
 51
179.9999999999985
  0
LINE
  5
7DE1B343D9E0BB6
330
7DE1B343D9E0BE2
100
AcDbEntity
  8
TEXT
100
AcDbLine
 10
1.692827623669403
 20
-0.0229710498463655
 30
0.0
 11
1.692827623669398
 21
0.154319455585103
 31
0.0
  0
LWPOLYLINE
  5
7DE1B343D9E0BB7
330
7DE1B343D9E0BE2
100
AcDbEntity
  8
TEXT
100
AcDbPolyline
 90
        2
 70
     0
 43
0.0
 10
1.634472409834067
 20
-0.0229710498463655
 10
1.692827623669401
 20
-0.0229710498463655
  0
LWPOLYLINE
  5
7DE1B343D9E0BBB
330
7DE1B343D9E0BE2
100
AcDbEntity
  8
TEXT
100
AcDbPolyline
 90
        2
 70
     0
 43
0.0
 10
1.634472409834067
 20
0.0205198951040727
 10
1.634472409834067
 20
-0.0229710498463655
  0
LINE
  5
7DE1B343D9E0BBF
330
7DE1B343D9E0BE2
100
AcDbEntity
  8
TEXT
100
AcDbLine
 10
2.011241570150916
 20
-0.0229710498463655
 30
0.0
 11
1.915749346787306
 21
0.133608740201172
 31
0.0
  0
LINE
  5
7DE1B343D9E0BC0
330
7DE1B343D9E0BE2
100
AcDbEntity
  8
TEXT
100
AcDbLine
 10
1.93466319777471
 20
-0.0229710498463655
 30
0.0
 11
2.011241570150916
 21
-0.0229710498463655
 31
0.0
  0
LINE
  5
7DE1B343D9E0BC1
330
7DE1B343D9E0BE2
100
AcDbEntity
  8
TEXT
100
AcDbLine
 10
1.858759664563246
 20
0.1086085186298148
 30
0.0
 11
1.93466319777471
 21
-0.0229710498463655
 31
0.0
  0
LINE
  5
7DE1B343D9E0BC2
330
7DE1B343D9E0BE2
100
AcDbEntity
  8
TEXT
100
AcDbLine
 10
1.858759664563246
 20
-0.0229710498463655
 30
0.0
 11
1.858759664563246
 21
0.1086085186298148
 31
0.0
  0
LINE
  5
7DE1B343D9E0BC3
330
7DE1B343D9E0BE2
100
AcDbEntity
  8
TEXT
100
AcDbLine
 10
1.858216471467398
 20
0.3089661889097463
 30
0.0
 11
1.789901592918125
 21
0.3089661889097463
 31
0.0
  0
ARC
  5
7DE1B343D9E0BC4
330
7DE1B343D9E0BE2
100
AcDbEntity
  8
TEXT
100
AcDbCircle
 10
1.549545853876919
 20
0.2019184160212432
 30
0.0
 40
0.0416329381542859
100
AcDbArc
 50
26.56974201007528
 51
87.20939649401342
  0
LINE
  5
7DE1B343D9E0BC5
330
7DE1B343D9E0BE2
100
AcDbEntity
  8
TEXT
100
AcDbLine
 10
1.69442963882853
 20
0.2435019831421456
 30
0.0
 11
1.630532732529029
 21
0.2435019831421456
 31
0.0
  0
LINE
  5
7DE1B343D9E0BC6
330
7DE1B343D9E0BE2
100
AcDbEntity
  8
TEXT
100
AcDbLine
 10
1.69442963882853
 20
0.2159543332812709
 30
0.0
 11
1.69442963882853
 21
0.2435019831421456
 31
0.0
  0
ARC
  5
7DE1B343D9E0BC7
330
7DE1B343D9E0BE2
100
AcDbEntity
  8
TEXT
100
AcDbCircle
 10
1.725622455891638
 20
0.2122562558598807
 30
0.0
 40
0.0314112657011332
100
AcDbArc
 50
95.88484768694724
 51
173.2388340632136
  0
LINE
  5
7DE1B343D9E0BC8
330
7DE1B343D9E0BE2
100
AcDbEntity
  8
TEXT
100
AcDbLine
 10
1.78990159291812
 20
0.2435019831421456
 30
0.0
 11
1.722401875268603
 21
0.2435019831421456
 31
0.0
  0
LINE
  5
7DE1B343D9E0BC9
330
7DE1B343D9E0BE2
100
AcDbEntity
  8
TEXT
100
AcDbLine
 10
1.789901592918125
 20
0.3089661889097463
 30
0.0
 11
1.78990159291812
 21
0.2435019831421456
 31
0.0
  0
LINE
  5
7DE1B343D9E0BCA
330
7DE1B343D9E0BE2
100
AcDbEntity
  8
TEXT
100
AcDbLine
 10
1.980306462753011
 20
0.2435019831421456
 30
0.0
 11
1.905314630023385
 21
0.2435019831421456
 31
0.0
  0
ENDSEC
  0
SECTION
  2
OBJECTS
  0
DICTIONARY
  5
7DE1B343D9E0BD6
330
0
100
AcDbDictionary
  3
ACAD_GROUP
350
7DE1B343D9E0BD7
  3
ACAD_LAYOUT
350
7DE1B343D9E0BFC
  3
ACAD_MLINESTYLE
350
7DE1B343D9E0BD8
  3
ACAD_PLOTSETTINGS
350
7DE1B343D9E0BFD
  3
ACAD_PLOTSTYLENAME
350
7DE1B343D9E0BFA
  3
ACDBHEADERROUNDTRIPXREC
350
7DE1B343D9E0C07
  3
ACDBVARIABLEDICTIONARY
350
7DE1B343D9E0C04
  0
DICTIONARY
  5
7DE1B343D9E0C29
330
7DE1B343D9E0BE2
100
AcDbDictionary
280
     1
  3
ACAD_LAYOUTSELFREF
360
7DE1B343D9E0C2A
  0
DICTIONARY
  5
7DE1B343D9E0C27
330
7DE1B343D9E0BDF
100
AcDbDictionary
280
     1
  3
ACAD_LAYOUTSELFREF
360
7DE1B343D9E0C28
  0
DICTIONARY
  5
7DE1B343D9E0BD7
102
{ACAD_REACTORS
330
7DE1B343D9E0BD6
102
}
330
7DE1B343D9E0BD6
100
AcDbDictionary
  0
DICTIONARY
  5
7DE1B343D9E0BFC
102
{ACAD_REACTORS
330
7DE1B343D9E0BD6
102
}
330
7DE1B343D9E0BD6
100
AcDbDictionary
  0
DICTIONARY
  5
7DE1B343D9E0BD8
102
{ACAD_REACTORS
330
7DE1B343D9E0BD6
102
}
330
7DE1B343D9E0BD6
100
AcDbDictionary
  3
STANDARD
350
7DE1B343D9E0BE5
  0
DICTIONARY
  5
7DE1B343D9E0BFD
102
{ACAD_REACTORS
330
7DE1B343D9E0BD6
102
}
330
7DE1B343D9E0BD6
100
AcDbDictionary
  0
ACDBDICTIONARYWDFLT
  5
7DE1B343D9E0BFA
102
{ACAD_REACTORS
330
7DE1B343D9E0BD6
102
}
330
7DE1B343D9E0BD6
100
AcDbDictionary
281
     1
  3
Normal
350
7DE1B343D9E0BFB
100
AcDbDictionaryWithDefault
340
7DE1B343D9E0BFB
  0
DICTIONARY
  5
7DE1B343D9E0C07
102
{ACAD_REACTORS
330
7DE1B343D9E0BD6
102
}
330
7DE1B343D9E0BD6
100
AcDbDictionary
  3
CEPSNTYPE
350
7DE1B343D9E0C11
  3
FINGERPRINTGUID
350
7DE1B343D9E0C12
  3
HYPERLINKBASE
350
7DE1B343D9E0C0A
  3
INSUNITS
350
7DE1B343D9E0C10
  3
LAYOUTDICT
350
7DE1B343D9E0C0C
  3
LWETCUNION
350
7DE1B343D9E0C0F
  3
PLOTSETDICT
350
7DE1B343D9E0C0D
  3
PLOTSTYLNAMDICT
350
7DE1B343D9E0C0E
  3
PSVPSCALE
350
7DE1B343D9E0C14
  3
PUCSBASE
350
7DE1B343D9E0C17
  3
PUCSORGBACK
350
7DE1B343D9E0C1D
  3
PUCSORGBOTTOM
350
7DE1B343D9E0C19
  3
PUCSORGFRONT
350
7DE1B343D9E0C1C
  3
PUCSORGLEFT
350
7DE1B343D9E0C1A
  3
PUCSORGRIGHT
350
7DE1B343D9E0C1B
  3
PUCSORGTOP
350
7DE1B343D9E0C18
  3
PUCSORTHOREF
350
7DE1B343D9E0C15
  3
PUCSORTHOVIEW
350
7DE1B343D9E0C16
  3
STYLESHEET
350
7DE1B343D9E0C0B
  3
TSTACKALIGN
350
7DE1B343D9E0C08
  3
TSTACKSIZE
350
7DE1B343D9E0C09
  3
UCSBASE
350
7DE1B343D9E0C20
  3
UCSORGBACK
350
7DE1B343D9E0C26
  3
UCSORGBOTTOM
350
7DE1B343D9E0C22
  3
UCSORGFRONT
350
7DE1B343D9E0C25
  3
UCSORGLEFT
350
7DE1B343D9E0C23
  3
UCSORGRIGHT
350
7DE1B343D9E0C24
  3
UCSORGTOP
350
7DE1B343D9E0C21
  3
UCSORTHOREF
350
7DE1B343D9E0C1E
  3
UCSORTHOVIEW
350
7DE1B343D9E0C1F
  3
VERSIONGUID
350
7DE1B343D9E0C13
  0
DICTIONARY
  5
7DE1B343D9E0C04
102
{ACAD_REACTORS
330
7DE1B343D9E0BD6
102
}
330
7DE1B343D9E0BD6
100
AcDbDictionary
  3
DIMASSOC
350
7DE1B343D9E0C05
  0
XRECORD
  5
7DE1B343D9E0C2A
102
{ACAD_REACTORS
330
7DE1B343D9E0C29
102
}
330
7DE1B343D9E0C29
100
AcDbXrecord
340
7DE1B343D9E0BE2
  0
XRECORD
  5
7DE1B343D9E0C28
102
{ACAD_REACTORS
330
7DE1B343D9E0C27
102
}
330
7DE1B343D9E0C27
100
AcDbXrecord
340
7DE1B343D9E0BDF
  0
MLINESTYLE
  5
7DE1B343D9E0BE5
102
{ACAD_REACTORS
330
7DE1B343D9E0BD8
102
}
330
7DE1B343D9E0BD8
100
AcDbMlineStyle
  2
STANDARD
 70
     0
  3

 62
     0
 51
90.0
 52
90.0
 71
     2
 49
0.5
 62
   256
  6
BYLAYER
 49
-0.5
 62
   256
  6
BYLAYER
  0
ACDBPLACEHOLDER
  5
7DE1B343D9E0BFB
102
{ACAD_REACTORS
330
7DE1B343D9E0BFA
102
}
330
7DE1B343D9E0BFA
100
AcDbPlaceHolder
280
     0
  0
XRECORD
  5
7DE1B343D9E0C11
102
{ACAD_REACTORS
330
7DE1B343D9E0C07
102
}
330
7DE1B343D9E0C07
100
AcDbXrecord
 90
        0
  0
XRECORD
  5
7DE1B343D9E0C12
102
{ACAD_REACTORS
330
7DE1B343D9E0C07
102
}
330
7DE1B343D9E0C07
100
AcDbXrecord
  1
{9C522DD0-8DB6-11D6-88E6-0090279574E7}
  0
XRECORD
  5
7DE1B343D9E0C0A
102
{ACAD_REACTORS
330
7DE1B343D9E0C07
102
}
330
7DE1B343D9E0C07
100
AcDbXrecord
  1

  0
XRECORD
  5
7DE1B343D9E0C10
102
{ACAD_REACTORS
330
7DE1B343D9E0C07
102
}
330
7DE1B343D9E0C07
100
AcDbXrecord
 90
        0
  0
XRECORD
  5
7DE1B343D9E0C0C
102
{ACAD_REACTORS
330
7DE1B343D9E0C07
102
}
330
7DE1B343D9E0C07
100
AcDbXrecord
340
7DE1B343D9E0BFC
  0
XRECORD
  5
7DE1B343D9E0C0F
102
{ACAD_REACTORS
330
7DE1B343D9E0C07
102
}
330
7DE1B343D9E0C07
100
AcDbXrecord
 90
    14877
  0
XRECORD
  5
7DE1B343D9E0C0D
102
{ACAD_REACTORS
330
7DE1B343D9E0C07
102
}
330
7DE1B343D9E0C07
100
AcDbXrecord
340
7DE1B343D9E0BFD
  0
XRECORD
  5
7DE1B343D9E0C0E
102
{ACAD_REACTORS
330
7DE1B343D9E0C07
102
}
330
7DE1B343D9E0C07
100
AcDbXrecord
340
7DE1B343D9E0BFA
  0
XRECORD
  5
7DE1B343D9E0C14
102
{ACAD_REACTORS
330
7DE1B343D9E0C07
102
}
330
7DE1B343D9E0C07
100
AcDbXrecord
 40
0.0
  0
XRECORD
  5
7DE1B343D9E0C17
102
{ACAD_REACTORS
330
7DE1B343D9E0C07
102
}
330
7DE1B343D9E0C07
100
AcDbXrecord
340
0
  0
XRECORD
  5
7DE1B343D9E0C1D
102
{ACAD_REACTORS
330
7DE1B343D9E0C07
102
}
330
7DE1B343D9E0C07
100
AcDbXrecord
 10
0.0
 20
0.0
 30
0.0
  0
XRECORD
  5
7DE1B343D9E0C19
102
{ACAD_REACTORS
330
7DE1B343D9E0C07
102
}
330
7DE1B343D9E0C07
100
AcDbXrecord
 10
0.0
 20
0.0
 30
0.0
  0
XRECORD
  5
7DE1B343D9E0C1C
102
{ACAD_REACTORS
330
7DE1B343D9E0C07
102
}
330
7DE1B343D9E0C07
100
AcDbXrecord
 10
0.0
 20
0.0
 30
0.0
  0
XRECORD
  5
7DE1B343D9E0C1A
102
{ACAD_REACTORS
330
7DE1B343D9E0C07
102
}
330
7DE1B343D9E0C07
100
AcDbXrecord
 10
0.0
 20
0.0
 30
0.0
  0
XRECORD
  5
7DE1B343D9E0C1B
102
{ACAD_REACTORS
330
7DE1B343D9E0C07
102
}
330
7DE1B343D9E0C07
100
AcDbXrecord
 10
0.0
 20
0.0
 30
0.0
  0
XRECORD
  5
7DE1B343D9E0C18
102
{ACAD_REACTORS
330
7DE1B343D9E0C07
102
}
330
7DE1B343D9E0C07
100
AcDbXrecord
 10
0.0
 20
0.0
 30
0.0
  0
XRECORD
  5
7DE1B343D9E0C15
102
{ACAD_REACTORS
330
7DE1B343D9E0C07
102
}
330
7DE1B343D9E0C07
100
AcDbXrecord
340
0
  0
XRECORD
  5
7DE1B343D9E0C16
102
{ACAD_REACTORS
330
7DE1B343D9E0C07
102
}
330
7DE1B343D9E0C07
100
AcDbXrecord
 70
     0
  0
XRECORD
  5
7DE1B343D9E0C0B
102
{ACAD_REACTORS
330
7DE1B343D9E0C07
102
}
330
7DE1B343D9E0C07
100
AcDbXrecord
  1

  0
XRECORD
  5
7DE1B343D9E0C08
102
{ACAD_REACTORS
330
7DE1B343D9E0C07
102
}
330
7DE1B343D9E0C07
100
AcDbXrecord
 90
        1
  0
XRECORD
  5
7DE1B343D9E0C09
102
{ACAD_REACTORS
330
7DE1B343D9E0C07
102
}
330
7DE1B343D9E0C07
100
AcDbXrecord
 90
       70
  0
XRECORD
  5
7DE1B343D9E0C20
102
{ACAD_REACTORS
330
7DE1B343D9E0C07
102
}
330
7DE1B343D9E0C07
100
AcDbXrecord
340
0
  0
XRECORD
  5
7DE1B343D9E0C26
102
{ACAD_REACTORS
330
7DE1B343D9E0C07
102
}
330
7DE1B343D9E0C07
100
AcDbXrecord
 10
0.0
 20
0.0
 30
0.0
  0
XRECORD
  5
7DE1B343D9E0C22
102
{ACAD_REACTORS
330
7DE1B343D9E0C07
102
}
330
7DE1B343D9E0C07
100
AcDbXrecord
 10
0.0
 20
0.0
 30
0.0
  0
XRECORD
  5
7DE1B343D9E0C25
102
{ACAD_REACTORS
330
7DE1B343D9E0C07
102
}
330
7DE1B343D9E0C07
100
AcDbXrecord
 10
0.0
 20
0.0
 30
0.0
  0
XRECORD
  5
7DE1B343D9E0C23
102
{ACAD_REACTORS
330
7DE1B343D9E0C07
102
}
330
7DE1B343D9E0C07
100
AcDbXrecord
 10
0.0
 20
0.0
 30
0.0
  0
XRECORD
  5
7DE1B343D9E0C24
102
{ACAD_REACTORS
330
7DE1B343D9E0C07
102
}
330
7DE1B343D9E0C07
100
AcDbXrecord
 10
0.0
 20
0.0
 30
0.0
  0
XRECORD
  5
7DE1B343D9E0C21
102
{ACAD_REACTORS
330
7DE1B343D9E0C07
102
}
330
7DE1B343D9E0C07
100
AcDbXrecord
 10
0.0
 20
0.0
 30
0.0
  0
XRECORD
  5
7DE1B343D9E0C1E
102
{ACAD_REACTORS
330
7DE1B343D9E0C07
102
}
330
7DE1B343D9E0C07
100
AcDbXrecord
340
0
  0
XRECORD
  5
7DE1B343D9E0C1F
102
{ACAD_REACTORS
330
7DE1B343D9E0C07
102
}
330
7DE1B343D9E0C07
100
AcDbXrecord
 70
     0
  0
XRECORD
  5
7DE1B343D9E0C13
102
{ACAD_REACTORS
330
7DE1B343D9E0C07
102
}
330
7DE1B343D9E0C07
100
AcDbXrecord
  1
{9C522DD2-8DB6-11D6-88E6-0090279574E7}
  0
DICTIONARYVAR
  5
7DE1B343D9E0C05
102
{ACAD_REACTORS
330
7DE1B343D9E0C04
102
}
330
7DE1B343D9E0C04
100
DictionaryVariables
280
     0
  1
1
  0
ENDSEC
  0
EOF
