  0
SECTION
  2
HEADER
  9
$ACADVER
  1
AC1014
  9
$ACADMAINTVER
 70
     9
  9
$DWGCODEPAGE
  3
ANSI_1252
  9
$INSBASE
 10
2.642530489474324
 20
2.300558782181864
 30
0.0
  9
$EXTMIN
 10
0.8995489102471811
 20
-0.37015709640867
 30
0.0
  9
$EXTMAX
 10
4.384768231994311
 20
2.419640421209149
 30
0.0
  9
$LIMMIN
 10
0.0
 20
0.0
  9
$LIMMAX
 10
18.0
 20
12.0
  9
$ORTHOMODE
 70
     1
  9
$REGENMODE
 70
     1
  9
$FILLMODE
 70
     1
  9
$QTEXTMODE
 70
     0
  9
$MIRRTEXT
 70
     0
  9
$DRAGMODE
 70
     2
  9
$LTSCALE
 40
1.0
  9
$OSMODE
 70
    39
  9
$ATTMODE
 70
     1
  9
$TEXTSIZE
 40
0.125
  9
$TRACEWID
 40
0.05
  9
$TEXTSTYLE
  7
ROMANS
  9
$CLAYER
  8
0
  9
$CELTYPE
  6
BYLAYER
  9
$CECOLOR
 62
   256
  9
$CELTSCALE
 40
1.0
  9
$DELOBJ
 70
     1
  9
$DISPSILH
 70
     1
  9
$DIMSCALE
 40
1.0
  9
$DIMASZ
 40
0.125
  9
$DIMEXO
 40
0.125
  9
$DIMDLI
 40
0.375
  9
$DIMRND
 40
0.0
  9
$DIMDLE
 40
0.0
  9
$DIMEXE
 40
0.125
  9
$DIMTP
 40
0.0
  9
$DIMTM
 40
0.0
  9
$DIMTXT
 40
0.125
  9
$DIMCEN
 40
-0.125
  9
$DIMTSZ
 40
0.0
  9
$DIMTOL
 70
     0
  9
$DIMLIM
 70
     0
  9
$DIMTIH
 70
     1
  9
$DIMTOH
 70
     1
  9
$DIMSE1
 70
     0
  9
$DIMSE2
 70
     0
  9
$DIMTAD
 70
     0
  9
$DIMZIN
 70
     4
  9
$DIMBLK
  1

  9
$DIMASO
 70
     1
  9
$DIMSHO
 70
     1
  9
$DIMPOST
  1

  9
$DIMAPOST
  1

  9
$DIMALT
 70
     0
  9
$DIMALTD
 70
     2
  9
$DIMALTF
 40
25.4
  9
$DIMLFAC
 40
1.0
  9
$DIMTOFL
 70
     0
  9
$DIMTVP
 40
0.0
  9
$DIMTIX
 70
     1
  9
$DIMSOXD
 70
     0
  9
$DIMSAH
 70
     0
  9
$DIMBLK1
  1

  9
$DIMBLK2
  1

  9
$DIMSTYLE
  2
STANDARD
  9
$DIMCLRD
 70
     0
  9
$DIMCLRE
 70
     0
  9
$DIMCLRT
 70
     0
  9
$DIMTFAC
 40
1.0
  9
$DIMGAP
 40
0.09
  9
$DIMJUST
 70
     0
  9
$DIMSD1
 70
     0
  9
$DIMSD2
 70
     0
  9
$DIMTOLJ
 70
     1
  9
$DIMTZIN
 70
     4
  9
$DIMALTZ
 70
     0
  9
$DIMALTTZ
 70
     0
  9
$DIMFIT
 70
     3
  9
$DIMUPT
 70
     0
  9
$DIMUNIT
 70
     2
  9
$DIMDEC
 70
     3
  9
$DIMTDEC
 70
     3
  9
$DIMALTU
 70
     2
  9
$DIMALTTD
 70
     2
  9
$DIMTXSTY
  7
ROMANS
  9
$DIMAUNIT
 70
     0
  9
$LUNITS
 70
     2
  9
$LUPREC
 70
     3
  9
$SKETCHINC
 40
0.1
  9
$FILLETRAD
 40
0.03125
  9
$AUNITS
 70
     0
  9
$AUPREC
 70
     0
  9
$MENU
  1
ACAD
  9
$ELEVATION
 40
0.0
  9
$PELEVATION
 40
0.0
  9
$THICKNESS
 40
0.0
  9
$LIMCHECK
 70
     0
  9
$BLIPMODE
 70
     0
  9
$CHAMFERA
 40
0.0
  9
$CHAMFERB
 40
0.0
  9
$CHAMFERC
 40
0.0
  9
$CHAMFERD
 40
0.0
  9
$SKPOLY
 70
     0
  9
$TDCREATE
 40
2448994.593534143
  9
$TDUPDATE
 40
2452458.308395162
  9
$TDINDWG
 40
0.0011406019
  9
$TDUSRTIMER
 40
0.0011406019
  9
$USRTIMER
 70
     1
  9
$ANGBASE
 50
0.0
  9
$ANGDIR
 70
     0
  9
$PDMODE
 70
     0
  9
$PDSIZE
 40
0.0
  9
$PLINEWID
 40
0.0
  9
$COORDS
 70
     2
  9
$SPLFRAME
 70
     0
  9
$SPLINETYPE
 70
     6
  9
$SPLINESEGS
 70
     8
  9
$ATTDIA
 70
     0
  9
$ATTREQ
 70
     1
  9
$HANDLING
 70
 22529
  9
$HANDSEED
  5
7DE1B343D9E081C
  9
$SURFTAB1
 70
     6
  9
$SURFTAB2
 70
     6
  9
$SURFTYPE
 70
     6
  9
$SURFU
 70
     6
  9
$SURFV
 70
     6
  9
$UCSNAME
  2

  9
$UCSORG
 10
0.0
 20
0.0
 30
0.0
  9
$UCSXDIR
 10
1.0
 20
0.0
 30
0.0
  9
$UCSYDIR
 10
0.0
 20
1.0
 30
0.0
  9
$PUCSNAME
  2

  9
$PUCSORG
 10
0.0
 20
0.0
 30
0.0
  9
$PUCSXDIR
 10
1.0
 20
0.0
 30
0.0
  9
$PUCSYDIR
 10
0.0
 20
1.0
 30
0.0
  9
$USERI1
 70
     0
  9
$USERI2
 70
     0
  9
$USERI3
 70
     0
  9
$USERI4
 70
     0
  9
$USERI5
 70
     0
  9
$USERR1
 40
0.0
  9
$USERR2
 40
0.0
  9
$USERR3
 40
0.0
  9
$USERR4
 40
0.0
  9
$USERR5
 40
0.0
  9
$WORLDVIEW
 70
     1
  9
$SHADEDGE
 70
     3
  9
$SHADEDIF
 70
    70
  9
$TILEMODE
 70
     1
  9
$MAXACTVP
 70
    16
  9
$PINSBASE
 10
0.5575505136353973
 20
50.00000000000001
 30
2.545731717704791
  9
$PLIMCHECK
 70
     0
  9
$PEXTMIN
 10
1.000000000000000E+20
 20
1.000000000000000E+20
 30
1.000000000000000E+20
  9
$PEXTMAX
 10
-1.000000000000000E+20
 20
-1.000000000000000E+20
 30
-1.000000000000000E+20
  9
$PLIMMIN
 10
0.0
 20
0.0
  9
$PLIMMAX
 10
12.0
 20
9.0
  9
$UNITMODE
 70
     0
  9
$VISRETAIN
 70
     0
  9
$PLINEGEN
 70
     1
  9
$PSLTSCALE
 70
     0
  9
$TREEDEPTH
 70
  3020
  9
$PICKSTYLE
 70
     1
  9
$CMLSTYLE
  2
STANDARD
  9
$CMLJUST
 70
     0
  9
$CMLSCALE
 40
1.0
  9
$PROXYGRAPHICS
 70
     1
  9
$MEASUREMENT
 70
     0
  0
ENDSEC
  0
SECTION
  2
CLASSES
  0
CLASS
  1
LWPOLYLINE
  2
AcDbPolyline
  3
AutoCAD 2000
 90
        0
280
     0
281
     1
  0
CLASS
  1
ACDBDICTIONARYWDFLT
  2
AcDbDictionaryWithDefault
  3
AutoCAD 2000
 90
        0
280
     0
281
     0
  0
CLASS
  1
ACDBPLACEHOLDER
  2
AcDbPlaceHolder
  3
AutoCAD 2000
 90
        0
280
     0
281
     0
  0
CLASS
  1
LAYOUT
  2
AcDbLayout
  3
AutoCAD 2000
 90
        0
280
     0
281
     0
  0
CLASS
  1
DICTIONARYVAR
  2
AcDbDictionaryVar
  3
AutoCAD 2000
 90
        0
280
     0
281
     0
  0
CLASS
  1
LONG_TRANSACTION
  2
AcDbLongTransaction
  3
AutoCAD 2000
 90
        0
280
     0
281
     0
  0
CLASS
  1
LWPOLYLINE
  2
AcDbPolyline
  3
AutoCAD 2000
 90
        0
280
     0
281
     1
  0
CLASS
  1
HATCH
  2
AcDbHatch
  3
AutoCAD 2000
 90
        0
280
     0
281
     1
  0
CLASS
  1
XRECORD
  2
AcDbXrecord
  3
AutoCAD 2000
 90
        0
280
     0
281
     0
  0
ENDSEC
  0
SECTION
  2
TABLES
  0
TABLE
  2
VPORT
  5
7DE1B343D9E07C3
330
0
100
AcDbSymbolTable
 70
     2
  0
VPORT
  5
7DE1B343D9E07F7
330
7DE1B343D9E07C3
100
AcDbSymbolTableRecord
100
AcDbViewportTableRecord
  2
*ACTIVE
 70
     0
 10
0.0
 20
0.0
 11
1.0
 21
1.0
 12
6.750338541608713
 22
1.024826539197549
 13
0.0
 23
0.0
 14
0.015625
 24
0.015625
 15
0.0
 25
0.0
 16
0.0
 26
0.0
 36
1.0
 17
0.0
 27
0.0
 37
0.0
 40
3.150547969907816
 41
4.320930232558139
 42
50.0
 43
0.0
 44
0.0
 50
0.0
 51
0.0
 71
     0
 72
  2000
 73
     1
 74
     0
 75
     0
 76
     0
 77
     0
 78
     0
  0
ENDTAB
  0
TABLE
  2
LTYPE
  5
7DE1B343D9E07C0
330
0
100
AcDbSymbolTable
 70
     1
  0
LTYPE
  5
7DE1B343D9E07CD
330
7DE1B343D9E07C0
100
AcDbSymbolTableRecord
100
AcDbLinetypeTableRecord
  2
BYBLOCK
 70
     0
  3

 72
    65
 73
     0
 40
0.0
  0
LTYPE
  5
7DE1B343D9E07CE
330
7DE1B343D9E07C0
100
AcDbSymbolTableRecord
100
AcDbLinetypeTableRecord
  2
BYLAYER
 70
     0
  3

 72
    65
 73
     0
 40
0.0
  0
LTYPE
  5
7DE1B343D9E07CF
330
7DE1B343D9E07C0
100
AcDbSymbolTableRecord
100
AcDbLinetypeTableRecord
  2
CONTINUOUS
 70
     0
  3
Solid line
 72
    65
 73
     0
 40
0.0
  0
ENDTAB
  0
TABLE
  2
LAYER
  5
7DE1B343D9E07BD
330
0
100
AcDbSymbolTable
 70
     2
  0
LAYER
  5
7DE1B343D9E07CA
330
7DE1B343D9E07BD
100
AcDbSymbolTableRecord
100
AcDbLayerTableRecord
  2
0
 70
     0
 62
     7
  6
CONTINUOUS
  0
LAYER
  5
7DE1B343D9E07DA
330
7DE1B343D9E07BD
100
AcDbSymbolTableRecord
100
AcDbLayerTableRecord
  2
TEXT
 70
     0
 62
     3
  6
CONTINUOUS
  0
ENDTAB
  0
TABLE
  2
STYLE
  5
7DE1B343D9E07BE
330
0
100
AcDbSymbolTable
 70
     3
  0
STYLE
  5
7DE1B343D9E07CB
330
7DE1B343D9E07BE
100
AcDbSymbolTableRecord
100
AcDbTextStyleTableRecord
  2
STANDARD
 70
     0
 40
0.0
 41
1.0
 50
0.0
 71
     0
 42
0.3125
  3
txt
  4

  0
STYLE
  5
7DE1B343D9E07D7
330
7DE1B343D9E07BE
100
AcDbSymbolTableRecord
100
AcDbTextStyleTableRecord
  2
ITALICC
 70
     0
 40
0.0
 41
1.0
 50
0.0
 71
     0
 42
0.125
  3
italicc
  4

  0
STYLE
  5
7DE1B343D9E07E7
330
7DE1B343D9E07BE
100
AcDbSymbolTableRecord
100
AcDbTextStyleTableRecord
  2
ROMANS
 70
     0
 40
0.0
 41
1.0
 50
0.0
 71
     0
 42
0.125
  3
romans.shx
  4

  0
ENDTAB
  0
TABLE
  2
VIEW
  5
7DE1B343D9E07C1
330
0
100
AcDbSymbolTable
 70
     0
  0
ENDTAB
  0
TABLE
  2
UCS
  5
7DE1B343D9E07C2
330
0
100
AcDbSymbolTable
 70
     0
  0
ENDTAB
  0
TABLE
  2
APPID
  5
7DE1B343D9E07C4
330
0
100
AcDbSymbolTable
 70
     1
  0
APPID
  5
7DE1B343D9E07CC
330
7DE1B343D9E07C4
100
AcDbSymbolTableRecord
100
AcDbRegAppTableRecord
  2
ACAD
 70
     0
  0
ENDTAB
  0
TABLE
  2
DIMSTYLE
  5
7DE1B343D9E07C5
330
0
100
AcDbSymbolTable
 70
     1
  0
DIMSTYLE
105
7DE1B343D9E07DF
330
7DE1B343D9E07C5
100
AcDbSymbolTableRecord
100
AcDbDimStyleTableRecord
  2
STANDARD
 70
     0
  3

  4

  5

  6

  7

 40
1.0
 41
0.125
 42
0.125
 43
0.375
 44
0.125
 45
0.0
 46
0.0
 47
0.0
 48
0.0
140
0.125
141
-0.125
142
0.0
143
25.4
144
1.0
145
0.0
146
1.0
147
0.09
 71
     0
 72
     0
 73
     1
 74
     1
 75
     0
 76
     0
 77
     0
 78
     4
170
     0
171
     2
172
     0
173
     0
174
     1
175
     0
176
     0
177
     0
178
     0
270
     2
271
     3
272
     3
273
     2
274
     2
340
7DE1B343D9E07E7
275
     0
280
     0
281
     0
282
     0
283
     1
284
     4
285
     0
286
     0
287
     3
288
     0
  0
ENDTAB
  0
TABLE
  2
BLOCK_RECORD
  5
7DE1B343D9E07BC
330
0
100
AcDbSymbolTable
 70
     0
  0
BLOCK_RECORD
  5
7DE1B343D9E07D3
102
{ACAD_XDICTIONARY
360
7DE1B343D9E081A
102
}
330
7DE1B343D9E07BC
100
AcDbSymbolTableRecord
100
AcDbBlockTableRecord
  2
*MODEL_SPACE
  0
BLOCK_RECORD
  5
7DE1B343D9E07D0
102
{ACAD_XDICTIONARY
360
7DE1B343D9E0818
102
}
330
7DE1B343D9E07BC
100
AcDbSymbolTableRecord
100
AcDbBlockTableRecord
  2
*PAPER_SPACE
  0
ENDTAB
  0
ENDSEC
  0
SECTION
  2
BLOCKS
  0
BLOCK
  5
7DE1B343D9E07DD
330
7DE1B343D9E07D3
100
AcDbEntity
  8
0
100
AcDbBlockBegin
  2
*MODEL_SPACE
 70
     0
 10
0.0
 20
0.0
 30
0.0
  3
*MODEL_SPACE
  1

  0
ENDBLK
  5
7DE1B343D9E07DE
330
7DE1B343D9E07D3
100
AcDbEntity
  8
0
100
AcDbBlockEnd
  0
BLOCK
  5
7DE1B343D9E07DB
330
7DE1B343D9E07D0
100
AcDbEntity
 67
     1
  8
0
100
AcDbBlockBegin
  2
*PAPER_SPACE
 70
     0
 10
0.0
 20
0.0
 30
0.0
  3
*PAPER_SPACE
  1

  0
ENDBLK
  5
7DE1B343D9E07DC
330
7DE1B343D9E07D0
100
AcDbEntity
 67
     1
  8
0
100
AcDbBlockEnd
  0
ENDSEC
  0
SECTION
  2
ENTITIES
  0
LWPOLYLINE
  5
7DE1B343D9DF3F5
330
7DE1B343D9E07D3
100
AcDbEntity
  8
0
100
AcDbPolyline
 90
       17
 70
     1
 43
0.0
 10
2.642530489474324
 20
2.300558782181864
 10
2.652530489474323
 20
2.290558782181865
 10
3.017530489474324
 20
2.290558782181864
 10
3.017530489474324
 20
0.4355587821818647
 42
0.4142135623730951
 10
3.037530489474324
 20
0.4155587821818648
 10
3.112530489474324
 20
0.4155587821818648
 42
0.4082489103099919
 10
3.132526324976665
 20
0.4351506614114637
 42
0.0102040816326525
 10
3.132526324976665
 20
2.395966902952287
 42
0.4082489103099921
 10
3.112530489474324
 20
2.415558782181864
 10
2.172530489474324
 20
2.415558782181864
 42
0.4082489103099921
 10
2.152534653971981
 20
2.395966902952296
 42
0.0102040816326528
 10
2.152534653971983
 20
0.4351506614114424
 42
0.4082489103099921
 10
2.172530489474324
 20
0.4155587821818648
 10
2.247530489474323
 20
0.4155587821818643
 42
0.4142135623730951
 10
2.267530489474324
 20
0.4355587821818644
 10
2.267530489474324
 20
2.290558782181865
 10
2.632530489474324
 20
2.290558782181865
  0
TEXT
  5
7DE1B343D9E067E
330
7DE1B343D9E07D3
100
AcDbEntity
  8
TEXT
100
AcDbText
 10
1.889554298998133
 20
0.0878615076739116
 30
0.0
 40
0.125
  1
PART #110360
  7
ITALICC
 72
     1
 11
2.642530489474324
 21
0.0878615076739116
 31
0.0
100
AcDbText
  0
TEXT
  5
7DE1B343D9E067F
330
7DE1B343D9E07D3
100
AcDbEntity
  8
TEXT
100
AcDbText
 10
3.055835647724645
 20
-0.3590611349984636
 30
0.0
 40
0.0522247191011236
  1
Phone  1-800-328-2495
 41
1.27232142857143
 72
     5
 11
4.384768231994309
 21
-0.3590611349984636
 31
0.0
100
AcDbText
  0
TEXT
  5
7DE1B343D9E0680
330
7DE1B343D9E07D3
100
AcDbEntity
  8
TEXT
100
AcDbText
 10
3.055835647724645
 20
-0.0792858540995871
 30
0.0
 40
0.0522247191011236
  1
Stylmark  Incorporated
 41
1.221428571428573
 72
     5
 11
4.384768231994309
 21
-0.0792858540995871
 31
0.0
100
AcDbText
  0
TEXT
  5
7DE1B343D9E0681
330
7DE1B343D9E07D3
100
AcDbEntity
  8
TEXT
100
AcDbText
 10
3.055835647724645
 20
-0.1725442810658793
 30
0.0
 40
0.0522247191011236
  1
6536 Main St. N.E. * P.O. Box 32008
 41
0.8388932496075367
 72
     5
 11
4.384768231994309
 21
-0.1725442810658793
 31
0.0
100
AcDbText
  0
TEXT
  5
7DE1B343D9E0682
330
7DE1B343D9E07D3
100
AcDbEntity
  8
TEXT
100
AcDbText
 10
3.055835647724645
 20
-0.2658027080321714
 30
0.0
 40
0.0522247191011236
  1
Minneapolis, MN 55432-0008
 41
1.11444212721585
 72
     5
 11
4.384768231994309
 21
-0.2658027080321714
 31
0.0
100
AcDbText
  0
LWPOLYLINE
  5
7DE1B343D9E0683
330
7DE1B343D9E07D3
100
AcDbEntity
  8
TEXT
100
AcDbPolyline
 90
        3
 70
     0
 43
0.0006660908203125
 10
0.8998819556573373
 20
-0.2454163723610288
 10
0.8998819556573373
 20
-0.3586518118141564
 10
1.013117395110459
 20
-0.3586518118141564
  0
LWPOLYLINE
  5
7DE1B343D9E0688
330
7DE1B343D9E07D3
100
AcDbEntity
  8
TEXT
100
AcDbPolyline
 90
        3
 70
     0
 43
0.0006660908203125
 10
0.9265255884698348
 20
-0.2454163723610288
 10
0.9265255884698348
 20
-0.3320081790016554
 10
1.013117395110459
 20
-0.3320081790016554
  0
LWPOLYLINE
  5
7DE1B343D9E068D
330
7DE1B343D9E07D3
100
AcDbEntity
  8
TEXT
100
AcDbPolyline
 90
        2
 70
     0
 43
0.0001332181640625
 10
0.9731519458917116
 20
-0.2354250100563435
 10
0.8998819556573373
 20
-0.2454163723610288
  0
LWPOLYLINE
  5
7DE1B343D9E0691
330
7DE1B343D9E07D3
100
AcDbEntity
  8
TEXT
100
AcDbPolyline
 90
        2
 70
     0
 43
0.0001332181640625
 10
0.9265255884698348
 20
-0.2454163723610288
 10
0.9864737622979621
 20
-0.2354250100563435
  0
LWPOLYLINE
  5
7DE1B343D9E0695
330
7DE1B343D9E07D3
100
AcDbEntity
  8
TEXT
100
AcDbPolyline
 90
        2
 70
     0
 43
0.0001332181640625
 10
0.9265255884698348
 20
-0.3320081790016554
 10
0.9864737622979621
 20
-0.2720600051735298
  0
LWPOLYLINE
  5
7DE1B343D9E0699
330
7DE1B343D9E07D3
100
AcDbEntity
  8
TEXT
100
AcDbPolyline
 90
        3
 70
     0
 43
0.0006660908203125
 10
1.013117395110459
 20
-0.0922154836891531
 10
0.8998819556573373
 20
-0.0922154836891531
 10
0.8998819556573373
 20
-0.2054509231422807
  0
LWPOLYLINE
  5
7DE1B343D9E069E
330
7DE1B343D9E07D3
100
AcDbEntity
  8
TEXT
100
AcDbPolyline
 90
        3
 70
     0
 43
0.0006660908203125
 10
1.013117395110459
 20
-0.1188591165016541
 10
0.9265255884698348
 20
-0.1188591165016541
 10
0.9265255884698348
 20
-0.2054509231422807
  0
LWPOLYLINE
  5
7DE1B343D9E06A3
330
7DE1B343D9E07D3
100
AcDbEntity
  8
TEXT
100
AcDbPolyline
 90
        2
 70
     0
 43
0.0001332181640625
 10
0.9265255884698348
 20
-0.1188591165016541
 10
0.9864737622979603
 20
-0.1788072903297797
  0
LWPOLYLINE
  5
7DE1B343D9E06A7
330
7DE1B343D9E07D3
100
AcDbEntity
  8
TEXT
100
AcDbPolyline
 90
        2
 70
     0
 43
0.0001332181640625
 10
0.9265255884698348
 20
-0.2054509231422807
 10
0.9864737622979603
 20
-0.2154422854469695
  0
LWPOLYLINE
  5
7DE1B343D9E06AB
330
7DE1B343D9E07D3
100
AcDbEntity
  8
TEXT
100
AcDbPolyline
 90
        2
 70
     0
 43
0.0001332181640625
 10
0.8998819556573373
 20
-0.2054509231422807
 10
0.9731519458917116
 20
-0.2154422854469695
  0
LWPOLYLINE
  5
7DE1B343D9E06AF
330
7DE1B343D9E07D3
100
AcDbEntity
  8
TEXT
100
AcDbPolyline
 90
        2
 70
     0
 43
0.0006660908203125
 10
0.9265255884698348
 20
-0.2454163723610288
 10
0.8998819556573373
 20
-0.2454163723610288
  0
LWPOLYLINE
  5
7DE1B343D9E06B3
330
7DE1B343D9E07D3
100
AcDbEntity
  8
TEXT
100
AcDbPolyline
 90
        2
 70
     0
 43
0.0006660908203125
 10
0.9265255884698348
 20
-0.2054509231422807
 10
0.8998819556573373
 20
-0.2054509231422807
  0
LINE
  5
7DE1B343D9E06B7
330
7DE1B343D9E07D3
100
AcDbEntity
  8
TEXT
100
AcDbLine
 10
2.415072384783834
 20
-0.1564921783459221
 30
0.0
 11
2.307866111396545
 21
-0.1564921783459221
 31
0.0
  0
LINE
  5
7DE1B343D9E06B8
330
7DE1B343D9E07D3
100
AcDbEntity
  8
TEXT
100
AcDbLine
 10
2.444103283128313
 20
-0.0922154836891567
 30
0.0
 11
2.309271373911254
 21
-0.0922154836891567
 31
0.0
  0
ARC
  5
7DE1B343D9E06B9
330
7DE1B343D9E07D3
100
AcDbEntity
  8
TEXT
100
AcDbCircle
 10
2.368585470304571
 20
-0.261452732952173
 30
0.0
 40
0.0676855811441166
100
AcDbArc
 50
90.0
 51
153.7768192527749
  0
LWPOLYLINE
  5
7DE1B343D9E06BA
330
7DE1B343D9E07D3
100
AcDbEntity
  8
TEXT
100
AcDbPolyline
 90
        2
 70
     0
 43
0.0
 10
2.306833615941735
 20
-0.3151975717272295
 42
0.2901071551932823
 10
2.349909548809371
 20
-0.3586885166776677
 42
5.328517124445801
  0
ARC
  5
7DE1B343D9E06BE
330
7DE1B343D9E07D3
100
AcDbEntity
  8
TEXT
100
AcDbCircle
 10
1.663454092633085
 20
-0.2988961253396178
 30
0.0
 40
0.0601160179737537
100
AcDbArc
 50
180.0000000000003
 51
264.0521544866073
  0
LINE
  5
7DE1B343D9E06BF
330
7DE1B343D9E07D3
100
AcDbEntity
  8
TEXT
100
AcDbLine
 10
1.666969448258633
 20
-0.0578275660950185
 30
0.0
 11
1.606926843414626
 21
-0.0578275660950185
 31
0.0
  0
ARC
  5
7DE1B343D9E06C0
330
7DE1B343D9E07D3
100
AcDbEntity
  8
TEXT
100
AcDbCircle
 10
1.431195090516114
 20
-0.1743029431356584
 30
0.0
 40
0.0820874594465043
100
AcDbArc
 50
90.0
 51
270.0
  0
LWPOLYLINE
  5
7DE1B343D9E06C1
330
7DE1B343D9E07D3
100
AcDbEntity
  8
TEXT
100
AcDbPolyline
 90
        2
 70
     0
 43
0.0001332181640625
 10
1.02310875741515
 20
-0.1654854739235327
 10
1.013117395110459
 20
-0.0922154836891531
  0
LWPOLYLINE
  5
7DE1B343D9E06C5
330
7DE1B343D9E07D3
100
AcDbEntity
  8
TEXT
100
AcDbPolyline
 90
        2
 70
     0
 43
0.0001332181640625
 10
1.013117395110459
 20
-0.1188591165016541
 10
1.02310875741515
 20
-0.1788072903297797
  0
LWPOLYLINE
  5
7DE1B343D9E06C9
330
7DE1B343D9E07D3
100
AcDbEntity
  8
TEXT
100
AcDbPolyline
 90
        3
 70
     0
 43
0.0006660908203125
 10
1.166318283782337
 20
-0.2054509231422807
 10
1.166318283782337
 20
-0.0922154836891531
 10
1.053082844329211
 20
-0.0922154836891531
  0
LWPOLYLINE
  5
7DE1B343D9E06CE
330
7DE1B343D9E07D3
100
AcDbEntity
  8
TEXT
100
AcDbPolyline
 90
        3
 70
     0
 43
0.0006660908203125
 10
1.139674650969836
 20
-0.2054509231422807
 10
1.139674650969836
 20
-0.1188591165016541
 10
1.053082844329211
 20
-0.1188591165016541
  0
LWPOLYLINE
  5
7DE1B343D9E06D3
330
7DE1B343D9E07D3
100
AcDbEntity
  8
TEXT
100
AcDbPolyline
 90
        2
 70
     0
 43
0.0001332181640625
 10
1.139674650969836
 20
-0.1188591165016541
 10
1.079726477141712
 20
-0.1788072903297797
  0
LWPOLYLINE
  5
7DE1B343D9E06D7
330
7DE1B343D9E07D3
100
AcDbEntity
  8
TEXT
100
AcDbPolyline
 90
        2
 70
     0
 43
0.0001332181640625
 10
1.053082844329211
 20
-0.1188591165016541
 10
1.043091482024522
 20
-0.1788072903297797
  0
LWPOLYLINE
  5
7DE1B343D9E06DB
330
7DE1B343D9E07D3
100
AcDbEntity
  8
TEXT
100
AcDbPolyline
 90
        2
 70
     0
 43
0.0001332181640625
 10
1.053082844329211
 20
-0.0922154836891531
 10
1.043091482024522
 20
-0.1654854739235327
  0
LWPOLYLINE
  5
7DE1B343D9E06DF
330
7DE1B343D9E07D3
100
AcDbEntity
  8
TEXT
100
AcDbPolyline
 90
        2
 70
     0
 43
0.0001332181640625
 10
1.093048293547961
 20
-0.2154422854469695
 10
1.166318283782337
 20
-0.2054509231422807
  0
LWPOLYLINE
  5
7DE1B343D9E06E3
330
7DE1B343D9E07D3
100
AcDbEntity
  8
TEXT
100
AcDbPolyline
 90
        2
 70
     0
 43
0.0001332181640625
 10
1.139674650969836
 20
-0.2054509231422807
 10
1.079726477141712
 20
-0.2154422854469695
  0
LWPOLYLINE
  5
7DE1B343D9E06E7
330
7DE1B343D9E07D3
100
AcDbEntity
  8
TEXT
100
AcDbPolyline
 90
        2
 70
     0
 43
0.0001332181640625
 10
1.166318283782337
 20
-0.2454163723610288
 10
1.093048293547961
 20
-0.2354250100563435
  0
LWPOLYLINE
  5
7DE1B343D9E06EB
330
7DE1B343D9E07D3
100
AcDbEntity
  8
TEXT
100
AcDbPolyline
 90
        2
 70
     0
 43
0.0001332181640625
 10
1.139674650969836
 20
-0.2454163723610288
 10
1.079726477141712
 20
-0.2354250100563435
  0
LWPOLYLINE
  5
7DE1B343D9E06EF
330
7DE1B343D9E07D3
100
AcDbEntity
  8
TEXT
100
AcDbPolyline
 90
        2
 70
     0
 43
0.0001332181640625
 10
1.139674650969836
 20
-0.3320081790016554
 10
1.079726477141712
 20
-0.2720600051735298
  0
LWPOLYLINE
  5
7DE1B343D9E06F3
330
7DE1B343D9E07D3
100
AcDbEntity
  8
TEXT
100
AcDbPolyline
 90
        3
 70
     0
 43
0.0006660908203125
 10
1.053082844329211
 20
-0.3320081790016554
 10
1.139674650969836
 20
-0.3320081790016554
 10
1.139674650969836
 20
-0.2454163723610288
  0
LWPOLYLINE
  5
7DE1B343D9E06F8
330
7DE1B343D9E07D3
100
AcDbEntity
  8
TEXT
100
AcDbPolyline
 90
        3
 70
     0
 43
0.0006660908203125
 10
1.053082844329211
 20
-0.3586518118141564
 10
1.166318283782337
 20
-0.3586518118141564
 10
1.166318283782337
 20
-0.2454163723610288
  0
LWPOLYLINE
  5
7DE1B343D9E06FD
330
7DE1B343D9E07D3
100
AcDbEntity
  8
TEXT
100
AcDbPolyline
 90
        5
 70
     0
 43
0.0001332181640625
 10
1.02310875741515
 20
-0.2853818215797803
 10
1.02310875741515
 20
-0.2720600051735298
 10
0.9864737622979621
 20
-0.2720600051735298
 10
0.9864737622979621
 20
-0.2354250100563435
 10
0.9731519458917116
 20
-0.2354250100563435
  0
LWPOLYLINE
  5
7DE1B343D9E0704
330
7DE1B343D9E07D3
100
AcDbEntity
  8
TEXT
100
AcDbPolyline
 90
        2
 70
     0
 43
0.0006660908203125
 10
1.013117395110459
 20
-0.3320081790016554
 10
1.013117395110459
 20
-0.3586518118141564
  0
LWPOLYLINE
  5
7DE1B343D9E0708
330
7DE1B343D9E07D3
100
AcDbEntity
  8
TEXT
100
AcDbPolyline
 90
        2
 70
     0
 43
0.0001332181640625
 10
1.013117395110459
 20
-0.3320081790016554
 10
1.02310875741515
 20
-0.2720600051735298
  0
LWPOLYLINE
  5
7DE1B343D9E070C
330
7DE1B343D9E07D3
100
AcDbEntity
  8
TEXT
100
AcDbPolyline
 90
        2
 70
     0
 43
0.0001332181640625
 10
1.013117395110459
 20
-0.3586518118141564
 10
1.02310875741515
 20
-0.2853818215797803
  0
LWPOLYLINE
  5
7DE1B343D9E0710
330
7DE1B343D9E07D3
100
AcDbEntity
  8
TEXT
100
AcDbPolyline
 90
        5
 70
     0
 43
0.0001332181640625
 10
0.9731519458917116
 20
-0.2154422854469695
 10
0.9864737622979603
 20
-0.2154422854469695
 10
0.9864737622979603
 20
-0.1788072903297797
 10
1.02310875741515
 20
-0.1788072903297797
 10
1.02310875741515
 20
-0.1654854739235327
  0
LWPOLYLINE
  5
7DE1B343D9E0717
330
7DE1B343D9E07D3
100
AcDbEntity
  8
TEXT
100
AcDbPolyline
 90
        5
 70
     0
 43
0.0001332181640625
 10
1.043091482024522
 20
-0.1654854739235327
 10
1.043091482024522
 20
-0.1788072903297797
 10
1.079726477141712
 20
-0.1788072903297797
 10
1.079726477141712
 20
-0.2154422854469695
 10
1.093048293547961
 20
-0.2154422854469695
  0
LWPOLYLINE
  5
7DE1B343D9E071E
330
7DE1B343D9E07D3
100
AcDbEntity
  8
TEXT
100
AcDbPolyline
 90
        2
 70
     0
 43
0.0001332181640625
 10
1.053082844329211
 20
-0.3320081790016554
 10
1.043091482024522
 20
-0.2720600051735298
  0
LWPOLYLINE
  5
7DE1B343D9E0722
330
7DE1B343D9E07D3
100
AcDbEntity
  8
TEXT
100
AcDbPolyline
 90
        2
 70
     0
 43
0.0001332181640625
 10
1.043091482024522
 20
-0.2853818215797803
 10
1.053082844329211
 20
-0.3586518118141564
  0
LWPOLYLINE
  5
7DE1B343D9E0726
330
7DE1B343D9E07D3
100
AcDbEntity
  8
TEXT
100
AcDbPolyline
 90
        2
 70
     0
 43
0.0006660908203125
 10
1.053082844329211
 20
-0.3320081790016554
 10
1.053082844329211
 20
-0.3586518118141564
  0
LWPOLYLINE
  5
7DE1B343D9E072A
330
7DE1B343D9E07D3
100
AcDbEntity
  8
TEXT
100
AcDbPolyline
 90
        5
 70
     0
 43
0.0001332181640625
 10
1.093048293547961
 20
-0.2354250100563435
 10
1.079726477141712
 20
-0.2354250100563435
 10
1.079726477141712
 20
-0.2720600051735298
 10
1.043091482024522
 20
-0.2720600051735298
 10
1.043091482024522
 20
-0.2853818215797803
  0
LWPOLYLINE
  5
7DE1B343D9E0731
330
7DE1B343D9E07D3
100
AcDbEntity
  8
TEXT
100
AcDbPolyline
 90
        2
 70
     0
 43
0.0006660908203125
 10
1.139674650969836
 20
-0.2054509231422807
 10
1.166318283782337
 20
-0.2054509231422807
  0
LWPOLYLINE
  5
7DE1B343D9E0735
330
7DE1B343D9E07D3
100
AcDbEntity
  8
TEXT
100
AcDbPolyline
 90
        2
 70
     0
 43
0.0006660908203125
 10
1.139674650969836
 20
-0.2454163723610288
 10
1.166318283782337
 20
-0.2454163723610288
  0
LINE
  5
7DE1B343D9E0739
330
7DE1B343D9E07D3
100
AcDbEntity
  8
TEXT
100
AcDbLine
 10
1.436432420630362
 20
-0.1564921783459221
 30
0.0
 11
1.603338074659333
 21
-0.1564921783459221
 31
0.0
  0
LINE
  5
7DE1B343D9E073A
330
7DE1B343D9E07D3
100
AcDbEntity
  8
TEXT
100
AcDbLine
 10
1.502032556874663
 20
-0.19229689995655
 30
0.0
 11
1.436432420630362
 21
-0.19229689995655
 31
0.0
  0
LINE
  5
7DE1B343D9E073B
330
7DE1B343D9E07D3
100
AcDbEntity
  8
TEXT
100
AcDbLine
 10
1.34910763106961
 20
-0.3586885166776677
 30
0.0
 11
1.502032556874663
 21
-0.3586885166776677
 31
0.0
  0
LINE
  5
7DE1B343D9E073C
330
7DE1B343D9E07D3
100
AcDbEntity
  8
TEXT
100
AcDbLine
 10
1.506972930780942
 20
-0.2903315103442283
 30
0.0
 11
1.349107631069608
 21
-0.2903315103442283
 31
0.0
  0
LINE
  5
7DE1B343D9E073D
330
7DE1B343D9E07D3
100
AcDbEntity
  8
TEXT
100
AcDbLine
 10
1.431195090516113
 20
-0.2563904025821637
 30
0.0
 11
1.506972930780942
 21
-0.2563904025821637
 31
0.0
  0
ARC
  5
7DE1B343D9E073E
330
7DE1B343D9E07D3
100
AcDbEntity
  8
TEXT
100
AcDbCircle
 10
1.436432420630362
 20
-0.1743945391512343
 30
0.0
 40
0.017902360805315
100
AcDbArc
 50
90.0
 51
270.0
  0
LINE
  5
7DE1B343D9E073F
330
7DE1B343D9E07D3
100
AcDbEntity
  8
TEXT
100
AcDbLine
 10
1.349107631069608
 20
-0.2903315103442283
 30
0.0
 11
1.34910763106961
 21
-0.3586885166776677
 31
0.0
  0
LINE
  5
7DE1B343D9E0740
330
7DE1B343D9E07D3
100
AcDbEntity
  8
TEXT
100
AcDbLine
 10
1.603338074659333
 20
-0.1564921783459221
 30
0.0
 11
1.603338074659333
 21
-0.2988961253396178
 31
0.0
  0
ARC
  5
7DE1B343D9E0741
330
7DE1B343D9E07D3
100
AcDbEntity
  8
TEXT
100
AcDbCircle
 10
1.502032556874663
 20
-0.2754927083171106
 30
0.0
 40
0.0831958083605586
100
AcDbArc
 50
270.0
 51
90.0
  0
ARC
  5
7DE1B343D9E0742
330
7DE1B343D9E07D3
100
AcDbEntity
  8
TEXT
100
AcDbCircle
 10
1.506972930780943
 20
-0.2733609564631942
 30
0.0
 40
0.0169705538810321
100
AcDbArc
 50
270.0
 51
90.0
  0
LWPOLYLINE
  5
7DE1B343D9E0743
330
7DE1B343D9E07D3
100
AcDbEntity
  8
TEXT
100
AcDbPolyline
 90
        2
 70
     0
 43
0.0006660908203125
 10
1.013117395110459
 20
-0.1188591165016541
 10
1.013117395110459
 20
-0.0922154836891531
  0
LWPOLYLINE
  5
7DE1B343D9E0747
330
7DE1B343D9E07D3
100
AcDbEntity
  8
TEXT
100
AcDbPolyline
 90
        2
 70
     0
 43
0.0006660908203125
 10
1.053082844329211
 20
-0.1188591165016541
 10
1.053082844329211
 20
-0.0922154836891531
  0
LINE
  5
7DE1B343D9E074B
330
7DE1B343D9E07D3
100
AcDbEntity
  8
TEXT
100
AcDbLine
 10
1.606926843414626
 20
-0.0922154836891567
 30
0.0
 11
1.431195090516113
 21
-0.0922154836891567
 31
0.0
  0
LINE
  5
7DE1B343D9E074C
330
7DE1B343D9E07D3
100
AcDbEntity
  8
TEXT
100
AcDbLine
 10
1.606926843414626
 20
-0.0578275660950185
 30
0.0
 11
1.606926843414626
 21
-0.0922154836891567
 31
0.0
  0
LINE
  5
7DE1B343D9E074D
330
7DE1B343D9E07D3
100
AcDbEntity
  8
TEXT
100
AcDbLine
 10
1.797398735434478
 20
-0.1930874798022772
 30
0.0
 11
1.73876841440254
 21
-0.0922154836891567
 31
0.0
  0
LINE
  5
7DE1B343D9E074E
330
7DE1B343D9E07D3
100
AcDbEntity
  8
TEXT
100
AcDbLine
 10
1.856147298240344
 20
-0.0922154836891567
 30
0.0
 11
1.797398735434478
 21
-0.1930874798022772
 31
0.0
  0
LINE
  5
7DE1B343D9E074F
330
7DE1B343D9E07D3
100
AcDbEntity
  8
TEXT
100
AcDbLine
 10
1.953077923600085
 20
-0.2763006785746684
 30
0.0
 11
1.953077923600085
 21
-0.0242040059503461
 31
0.0
  0
LINE
  5
7DE1B343D9E0750
330
7DE1B343D9E07D3
100
AcDbEntity
  8
TEXT
100
AcDbLine
 10
1.985389777737745
 20
-0.0922154836891567
 30
0.0
 11
1.985389777737745
 21
-0.2930796904215649
 31
0.0
  0
LINE
  5
7DE1B343D9E0751
330
7DE1B343D9E07D3
100
AcDbEntity
  8
TEXT
100
AcDbLine
 10
1.985389777737745
 20
-0.2930796904215649
 30
0.0
 11
1.968396140853144
 21
-0.2930796904215649
 31
0.0
  0
LINE
  5
7DE1B343D9E0752
330
7DE1B343D9E07D3
100
AcDbEntity
  8
TEXT
100
AcDbLine
 10
1.95421749709628
 20
-0.3586885166776677
 30
0.0
 11
2.052220830795714
 21
-0.3586885166776677
 31
0.0
  0
LINE
  5
7DE1B343D9E0753
330
7DE1B343D9E07D3
100
AcDbEntity
  8
TEXT
100
AcDbLine
 10
1.787798498437524
 20
-0.3387300105726547
 30
0.0
 11
1.885098204530968
 21
-0.1743797996373866
 31
0.0
  0
ARC
  5
7DE1B343D9E0754
330
7DE1B343D9E07D3
100
AcDbEntity
  8
TEXT
100
AcDbCircle
 10
1.75375493852531
 20
-0.3191407944039719
 30
0.0
 40
0.0392772371940762
100
AcDbArc
 50
270.1604552698595
 51
330.0831797321295
  0
LINE
  5
7DE1B343D9E0755
330
7DE1B343D9E07D3
100
AcDbEntity
  8
TEXT
100
AcDbLine
 10
1.657224682139438
 20
-0.3586885166776677
 30
0.0
 11
1.753864933214433
 21
-0.3584178775793854
 31
0.0
  0
LWPOLYLINE
  5
7DE1B343D9E0756
330
7DE1B343D9E07D3
100
AcDbEntity
  8
TEXT
100
AcDbPolyline
 90
        6
 70
     1
 43
0.0
 10
1.699748485714588
 20
-0.1564921783459221
 10
1.66943189149438
 20
-0.1564921783459221
 10
1.66943189149438
 20
-0.2796031764008164
 42
0.407328721240804
 10
1.680975542655856
 20
-0.2914220910772025
 10
1.741597241700587
 20
-0.2914220910772025
 10
1.759062582107905
 20
-0.2586098620337234
  0
LINE
  5
7DE1B343D9E075E
330
7DE1B343D9E07D3
100
AcDbEntity
  8
TEXT
100
AcDbLine
 10
1.885098204530968
 20
-0.1743797996373866
 30
0.0
 11
1.885098204530968
 21
-0.3071371744627429
 31
0.0
  0
ARC
  5
7DE1B343D9E075F
330
7DE1B343D9E07D3
100
AcDbEntity
  8
TEXT
100
AcDbCircle
 10
1.968396140853142
 20
-0.2776978841781394
 30
0.0
 40
0.0153818062434269
100
AcDbArc
 50
174.7883570302258
 51
270.0
  0
LWPOLYLINE
  5
7DE1B343D9E0760
330
7DE1B343D9E07D3
100
AcDbEntity
  8
TEXT
100
AcDbPolyline
 90
        2
 70
     0
 43
0.0
 10
1.885098204530967
 20
-0.3071371744627394
 42
0.3318488747599744
 10
1.95421749709628
 20
-0.3586885166776677
 42
-6.868794160588311
  0
LINE
  5
7DE1B343D9E0764
330
7DE1B343D9E07D3
100
AcDbEntity
  8
TEXT
100
AcDbLine
 10
2.109609899784975
 20
-0.3586885166776677
 30
0.0
 11
2.176667946566815
 21
-0.3586885166776677
 31
0.0
  0
LINE
  5
7DE1B343D9E0765
330
7DE1B343D9E07D3
100
AcDbEntity
  8
TEXT
100
AcDbLine
 10
2.109609899784975
 20
-0.164045967512032
 30
0.0
 11
2.109609899784975
 21
-0.3586885166776677
 31
0.0
  0
LINE
  5
7DE1B343D9E0766
330
7DE1B343D9E07D3
100
AcDbEntity
  8
TEXT
100
AcDbLine
 10
2.052220830795714
 20
-0.1564921783459221
 30
0.0
 11
2.102056110618862
 21
-0.1564921783459221
 31
0.0
  0
LINE
  5
7DE1B343D9E0767
330
7DE1B343D9E07D3
100
AcDbEntity
  8
TEXT
100
AcDbLine
 10
2.052220830795714
 20
-0.3586885166776677
 30
0.0
 11
2.052220830795714
 21
-0.1564921783459221
 31
0.0
  0
LWPOLYLINE
  5
7DE1B343D9E0768
330
7DE1B343D9E07D3
100
AcDbEntity
  8
TEXT
100
AcDbPolyline
 90
        2
 70
     0
 43
0.0
 10
2.10205611061886
 20
-0.1564921783459221
 42
-0.4142135623731017
 10
2.109609899784973
 20
-0.164045967512032
 42
-0.9999999999999998
  0
LINE
  5
7DE1B343D9E076C
330
7DE1B343D9E07D3
100
AcDbEntity
  8
TEXT
100
AcDbLine
 10
2.307866111396545
 20
-0.1564921783459221
 30
0.0
 11
2.307866111396545
 21
-0.2315445844201287
 31
0.0
  0
LINE
  5
7DE1B343D9E076D
330
7DE1B343D9E07D3
100
AcDbEntity
  8
TEXT
100
AcDbLine
 10
2.176667946566815
 20
-0.1564921783459221
 30
0.0
 11
2.230801543487765
 21
-0.1564921783459221
 31
0.0
  0
LINE
  5
7DE1B343D9E076E
330
7DE1B343D9E07D3
100
AcDbEntity
  8
TEXT
100
AcDbLine
 10
2.176667946566815
 20
-0.3586885166776677
 30
0.0
 11
2.176667946566815
 21
-0.1564921783459221
 31
0.0
  0
LWPOLYLINE
  5
7DE1B343D9E076F
330
7DE1B343D9E07D3
100
AcDbEntity
  8
TEXT
100
AcDbPolyline
 90
        2
 70
     0
 43
0.0
 10
2.230801543487764
 20
-0.1564921783459221
 42
-0.4142135623731017
 10
2.238355332653877
 20
-0.164045967512032
 42
-0.9999999999999998
  0
LWPOLYLINE
  5
7DE1B343D9E0773
330
7DE1B343D9E07D3
100
AcDbEntity
  8
TEXT
100
AcDbPolyline
 90
        4
 70
     0
 43
0.0
 10
2.238355332653877
 20
-0.164045967512032
 10
2.238355332653877
 20
-0.3586885166776677
 10
2.306833615941735
 20
-0.3586885166776677
 10
2.306833615941735
 20
-0.3151975717272295
 42
-1.714843617202739
  0
LINE
  5
7DE1B343D9E0779
330
7DE1B343D9E07D3
100
AcDbEntity
  8
TEXT
100
AcDbLine
 10
1.666969448258633
 20
-0.0922154836891567
 30
0.0
 11
1.666969448258633
 21
-0.0578275660950185
 31
0.0
  0
LINE
  5
7DE1B343D9E077A
330
7DE1B343D9E07D3
100
AcDbEntity
  8
TEXT
100
AcDbLine
 10
1.73876841440254
 20
-0.0922154836891567
 30
0.0
 11
1.666969448258633
 21
-0.0922154836891567
 31
0.0
  0
LINE
  5
7DE1B343D9E077B
330
7DE1B343D9E07D3
100
AcDbEntity
  8
TEXT
100
AcDbLine
 10
1.88626921103372
 20
-0.0922154836891567
 30
0.0
 11
1.856147298240344
 21
-0.0922154836891567
 31
0.0
  0
LINE
  5
7DE1B343D9E077C
330
7DE1B343D9E07D3
100
AcDbEntity
  8
TEXT
100
AcDbLine
 10
1.88626921103372
 20
-0.0242040059503461
 30
0.0
 11
1.88626921103372
 21
-0.0922154836891567
 31
0.0
  0
LINE
  5
7DE1B343D9E077D
330
7DE1B343D9E07D3
100
AcDbEntity
  8
TEXT
100
AcDbLine
 10
1.953077923600085
 20
-0.0242040059503461
 30
0.0
 11
1.88626921103372
 21
-0.0242040059503461
 31
0.0
  0
LWPOLYLINE
  5
7DE1B343D9E077E
330
7DE1B343D9E07D3
100
AcDbEntity
  8
TEXT
100
AcDbPolyline
 90
        3
 70
     0
 43
0.0
 10
2.273489683198087
 20
-0.0922154836891531
 10
2.155189524382043
 20
-0.0922154836891531
 10
2.155189524382043
 20
-0.119382980450049
 42
-1.960274751411753
  0
LINE
  5
7DE1B343D9E0783
330
7DE1B343D9E07D3
100
AcDbEntity
  8
TEXT
100
AcDbLine
 10
2.119407833668881
 20
-0.0922154836891567
 30
0.0
 11
1.985389777737745
 21
-0.0922154836891567
 31
0.0
  0
LWPOLYLINE
  5
7DE1B343D9E0784
330
7DE1B343D9E07D3
100
AcDbEntity
  8
TEXT
100
AcDbPolyline
 90
        2
 70
     0
 43
0.0
 10
2.119407833668881
 20
-0.0922154836891531
 42
-0.3328679258950098
 10
2.155189524382043
 20
-0.119382980450049
 42
6.772930709997214
  0
LINE
  5
7DE1B343D9E0788
330
7DE1B343D9E07D3
100
AcDbEntity
  8
TEXT
100
AcDbLine
 10
2.309271373911254
 20
-0.0922154836891567
 30
0.0
 11
2.309271373911254
 21
-0.1205380294588005
 31
0.0
  0
LWPOLYLINE
  5
7DE1B343D9E0789
330
7DE1B343D9E07D3
100
AcDbEntity
  8
TEXT
100
AcDbPolyline
 90
        2
 70
     0
 43
0.0
 10
2.273489683198087
 20
-0.0922154836891531
 42
-0.3277054968067132
 10
2.309271373911252
 20
-0.120538029458797
 42
6.667889725900311
  0
LINE
  5
7DE1B343D9E078D
330
7DE1B343D9E07D3
100
AcDbEntity
  8
TEXT
100
AcDbLine
 10
2.523063222003354
 20
-0.197427462242584
 30
0.0
 11
2.479312450821452
 21
-0.1151771862464388
 31
0.0
  0
LINE
  5
7DE1B343D9E078E
330
7DE1B343D9E07D3
100
AcDbEntity
  8
TEXT
100
AcDbLine
 10
2.523063222003354
 20
-0.0922154836891567
 30
0.0
 11
2.523063222003354
 21
-0.197427462242584
 31
0.0
  0
LINE
  5
7DE1B343D9E078F
330
7DE1B343D9E07D3
100
AcDbEntity
  8
TEXT
100
AcDbLine
 10
2.750746960941723
 20
-0.1680808101006947
 30
0.0
 11
2.750746960941723
 21
-0.026751277921556
 31
0.0
  0
LINE
  5
7DE1B343D9E0790
330
7DE1B343D9E07D3
100
AcDbEntity
  8
TEXT
100
AcDbLine
 10
2.797845119497707
 20
-0.0922154836891567
 30
0.0
 11
2.750746960941723
 21
-0.1680808101006947
 31
0.0
  0
LINE
  5
7DE1B343D9E0791
330
7DE1B343D9E07D3
100
AcDbEntity
  8
TEXT
100
AcDbLine
 10
2.80827983626163
 20
-0.2021087266301302
 30
0.0
 11
2.872836952227336
 21
-0.0922154836891567
 31
0.0
  0
LINE
  5
7DE1B343D9E0792
330
7DE1B343D9E07D3
100
AcDbEntity
  8
TEXT
100
AcDbLine
 10
2.68691196971895
 20
-0.3586885166776677
 30
0.0
 11
2.75129015403757
 21
-0.3586885166776677
 31
0.0
  0
LWPOLYLINE
  5
7DE1B343D9E0793
330
7DE1B343D9E07D3
100
AcDbEntity
  8
TEXT
100
AcDbPolyline
 90
        2
 70
     0
 43
0.0
 10
2.527002899308392
 20
-0.3151975717272295
 42
-0.2901071551932486
 10
2.483926966440747
 20
-0.3586885166776677
 42
-5.328517124445184
  0
ARC
  5
7DE1B343D9E0797
330
7DE1B343D9E07D3
100
AcDbEntity
  8
TEXT
100
AcDbCircle
 10
2.415072384783833
 20
-0.1848515533459194
 30
0.0
 40
0.028359375
100
AcDbArc
 50
25.78218179591245
 51
90.0
  0
LINE
  5
7DE1B343D9E0798
330
7DE1B343D9E07D3
100
AcDbEntity
  8
TEXT
100
AcDbLine
 10
2.450873460087956
 20
-0.1937671518080544
 30
0.0
 11
2.440608699674391
 21
-0.1725166122353601
 31
0.0
  0
LINE
  5
7DE1B343D9E0799
330
7DE1B343D9E07D3
100
AcDbEntity
  8
TEXT
100
AcDbLine
 10
2.368585470304573
 20
-0.1937671518080544
 30
0.0
 11
2.450873460087956
 21
-0.1937671518080544
 31
0.0
  0
LWPOLYLINE
  5
7DE1B343D9E079A
330
7DE1B343D9E07D3
100
AcDbEntity
  8
TEXT
100
AcDbPolyline
 90
        4
 70
     1
 43
0.0
 10
2.463804501370855
 20
-0.2557245386936424
 10
2.375144182710996
 20
-0.2557245386936424
 42
0.9999999999999998
 10
2.375144182710996
 20
-0.2981230791975031
 10
2.463804501370855
 20
-0.2981230791975031
 42
1.0
  0
LWPOLYLINE
  5
7DE1B343D9E07A0
330
7DE1B343D9E07D3
100
AcDbEntity
  8
TEXT
100
AcDbPolyline
 90
        2
 70
     0
 43
0.0
 10
2.349909548809371
 20
-0.3586885166776677
 10
2.483926966440747
 20
-0.3586885166776677
 42
0.9999999999999998
  0
LINE
  5
7DE1B343D9E07A4
330
7DE1B343D9E07D3
100
AcDbEntity
  8
TEXT
100
AcDbLine
 10
2.610263988426387
 20
-0.1564921783459221
 30
0.0
 11
2.686911969718944
 21
-0.1564921783459221
 31
0.0
  0
LINE
  5
7DE1B343D9E07A5
330
7DE1B343D9E07D3
100
AcDbEntity
  8
TEXT
100
AcDbLine
 10
2.686911969718944
 20
-0.1564921783459221
 30
0.0
 11
2.68691196971895
 21
-0.3586885166776677
 31
0.0
  0
ARC
  5
7DE1B343D9E07A6
330
7DE1B343D9E07D3
100
AcDbEntity
  8
TEXT
100
AcDbCircle
 10
2.610263988426385
 20
-0.1813980536285848
 30
0.0
 40
0.0249058752826653
100
AcDbArc
 50
89.99971217465335
 51
179.9999999999985
  0
LINE
  5
7DE1B343D9E07A7
330
7DE1B343D9E07D3
100
AcDbEntity
  8
TEXT
100
AcDbLine
 10
2.585358113143727
 20
-0.3586885166776677
 30
0.0
 11
2.585358113143722
 21
-0.1813980112461992
 31
0.0
  0
LWPOLYLINE
  5
7DE1B343D9E07A8
330
7DE1B343D9E07D3
100
AcDbEntity
  8
TEXT
100
AcDbPolyline
 90
        2
 70
     0
 43
0.0
 10
2.527002899308392
 20
-0.3586885166776677
 10
2.585358113143726
 20
-0.3586885166776677
  0
LWPOLYLINE
  5
7DE1B343D9E07AC
330
7DE1B343D9E07D3
100
AcDbEntity
  8
TEXT
100
AcDbPolyline
 90
        2
 70
     0
 43
0.0
 10
2.527002899308392
 20
-0.3151975717272295
 10
2.527002899308392
 20
-0.3586885166776677
  0
LINE
  5
7DE1B343D9E07B0
330
7DE1B343D9E07D3
100
AcDbEntity
  8
TEXT
100
AcDbLine
 10
2.903772059625241
 20
-0.3586885166776677
 30
0.0
 11
2.80827983626163
 21
-0.2021087266301302
 31
0.0
  0
LINE
  5
7DE1B343D9E07B1
330
7DE1B343D9E07D3
100
AcDbEntity
  8
TEXT
100
AcDbLine
 10
2.827193687249035
 20
-0.3586885166776677
 30
0.0
 11
2.903772059625241
 21
-0.3586885166776677
 31
0.0
  0
LINE
  5
7DE1B343D9E07B2
330
7DE1B343D9E07D3
100
AcDbEntity
  8
TEXT
100
AcDbLine
 10
2.75129015403757
 20
-0.2271089482014874
 30
0.0
 11
2.827193687249035
 21
-0.3586885166776677
 31
0.0
  0
LINE
  5
7DE1B343D9E07B3
330
7DE1B343D9E07D3
100
AcDbEntity
  8
TEXT
100
AcDbLine
 10
2.75129015403757
 20
-0.3586885166776677
 30
0.0
 11
2.75129015403757
 21
-0.2271089482014874
 31
0.0
  0
LINE
  5
7DE1B343D9E07B4
330
7DE1B343D9E07D3
100
AcDbEntity
  8
TEXT
100
AcDbLine
 10
2.750746960941723
 20
-0.026751277921556
 30
0.0
 11
2.68243208239245
 21
-0.026751277921556
 31
0.0
  0
ARC
  5
7DE1B343D9E07B5
330
7DE1B343D9E07D3
100
AcDbEntity
  8
TEXT
100
AcDbCircle
 10
2.442076343351244
 20
-0.133799050810059
 30
0.0
 40
0.0416329381542859
100
AcDbArc
 50
26.56974201007528
 51
87.20939649401342
  0
LINE
  5
7DE1B343D9E07B6
330
7DE1B343D9E07D3
100
AcDbEntity
  8
TEXT
100
AcDbLine
 10
2.586960128302855
 20
-0.0922154836891567
 30
0.0
 11
2.523063222003354
 21
-0.0922154836891567
 31
0.0
  0
LINE
  5
7DE1B343D9E07B7
330
7DE1B343D9E07D3
100
AcDbEntity
  8
TEXT
100
AcDbLine
 10
2.586960128302855
 20
-0.1197631335500313
 30
0.0
 11
2.586960128302855
 21
-0.0922154836891567
 31
0.0
  0
ARC
  5
7DE1B343D9E07B8
330
7DE1B343D9E07D3
100
AcDbEntity
  8
TEXT
100
AcDbCircle
 10
2.618152945365963
 20
-0.1234612109714215
 30
0.0
 40
0.0314112657011332
100
AcDbArc
 50
95.88484768694724
 51
173.2388340632136
  0
LINE
  5
7DE1B343D9E07B9
330
7DE1B343D9E07D3
100
AcDbEntity
  8
TEXT
100
AcDbLine
 10
2.682432082392444
 20
-0.0922154836891567
 30
0.0
 11
2.614932364742928
 21
-0.0922154836891567
 31
0.0
  0
LINE
  5
7DE1B343D9E07BA
330
7DE1B343D9E07D3
100
AcDbEntity
  8
TEXT
100
AcDbLine
 10
2.68243208239245
 20
-0.026751277921556
 30
0.0
 11
2.682432082392444
 21
-0.0922154836891567
 31
0.0
  0
LINE
  5
7DE1B343D9E07BB
330
7DE1B343D9E07D3
100
AcDbEntity
  8
TEXT
100
AcDbLine
 10
2.872836952227336
 20
-0.0922154836891567
 30
0.0
 11
2.797845119497709
 21
-0.0922154836891567
 31
0.0
  0
ENDSEC
  0
SECTION
  2
OBJECTS
  0
DICTIONARY
  5
7DE1B343D9E07C7
330
0
100
AcDbDictionary
  3
ACAD_GROUP
350
7DE1B343D9E07C8
  3
ACAD_LAYOUT
350
7DE1B343D9E07ED
  3
ACAD_MLINESTYLE
350
7DE1B343D9E07C9
  3
ACAD_PLOTSETTINGS
350
7DE1B343D9E07EE
  3
ACAD_PLOTSTYLENAME
350
7DE1B343D9E07EB
  3
ACDBHEADERROUNDTRIPXREC
350
7DE1B343D9E07F8
  3
ACDBVARIABLEDICTIONARY
350
7DE1B343D9E07F5
  0
DICTIONARY
  5
7DE1B343D9E081A
330
7DE1B343D9E07D3
100
AcDbDictionary
280
     1
  3
ACAD_LAYOUTSELFREF
360
7DE1B343D9E081B
  0
DICTIONARY
  5
7DE1B343D9E0818
330
7DE1B343D9E07D0
100
AcDbDictionary
280
     1
  3
ACAD_LAYOUTSELFREF
360
7DE1B343D9E0819
  0
DICTIONARY
  5
7DE1B343D9E07C8
102
{ACAD_REACTORS
330
7DE1B343D9E07C7
102
}
330
7DE1B343D9E07C7
100
AcDbDictionary
  0
DICTIONARY
  5
7DE1B343D9E07ED
102
{ACAD_REACTORS
330
7DE1B343D9E07C7
102
}
330
7DE1B343D9E07C7
100
AcDbDictionary
  0
DICTIONARY
  5
7DE1B343D9E07C9
102
{ACAD_REACTORS
330
7DE1B343D9E07C7
102
}
330
7DE1B343D9E07C7
100
AcDbDictionary
  3
STANDARD
350
7DE1B343D9E07D6
  0
DICTIONARY
  5
7DE1B343D9E07EE
102
{ACAD_REACTORS
330
7DE1B343D9E07C7
102
}
330
7DE1B343D9E07C7
100
AcDbDictionary
  0
ACDBDICTIONARYWDFLT
  5
7DE1B343D9E07EB
102
{ACAD_REACTORS
330
7DE1B343D9E07C7
102
}
330
7DE1B343D9E07C7
100
AcDbDictionary
281
     1
  3
Normal
350
7DE1B343D9E07EC
100
AcDbDictionaryWithDefault
340
7DE1B343D9E07EC
  0
DICTIONARY
  5
7DE1B343D9E07F8
102
{ACAD_REACTORS
330
7DE1B343D9E07C7
102
}
330
7DE1B343D9E07C7
100
AcDbDictionary
  3
CEPSNTYPE
350
7DE1B343D9E0802
  3
FINGERPRINTGUID
350
7DE1B343D9E0803
  3
HYPERLINKBASE
350
7DE1B343D9E07FB
  3
INSUNITS
350
7DE1B343D9E0801
  3
LAYOUTDICT
350
7DE1B343D9E07FD
  3
LWETCUNION
350
7DE1B343D9E0800
  3
PLOTSETDICT
350
7DE1B343D9E07FE
  3
PLOTSTYLNAMDICT
350
7DE1B343D9E07FF
  3
PSVPSCALE
350
7DE1B343D9E0805
  3
PUCSBASE
350
7DE1B343D9E0808
  3
PUCSORGBACK
350
7DE1B343D9E080E
  3
PUCSORGBOTTOM
350
7DE1B343D9E080A
  3
PUCSORGFRONT
350
7DE1B343D9E080D
  3
PUCSORGLEFT
350
7DE1B343D9E080B
  3
PUCSORGRIGHT
350
7DE1B343D9E080C
  3
PUCSORGTOP
350
7DE1B343D9E0809
  3
PUCSORTHOREF
350
7DE1B343D9E0806
  3
PUCSORTHOVIEW
350
7DE1B343D9E0807
  3
STYLESHEET
350
7DE1B343D9E07FC
  3
TSTACKALIGN
350
7DE1B343D9E07F9
  3
TSTACKSIZE
350
7DE1B343D9E07FA
  3
UCSBASE
350
7DE1B343D9E0811
  3
UCSORGBACK
350
7DE1B343D9E0817
  3
UCSORGBOTTOM
350
7DE1B343D9E0813
  3
UCSORGFRONT
350
7DE1B343D9E0816
  3
UCSORGLEFT
350
7DE1B343D9E0814
  3
UCSORGRIGHT
350
7DE1B343D9E0815
  3
UCSORGTOP
350
7DE1B343D9E0812
  3
UCSORTHOREF
350
7DE1B343D9E080F
  3
UCSORTHOVIEW
350
7DE1B343D9E0810
  3
VERSIONGUID
350
7DE1B343D9E0804
  0
DICTIONARY
  5
7DE1B343D9E07F5
102
{ACAD_REACTORS
330
7DE1B343D9E07C7
102
}
330
7DE1B343D9E07C7
100
AcDbDictionary
  3
DIMASSOC
350
7DE1B343D9E07F6
  0
XRECORD
  5
7DE1B343D9E081B
102
{ACAD_REACTORS
330
7DE1B343D9E081A
102
}
330
7DE1B343D9E081A
100
AcDbXrecord
340
7DE1B343D9E07D3
  0
XRECORD
  5
7DE1B343D9E0819
102
{ACAD_REACTORS
330
7DE1B343D9E0818
102
}
330
7DE1B343D9E0818
100
AcDbXrecord
340
7DE1B343D9E07D0
  0
MLINESTYLE
  5
7DE1B343D9E07D6
102
{ACAD_REACTORS
330
7DE1B343D9E07C9
102
}
330
7DE1B343D9E07C9
100
AcDbMlineStyle
  2
STANDARD
 70
     0
  3

 62
     0
 51
90.0
 52
90.0
 71
     2
 49
0.5
 62
   256
  6
BYLAYER
 49
-0.5
 62
   256
  6
BYLAYER
  0
ACDBPLACEHOLDER
  5
7DE1B343D9E07EC
102
{ACAD_REACTORS
330
7DE1B343D9E07EB
102
}
330
7DE1B343D9E07EB
100
AcDbPlaceHolder
280
     0
  0
XRECORD
  5
7DE1B343D9E0802
102
{ACAD_REACTORS
330
7DE1B343D9E07F8
102
}
330
7DE1B343D9E07F8
100
AcDbXrecord
 90
        0
  0
XRECORD
  5
7DE1B343D9E0803
102
{ACAD_REACTORS
330
7DE1B343D9E07F8
102
}
330
7DE1B343D9E07F8
100
AcDbXrecord
  1
{97EBFCA0-8DB6-11D6-88E6-0090279574E7}
  0
XRECORD
  5
7DE1B343D9E07FB
102
{ACAD_REACTORS
330
7DE1B343D9E07F8
102
}
330
7DE1B343D9E07F8
100
AcDbXrecord
  1

  0
XRECORD
  5
7DE1B343D9E0801
102
{ACAD_REACTORS
330
7DE1B343D9E07F8
102
}
330
7DE1B343D9E07F8
100
AcDbXrecord
 90
        0
  0
XRECORD
  5
7DE1B343D9E07FD
102
{ACAD_REACTORS
330
7DE1B343D9E07F8
102
}
330
7DE1B343D9E07F8
100
AcDbXrecord
340
7DE1B343D9E07ED
  0
XRECORD
  5
7DE1B343D9E0800
102
{ACAD_REACTORS
330
7DE1B343D9E07F8
102
}
330
7DE1B343D9E07F8
100
AcDbXrecord
 90
    14877
  0
XRECORD
  5
7DE1B343D9E07FE
102
{ACAD_REACTORS
330
7DE1B343D9E07F8
102
}
330
7DE1B343D9E07F8
100
AcDbXrecord
340
7DE1B343D9E07EE
  0
XRECORD
  5
7DE1B343D9E07FF
102
{ACAD_REACTORS
330
7DE1B343D9E07F8
102
}
330
7DE1B343D9E07F8
100
AcDbXrecord
340
7DE1B343D9E07EB
  0
XRECORD
  5
7DE1B343D9E0805
102
{ACAD_REACTORS
330
7DE1B343D9E07F8
102
}
330
7DE1B343D9E07F8
100
AcDbXrecord
 40
0.0
  0
XRECORD
  5
7DE1B343D9E0808
102
{ACAD_REACTORS
330
7DE1B343D9E07F8
102
}
330
7DE1B343D9E07F8
100
AcDbXrecord
340
0
  0
XRECORD
  5
7DE1B343D9E080E
102
{ACAD_REACTORS
330
7DE1B343D9E07F8
102
}
330
7DE1B343D9E07F8
100
AcDbXrecord
 10
0.0
 20
0.0
 30
0.0
  0
XRECORD
  5
7DE1B343D9E080A
102
{ACAD_REACTORS
330
7DE1B343D9E07F8
102
}
330
7DE1B343D9E07F8
100
AcDbXrecord
 10
0.0
 20
0.0
 30
0.0
  0
XRECORD
  5
7DE1B343D9E080D
102
{ACAD_REACTORS
330
7DE1B343D9E07F8
102
}
330
7DE1B343D9E07F8
100
AcDbXrecord
 10
0.0
 20
0.0
 30
0.0
  0
XRECORD
  5
7DE1B343D9E080B
102
{ACAD_REACTORS
330
7DE1B343D9E07F8
102
}
330
7DE1B343D9E07F8
100
AcDbXrecord
 10
0.0
 20
0.0
 30
0.0
  0
XRECORD
  5
7DE1B343D9E080C
102
{ACAD_REACTORS
330
7DE1B343D9E07F8
102
}
330
7DE1B343D9E07F8
100
AcDbXrecord
 10
0.0
 20
0.0
 30
0.0
  0
XRECORD
  5
7DE1B343D9E0809
102
{ACAD_REACTORS
330
7DE1B343D9E07F8
102
}
330
7DE1B343D9E07F8
100
AcDbXrecord
 10
0.0
 20
0.0
 30
0.0
  0
XRECORD
  5
7DE1B343D9E0806
102
{ACAD_REACTORS
330
7DE1B343D9E07F8
102
}
330
7DE1B343D9E07F8
100
AcDbXrecord
340
0
  0
XRECORD
  5
7DE1B343D9E0807
102
{ACAD_REACTORS
330
7DE1B343D9E07F8
102
}
330
7DE1B343D9E07F8
100
AcDbXrecord
 70
     0
  0
XRECORD
  5
7DE1B343D9E07FC
102
{ACAD_REACTORS
330
7DE1B343D9E07F8
102
}
330
7DE1B343D9E07F8
100
AcDbXrecord
  1

  0
XRECORD
  5
7DE1B343D9E07F9
102
{ACAD_REACTORS
330
7DE1B343D9E07F8
102
}
330
7DE1B343D9E07F8
100
AcDbXrecord
 90
        1
  0
XRECORD
  5
7DE1B343D9E07FA
102
{ACAD_REACTORS
330
7DE1B343D9E07F8
102
}
330
7DE1B343D9E07F8
100
AcDbXrecord
 90
       70
  0
XRECORD
  5
7DE1B343D9E0811
102
{ACAD_REACTORS
330
7DE1B343D9E07F8
102
}
330
7DE1B343D9E07F8
100
AcDbXrecord
340
0
  0
XRECORD
  5
7DE1B343D9E0817
102
{ACAD_REACTORS
330
7DE1B343D9E07F8
102
}
330
7DE1B343D9E07F8
100
AcDbXrecord
 10
0.0
 20
0.0
 30
0.0
  0
XRECORD
  5
7DE1B343D9E0813
102
{ACAD_REACTORS
330
7DE1B343D9E07F8
102
}
330
7DE1B343D9E07F8
100
AcDbXrecord
 10
0.0
 20
0.0
 30
0.0
  0
XRECORD
  5
7DE1B343D9E0816
102
{ACAD_REACTORS
330
7DE1B343D9E07F8
102
}
330
7DE1B343D9E07F8
100
AcDbXrecord
 10
0.0
 20
0.0
 30
0.0
  0
XRECORD
  5
7DE1B343D9E0814
102
{ACAD_REACTORS
330
7DE1B343D9E07F8
102
}
330
7DE1B343D9E07F8
100
AcDbXrecord
 10
0.0
 20
0.0
 30
0.0
  0
XRECORD
  5
7DE1B343D9E0815
102
{ACAD_REACTORS
330
7DE1B343D9E07F8
102
}
330
7DE1B343D9E07F8
100
AcDbXrecord
 10
0.0
 20
0.0
 30
0.0
  0
XRECORD
  5
7DE1B343D9E0812
102
{ACAD_REACTORS
330
7DE1B343D9E07F8
102
}
330
7DE1B343D9E07F8
100
AcDbXrecord
 10
0.0
 20
0.0
 30
0.0
  0
XRECORD
  5
7DE1B343D9E080F
102
{ACAD_REACTORS
330
7DE1B343D9E07F8
102
}
330
7DE1B343D9E07F8
100
AcDbXrecord
340
0
  0
XRECORD
  5
7DE1B343D9E0810
102
{ACAD_REACTORS
330
7DE1B343D9E07F8
102
}
330
7DE1B343D9E07F8
100
AcDbXrecord
 70
     0
  0
XRECORD
  5
7DE1B343D9E0804
102
{ACAD_REACTORS
330
7DE1B343D9E07F8
102
}
330
7DE1B343D9E07F8
100
AcDbXrecord
  1
{97EBFCA2-8DB6-11D6-88E6-0090279574E7}
  0
DICTIONARYVAR
  5
7DE1B343D9E07F6
102
{ACAD_REACTORS
330
7DE1B343D9E07F5
102
}
330
7DE1B343D9E07F5
100
DictionaryVariables
280
     0
  1
1
  0
ENDSEC
  0
EOF
