  0
SECTION
  2
HEADER
  9
$ACADVER
  1
AC1014
  9
$ACADMAINTVER
 70
     9
  9
$DWGCODEPAGE
  3
ANSI_1252
  9
$INSBASE
 10
2.007808378993817
 20
2.178327402278041
 30
0.0
  9
$EXTMIN
 10
0.2648267997666737
 20
-0.4680146863912614
 30
0.0
  9
$EXTMAX
 10
3.750046121513801
 20
2.297469537901772
 30
0.0
  9
$LIMMIN
 10
0.0
 20
0.0
  9
$LIMMAX
 10
18.0
 20
12.0
  9
$ORTHOMODE
 70
     1
  9
$REGENMODE
 70
     1
  9
$FILLMODE
 70
     1
  9
$QTEXTMODE
 70
     0
  9
$MIRRTEXT
 70
     0
  9
$DRAGMODE
 70
     2
  9
$LTSCALE
 40
1.0
  9
$OSMODE
 70
    39
  9
$ATTMODE
 70
     1
  9
$TEXTSIZE
 40
0.125
  9
$TRACEWID
 40
0.05
  9
$TEXTSTYLE
  7
ROMANS
  9
$CLAYER
  8
0
  9
$CELTYPE
  6
BYLAYER
  9
$CECOLOR
 62
   256
  9
$CELTSCALE
 40
1.0
  9
$DELOBJ
 70
     1
  9
$DISPSILH
 70
     1
  9
$DIMSCALE
 40
1.0
  9
$DIMASZ
 40
0.125
  9
$DIMEXO
 40
0.125
  9
$DIMDLI
 40
0.375
  9
$DIMRND
 40
0.0
  9
$DIMDLE
 40
0.0
  9
$DIMEXE
 40
0.125
  9
$DIMTP
 40
0.0
  9
$DIMTM
 40
0.0
  9
$DIMTXT
 40
0.125
  9
$DIMCEN
 40
-0.125
  9
$DIMTSZ
 40
0.0
  9
$DIMTOL
 70
     0
  9
$DIMLIM
 70
     0
  9
$DIMTIH
 70
     1
  9
$DIMTOH
 70
     1
  9
$DIMSE1
 70
     0
  9
$DIMSE2
 70
     0
  9
$DIMTAD
 70
     0
  9
$DIMZIN
 70
     4
  9
$DIMBLK
  1

  9
$DIMASO
 70
     1
  9
$DIMSHO
 70
     1
  9
$DIMPOST
  1

  9
$DIMAPOST
  1

  9
$DIMALT
 70
     0
  9
$DIMALTD
 70
     2
  9
$DIMALTF
 40
25.4
  9
$DIMLFAC
 40
1.0
  9
$DIMTOFL
 70
     0
  9
$DIMTVP
 40
0.0
  9
$DIMTIX
 70
     1
  9
$DIMSOXD
 70
     0
  9
$DIMSAH
 70
     0
  9
$DIMBLK1
  1

  9
$DIMBLK2
  1

  9
$DIMSTYLE
  2
STANDARD
  9
$DIMCLRD
 70
     0
  9
$DIMCLRE
 70
     0
  9
$DIMCLRT
 70
     0
  9
$DIMTFAC
 40
1.0
  9
$DIMGAP
 40
0.09
  9
$DIMJUST
 70
     0
  9
$DIMSD1
 70
     0
  9
$DIMSD2
 70
     0
  9
$DIMTOLJ
 70
     1
  9
$DIMTZIN
 70
     4
  9
$DIMALTZ
 70
     0
  9
$DIMALTTZ
 70
     0
  9
$DIMFIT
 70
     3
  9
$DIMUPT
 70
     0
  9
$DIMUNIT
 70
     2
  9
$DIMDEC
 70
     3
  9
$DIMTDEC
 70
     3
  9
$DIMALTU
 70
     2
  9
$DIMALTTD
 70
     2
  9
$DIMTXSTY
  7
ROMANS
  9
$DIMAUNIT
 70
     0
  9
$LUNITS
 70
     2
  9
$LUPREC
 70
     3
  9
$SKETCHINC
 40
0.1
  9
$FILLETRAD
 40
0.03125
  9
$AUNITS
 70
     0
  9
$AUPREC
 70
     0
  9
$MENU
  1
ACAD
  9
$ELEVATION
 40
0.0
  9
$PELEVATION
 40
0.0
  9
$THICKNESS
 40
0.0
  9
$LIMCHECK
 70
     0
  9
$BLIPMODE
 70
     0
  9
$CHAMFERA
 40
0.0
  9
$CHAMFERB
 40
0.0
  9
$CHAMFERC
 40
0.0
  9
$CHAMFERD
 40
0.0
  9
$SKPOLY
 70
     0
  9
$TDCREATE
 40
2448994.592667593
  9
$TDUPDATE
 40
2452458.308308461
  9
$TDINDWG
 40
0.0016293519
  9
$TDUSRTIMER
 40
0.0016293519
  9
$USRTIMER
 70
     1
  9
$ANGBASE
 50
0.0
  9
$ANGDIR
 70
     0
  9
$PDMODE
 70
     0
  9
$PDSIZE
 40
0.0
  9
$PLINEWID
 40
0.0
  9
$COORDS
 70
     2
  9
$SPLFRAME
 70
     0
  9
$SPLINETYPE
 70
     6
  9
$SPLINESEGS
 70
     8
  9
$ATTDIA
 70
     0
  9
$ATTREQ
 70
     1
  9
$HANDLING
 70
 22529
  9
$HANDSEED
  5
7DE1B343D9E025D
  9
$SURFTAB1
 70
     6
  9
$SURFTAB2
 70
     6
  9
$SURFTYPE
 70
     6
  9
$SURFU
 70
     6
  9
$SURFV
 70
     6
  9
$UCSNAME
  2

  9
$UCSORG
 10
0.0
 20
0.0
 30
0.0
  9
$UCSXDIR
 10
1.0
 20
0.0
 30
0.0
  9
$UCSYDIR
 10
0.0
 20
1.0
 30
0.0
  9
$PUCSNAME
  2

  9
$PUCSORG
 10
0.0
 20
0.0
 30
0.0
  9
$PUCSXDIR
 10
1.0
 20
0.0
 30
0.0
  9
$PUCSYDIR
 10
0.0
 20
1.0
 30
0.0
  9
$USERI1
 70
     0
  9
$USERI2
 70
     0
  9
$USERI3
 70
     0
  9
$USERI4
 70
     0
  9
$USERI5
 70
     0
  9
$USERR1
 40
0.0
  9
$USERR2
 40
0.0
  9
$USERR3
 40
0.0
  9
$USERR4
 40
0.0
  9
$USERR5
 40
0.0
  9
$WORLDVIEW
 70
     1
  9
$SHADEDGE
 70
     3
  9
$SHADEDIF
 70
    70
  9
$TILEMODE
 70
     1
  9
$MAXACTVP
 70
    16
  9
$PINSBASE
 10
0.7586343122048684
 20
50.00000000000001
 30
1.929878049202069
  9
$PLIMCHECK
 70
     0
  9
$PEXTMIN
 10
1.000000000000000E+20
 20
1.000000000000000E+20
 30
1.000000000000000E+20
  9
$PEXTMAX
 10
-1.000000000000000E+20
 20
-1.000000000000000E+20
 30
-1.000000000000000E+20
  9
$PLIMMIN
 10
0.0
 20
0.0
  9
$PLIMMAX
 10
12.0
 20
9.0
  9
$UNITMODE
 70
     0
  9
$VISRETAIN
 70
     0
  9
$PLINEGEN
 70
     1
  9
$PSLTSCALE
 70
     0
  9
$TREEDEPTH
 70
  3020
  9
$PICKSTYLE
 70
     1
  9
$CMLSTYLE
  2
STANDARD
  9
$CMLJUST
 70
     0
  9
$CMLSCALE
 40
1.0
  9
$PROXYGRAPHICS
 70
     1
  9
$MEASUREMENT
 70
     0
  0
ENDSEC
  0
SECTION
  2
CLASSES
  0
CLASS
  1
LWPOLYLINE
  2
AcDbPolyline
  3
AutoCAD 2000
 90
        0
280
     0
281
     1
  0
CLASS
  1
ACDBDICTIONARYWDFLT
  2
AcDbDictionaryWithDefault
  3
AutoCAD 2000
 90
        0
280
     0
281
     0
  0
CLASS
  1
ACDBPLACEHOLDER
  2
AcDbPlaceHolder
  3
AutoCAD 2000
 90
        0
280
     0
281
     0
  0
CLASS
  1
LAYOUT
  2
AcDbLayout
  3
AutoCAD 2000
 90
        0
280
     0
281
     0
  0
CLASS
  1
DICTIONARYVAR
  2
AcDbDictionaryVar
  3
AutoCAD 2000
 90
        0
280
     0
281
     0
  0
CLASS
  1
LONG_TRANSACTION
  2
AcDbLongTransaction
  3
AutoCAD 2000
 90
        0
280
     0
281
     0
  0
CLASS
  1
LWPOLYLINE
  2
AcDbPolyline
  3
AutoCAD 2000
 90
        0
280
     0
281
     1
  0
CLASS
  1
HATCH
  2
AcDbHatch
  3
AutoCAD 2000
 90
        0
280
     0
281
     1
  0
CLASS
  1
XRECORD
  2
AcDbXrecord
  3
AutoCAD 2000
 90
        0
280
     0
281
     0
  0
ENDSEC
  0
SECTION
  2
TABLES
  0
TABLE
  2
VPORT
  5
7DE1B343D9E0204
330
0
100
AcDbSymbolTable
 70
     2
  0
VPORT
  5
7DE1B343D9E0238
330
7DE1B343D9E0204
100
AcDbSymbolTableRecord
100
AcDbViewportTableRecord
  2
*ACTIVE
 70
     0
 10
0.0
 20
0.0
 11
1.0
 21
1.0
 12
6.07976411156557
 22
0.9146991239272725
 13
0.0
 23
0.0
 14
0.015625
 24
0.015625
 15
0.0
 25
0.0
 16
0.0
 26
0.0
 36
1.0
 17
0.0
 27
0.0
 37
0.0
 40
3.122851006908567
 41
4.320930232558139
 42
50.0
 43
0.0
 44
0.0
 50
0.0
 51
0.0
 71
     0
 72
  2000
 73
     1
 74
     0
 75
     0
 76
     0
 77
     0
 78
     0
  0
ENDTAB
  0
TABLE
  2
LTYPE
  5
7DE1B343D9E0201
330
0
100
AcDbSymbolTable
 70
     1
  0
LTYPE
  5
7DE1B343D9E020E
330
7DE1B343D9E0201
100
AcDbSymbolTableRecord
100
AcDbLinetypeTableRecord
  2
BYBLOCK
 70
     0
  3

 72
    65
 73
     0
 40
0.0
  0
LTYPE
  5
7DE1B343D9E020F
330
7DE1B343D9E0201
100
AcDbSymbolTableRecord
100
AcDbLinetypeTableRecord
  2
BYLAYER
 70
     0
  3

 72
    65
 73
     0
 40
0.0
  0
LTYPE
  5
7DE1B343D9E0210
330
7DE1B343D9E0201
100
AcDbSymbolTableRecord
100
AcDbLinetypeTableRecord
  2
CONTINUOUS
 70
     0
  3
Solid line
 72
    65
 73
     0
 40
0.0
  0
ENDTAB
  0
TABLE
  2
LAYER
  5
7DE1B343D9E01FE
330
0
100
AcDbSymbolTable
 70
     2
  0
LAYER
  5
7DE1B343D9E020B
330
7DE1B343D9E01FE
100
AcDbSymbolTableRecord
100
AcDbLayerTableRecord
  2
0
 70
     0
 62
     7
  6
CONTINUOUS
  0
LAYER
  5
7DE1B343D9E021B
330
7DE1B343D9E01FE
100
AcDbSymbolTableRecord
100
AcDbLayerTableRecord
  2
TEXT
 70
     0
 62
     3
  6
CONTINUOUS
  0
ENDTAB
  0
TABLE
  2
STYLE
  5
7DE1B343D9E01FF
330
0
100
AcDbSymbolTable
 70
     3
  0
STYLE
  5
7DE1B343D9E020C
330
7DE1B343D9E01FF
100
AcDbSymbolTableRecord
100
AcDbTextStyleTableRecord
  2
STANDARD
 70
     0
 40
0.0
 41
1.0
 50
0.0
 71
     0
 42
0.3125
  3
txt
  4

  0
STYLE
  5
7DE1B343D9E0218
330
7DE1B343D9E01FF
100
AcDbSymbolTableRecord
100
AcDbTextStyleTableRecord
  2
ITALICC
 70
     0
 40
0.0
 41
1.0
 50
0.0
 71
     0
 42
0.125
  3
italicc
  4

  0
STYLE
  5
7DE1B343D9E0228
330
7DE1B343D9E01FF
100
AcDbSymbolTableRecord
100
AcDbTextStyleTableRecord
  2
ROMANS
 70
     0
 40
0.0
 41
1.0
 50
0.0
 71
     0
 42
0.125
  3
romans.shx
  4

  0
ENDTAB
  0
TABLE
  2
VIEW
  5
7DE1B343D9E0202
330
0
100
AcDbSymbolTable
 70
     0
  0
ENDTAB
  0
TABLE
  2
UCS
  5
7DE1B343D9E0203
330
0
100
AcDbSymbolTable
 70
     0
  0
ENDTAB
  0
TABLE
  2
APPID
  5
7DE1B343D9E0205
330
0
100
AcDbSymbolTable
 70
     1
  0
APPID
  5
7DE1B343D9E020D
330
7DE1B343D9E0205
100
AcDbSymbolTableRecord
100
AcDbRegAppTableRecord
  2
ACAD
 70
     0
  0
ENDTAB
  0
TABLE
  2
DIMSTYLE
  5
7DE1B343D9E0206
330
0
100
AcDbSymbolTable
 70
     1
  0
DIMSTYLE
105
7DE1B343D9E0220
330
7DE1B343D9E0206
100
AcDbSymbolTableRecord
100
AcDbDimStyleTableRecord
  2
STANDARD
 70
     0
  3

  4

  5

  6

  7

 40
1.0
 41
0.125
 42
0.125
 43
0.375
 44
0.125
 45
0.0
 46
0.0
 47
0.0
 48
0.0
140
0.125
141
-0.125
142
0.0
143
25.4
144
1.0
145
0.0
146
1.0
147
0.09
 71
     0
 72
     0
 73
     1
 74
     1
 75
     0
 76
     0
 77
     0
 78
     4
170
     0
171
     2
172
     0
173
     0
174
     1
175
     0
176
     0
177
     0
178
     0
270
     2
271
     3
272
     3
273
     2
274
     2
340
7DE1B343D9E0228
275
     0
280
     0
281
     0
282
     0
283
     1
284
     4
285
     0
286
     0
287
     3
288
     0
  0
ENDTAB
  0
TABLE
  2
BLOCK_RECORD
  5
7DE1B343D9E01FD
330
0
100
AcDbSymbolTable
 70
     0
  0
BLOCK_RECORD
  5
7DE1B343D9E0214
102
{ACAD_XDICTIONARY
360
7DE1B343D9E025B
102
}
330
7DE1B343D9E01FD
100
AcDbSymbolTableRecord
100
AcDbBlockTableRecord
  2
*MODEL_SPACE
  0
BLOCK_RECORD
  5
7DE1B343D9E0211
102
{ACAD_XDICTIONARY
360
7DE1B343D9E0259
102
}
330
7DE1B343D9E01FD
100
AcDbSymbolTableRecord
100
AcDbBlockTableRecord
  2
*PAPER_SPACE
  0
ENDTAB
  0
ENDSEC
  0
SECTION
  2
BLOCKS
  0
BLOCK
  5
7DE1B343D9E021E
330
7DE1B343D9E0214
100
AcDbEntity
  8
0
100
AcDbBlockBegin
  2
*MODEL_SPACE
 70
     0
 10
0.0
 20
0.0
 30
0.0
  3
*MODEL_SPACE
  1

  0
ENDBLK
  5
7DE1B343D9E021F
330
7DE1B343D9E0214
100
AcDbEntity
  8
0
100
AcDbBlockEnd
  0
BLOCK
  5
7DE1B343D9E021C
330
7DE1B343D9E0211
100
AcDbEntity
 67
     1
  8
0
100
AcDbBlockBegin
  2
*PAPER_SPACE
 70
     0
 10
0.0
 20
0.0
 30
0.0
  3
*PAPER_SPACE
  1

  0
ENDBLK
  5
7DE1B343D9E021D
330
7DE1B343D9E0211
100
AcDbEntity
 67
     1
  8
0
100
AcDbBlockEnd
  0
ENDSEC
  0
SECTION
  2
ENTITIES
  0
LWPOLYLINE
  5
7DE1B343D9DEDE2
330
7DE1B343D9E0214
100
AcDbEntity
  8
0
100
AcDbPolyline
 90
       23
 70
     1
 43
0.0
 10
1.507808378993817
 20
0.4183274022780405
 10
1.027808378993817
 20
0.4183274022780405
 42
0.4142135623730951
 10
1.007808378993817
 20
0.3983274022780404
 10
1.007808378993817
 20
0.3133274022780404
 42
0.4142135623730951
 10
1.027808378993817
 20
0.2933274022780404
 10
1.612808378993817
 20
0.2933274022780404
 42
0.4142135623730951
 10
1.632808378993817
 20
0.3133274022780404
 10
1.632808378993817
 20
2.168327402278041
 10
1.997808378993817
 20
2.168327402278041
 10
2.007808378993817
 20
2.178327402278041
 10
2.017808378993817
 20
2.168327402278041
 10
2.382808378993817
 20
2.168327402278041
 10
2.382808378993817
 20
0.3133274022780404
 42
0.4142135623730951
 10
2.402808378993817
 20
0.2933274022780404
 10
2.987808378993817
 20
0.2933274022780404
 42
0.4142135623730951
 10
3.007808378993816
 20
0.3133274022780404
 10
3.007808378993816
 20
0.3983274022780404
 42
0.4142135623730951
 10
2.987808378993817
 20
0.4183274022780405
 10
2.507808378993817
 20
0.4183274022780405
 10
2.507808378993817
 20
2.27332740227804
 42
0.4142135623730982
 10
2.487808378993817
 20
2.293327402278041
 10
1.527808378993817
 20
2.293327402278041
 42
0.4142135623730983
 10
1.507808378993817
 20
2.27332740227804
  0
TEXT
  5
7DE1B343D9E00BF
330
7DE1B343D9E0214
100
AcDbEntity
  8
TEXT
100
AcDbText
 10
1.254832188517626
 20
-0.0099960823086799
 30
0.0
 40
0.125
  1
PART #110359
  7
ITALICC
 72
     1
 11
2.007808378993817
 21
-0.0099960823086799
 31
0.0
100
AcDbText
  0
TEXT
  5
7DE1B343D9E00C0
330
7DE1B343D9E0214
100
AcDbEntity
  8
TEXT
100
AcDbText
 10
2.421113537244137
 20
-0.4569187249810551
 30
0.0
 40
0.0522247191011236
  1
Phone  1-800-328-2495
 41
1.272321428571429
 72
     5
 11
3.750046121513801
 21
-0.4569187249810551
 31
0.0
100
AcDbText
  0
TEXT
  5
7DE1B343D9E00C1
330
7DE1B343D9E0214
100
AcDbEntity
  8
TEXT
100
AcDbText
 10
2.421113537244137
 20
-0.1771434440821786
 30
0.0
 40
0.0522247191011236
  1
Stylmark  Incorporated
 41
1.221428571428573
 72
     5
 11
3.750046121513801
 21
-0.1771434440821786
 31
0.0
100
AcDbText
  0
TEXT
  5
7DE1B343D9E00C2
330
7DE1B343D9E0214
100
AcDbEntity
  8
TEXT
100
AcDbText
 10
2.421113537244137
 20
-0.2704018710484707
 30
0.0
 40
0.0522247191011236
  1
6536 Main St. N.E. * P.O. Box 32008
 41
0.8388932496075366
 72
     5
 11
3.750046121513801
 21
-0.2704018710484707
 31
0.0
100
AcDbText
  0
TEXT
  5
7DE1B343D9E00C3
330
7DE1B343D9E0214
100
AcDbEntity
  8
TEXT
100
AcDbText
 10
2.421113537244137
 20
-0.3636602980147629
 30
0.0
 40
0.0522247191011236
  1
Minneapolis, MN 55432-0008
 41
1.11444212721585
 72
     5
 11
3.750046121513801
 21
-0.3636602980147629
 31
0.0
100
AcDbText
  0
LWPOLYLINE
  5
7DE1B343D9E00C4
330
7DE1B343D9E0214
100
AcDbEntity
  8
TEXT
100
AcDbPolyline
 90
        3
 70
     0
 43
0.0006660908203125
 10
0.26515984517683
 20
-0.3432739623436202
 10
0.26515984517683
 20
-0.4565094017967479
 10
0.3783952846299523
 20
-0.4565094017967479
  0
LWPOLYLINE
  5
7DE1B343D9E00C9
330
7DE1B343D9E0214
100
AcDbEntity
  8
TEXT
100
AcDbPolyline
 90
        3
 70
     0
 43
0.0006660908203125
 10
0.2918034779893275
 20
-0.3432739623436202
 10
0.2918034779893275
 20
-0.4298657689842468
 10
0.3783952846299523
 20
-0.4298657689842468
  0
LWPOLYLINE
  5
7DE1B343D9E00CE
330
7DE1B343D9E0214
100
AcDbEntity
  8
TEXT
100
AcDbPolyline
 90
        2
 70
     0
 43
0.0001332181640625
 10
0.3384298354112043
 20
-0.333282600038935
 10
0.26515984517683
 20
-0.3432739623436202
  0
LWPOLYLINE
  5
7DE1B343D9E00D2
330
7DE1B343D9E0214
100
AcDbEntity
  8
TEXT
100
AcDbPolyline
 90
        2
 70
     0
 43
0.0001332181640625
 10
0.2918034779893275
 20
-0.3432739623436202
 10
0.3517516518174548
 20
-0.333282600038935
  0
LWPOLYLINE
  5
7DE1B343D9E00D6
330
7DE1B343D9E0214
100
AcDbEntity
  8
TEXT
100
AcDbPolyline
 90
        2
 70
     0
 43
0.0001332181640625
 10
0.2918034779893275
 20
-0.4298657689842468
 10
0.3517516518174548
 20
-0.3699175951561213
  0
LWPOLYLINE
  5
7DE1B343D9E00DA
330
7DE1B343D9E0214
100
AcDbEntity
  8
TEXT
100
AcDbPolyline
 90
        3
 70
     0
 43
0.0006660908203125
 10
0.3783952846299523
 20
-0.1900730736717446
 10
0.26515984517683
 20
-0.1900730736717446
 10
0.26515984517683
 20
-0.3033085131248722
  0
LWPOLYLINE
  5
7DE1B343D9E00DF
330
7DE1B343D9E0214
100
AcDbEntity
  8
TEXT
100
AcDbPolyline
 90
        3
 70
     0
 43
0.0006660908203125
 10
0.3783952846299523
 20
-0.2167167064842456
 10
0.2918034779893275
 20
-0.2167167064842456
 10
0.2918034779893275
 20
-0.3033085131248722
  0
LWPOLYLINE
  5
7DE1B343D9E00E4
330
7DE1B343D9E0214
100
AcDbEntity
  8
TEXT
100
AcDbPolyline
 90
        2
 70
     0
 43
0.0001332181640625
 10
0.2918034779893275
 20
-0.2167167064842456
 10
0.351751651817453
 20
-0.2766648803123712
  0
LWPOLYLINE
  5
7DE1B343D9E00E8
330
7DE1B343D9E0214
100
AcDbEntity
  8
TEXT
100
AcDbPolyline
 90
        2
 70
     0
 43
0.0001332181640625
 10
0.2918034779893275
 20
-0.3033085131248722
 10
0.351751651817453
 20
-0.313299875429561
  0
LWPOLYLINE
  5
7DE1B343D9E00EC
330
7DE1B343D9E0214
100
AcDbEntity
  8
TEXT
100
AcDbPolyline
 90
        2
 70
     0
 43
0.0001332181640625
 10
0.26515984517683
 20
-0.3033085131248722
 10
0.3384298354112043
 20
-0.313299875429561
  0
LWPOLYLINE
  5
7DE1B343D9E00F0
330
7DE1B343D9E0214
100
AcDbEntity
  8
TEXT
100
AcDbPolyline
 90
        2
 70
     0
 43
0.0006660908203125
 10
0.2918034779893275
 20
-0.3432739623436202
 10
0.26515984517683
 20
-0.3432739623436202
  0
LWPOLYLINE
  5
7DE1B343D9E00F4
330
7DE1B343D9E0214
100
AcDbEntity
  8
TEXT
100
AcDbPolyline
 90
        2
 70
     0
 43
0.0006660908203125
 10
0.2918034779893275
 20
-0.3033085131248722
 10
0.26515984517683
 20
-0.3033085131248722
  0
LINE
  5
7DE1B343D9E00F8
330
7DE1B343D9E0214
100
AcDbEntity
  8
TEXT
100
AcDbLine
 10
1.780350274303327
 20
-0.2543497683285136
 30
0.0
 11
1.673144000916038
 21
-0.2543497683285136
 31
0.0
  0
LINE
  5
7DE1B343D9E00F9
330
7DE1B343D9E0214
100
AcDbEntity
  8
TEXT
100
AcDbLine
 10
1.809381172647805
 20
-0.1900730736717481
 30
0.0
 11
1.674549263430746
 21
-0.1900730736717481
 31
0.0
  0
ARC
  5
7DE1B343D9E00FA
330
7DE1B343D9E0214
100
AcDbEntity
  8
TEXT
100
AcDbCircle
 10
1.733863359824063
 20
-0.3593103229347645
 30
0.0
 40
0.0676855811441166
100
AcDbArc
 50
90.0
 51
153.7768192527749
  0
LWPOLYLINE
  5
7DE1B343D9E00FB
330
7DE1B343D9E0214
100
AcDbEntity
  8
TEXT
100
AcDbPolyline
 90
        2
 70
     0
 43
0.0
 10
1.672111505461228
 20
-0.413055161709821
 42
0.2901071551932823
 10
1.715187438328863
 20
-0.4565461066602591
 42
5.328517124445801
  0
ARC
  5
7DE1B343D9E00FF
330
7DE1B343D9E0214
100
AcDbEntity
  8
TEXT
100
AcDbCircle
 10
1.028731982152577
 20
-0.3967537153222093
 30
0.0
 40
0.0601160179737537
100
AcDbArc
 50
180.0000000000003
 51
264.0521544866073
  0
LINE
  5
7DE1B343D9E0100
330
7DE1B343D9E0214
100
AcDbEntity
  8
TEXT
100
AcDbLine
 10
1.032247337778125
 20
-0.15568515607761
 30
0.0
 11
0.9722047329341187
 21
-0.15568515607761
 31
0.0
  0
ARC
  5
7DE1B343D9E0101
330
7DE1B343D9E0214
100
AcDbEntity
  8
TEXT
100
AcDbCircle
 10
0.7964729800356074
 20
-0.2721605331182499
 30
0.0
 40
0.0820874594465043
100
AcDbArc
 50
90.0
 51
270.0
  0
LWPOLYLINE
  5
7DE1B343D9E0102
330
7DE1B343D9E0214
100
AcDbEntity
  8
TEXT
100
AcDbPolyline
 90
        2
 70
     0
 43
0.0001332181640625
 10
0.3883866469346429
 20
-0.2633430639061242
 10
0.3783952846299523
 20
-0.1900730736717446
  0
LWPOLYLINE
  5
7DE1B343D9E0106
330
7DE1B343D9E0214
100
AcDbEntity
  8
TEXT
100
AcDbPolyline
 90
        2
 70
     0
 43
0.0001332181640625
 10
0.3783952846299523
 20
-0.2167167064842456
 10
0.3883866469346429
 20
-0.2766648803123712
  0
LWPOLYLINE
  5
7DE1B343D9E010A
330
7DE1B343D9E0214
100
AcDbEntity
  8
TEXT
100
AcDbPolyline
 90
        3
 70
     0
 43
0.0006660908203125
 10
0.5315961733018298
 20
-0.3033085131248722
 10
0.5315961733018298
 20
-0.1900730736717446
 10
0.4183607338487039
 20
-0.1900730736717446
  0
LWPOLYLINE
  5
7DE1B343D9E010F
330
7DE1B343D9E0214
100
AcDbEntity
  8
TEXT
100
AcDbPolyline
 90
        3
 70
     0
 43
0.0006660908203125
 10
0.5049525404893287
 20
-0.3033085131248722
 10
0.5049525404893287
 20
-0.2167167064842456
 10
0.4183607338487039
 20
-0.2167167064842456
  0
LWPOLYLINE
  5
7DE1B343D9E0114
330
7DE1B343D9E0214
100
AcDbEntity
  8
TEXT
100
AcDbPolyline
 90
        2
 70
     0
 43
0.0001332181640625
 10
0.5049525404893287
 20
-0.2167167064842456
 10
0.4450043666612049
 20
-0.2766648803123712
  0
LWPOLYLINE
  5
7DE1B343D9E0118
330
7DE1B343D9E0214
100
AcDbEntity
  8
TEXT
100
AcDbPolyline
 90
        2
 70
     0
 43
0.0001332181640625
 10
0.4183607338487039
 20
-0.2167167064842456
 10
0.4083693715440151
 20
-0.2766648803123712
  0
LWPOLYLINE
  5
7DE1B343D9E011C
330
7DE1B343D9E0214
100
AcDbEntity
  8
TEXT
100
AcDbPolyline
 90
        2
 70
     0
 43
0.0001332181640625
 10
0.4183607338487039
 20
-0.1900730736717446
 10
0.4083693715440151
 20
-0.2633430639061242
  0
LWPOLYLINE
  5
7DE1B343D9E0120
330
7DE1B343D9E0214
100
AcDbEntity
  8
TEXT
100
AcDbPolyline
 90
        2
 70
     0
 43
0.0001332181640625
 10
0.4583261830674537
 20
-0.313299875429561
 10
0.5315961733018298
 20
-0.3033085131248722
  0
LWPOLYLINE
  5
7DE1B343D9E0124
330
7DE1B343D9E0214
100
AcDbEntity
  8
TEXT
100
AcDbPolyline
 90
        2
 70
     0
 43
0.0001332181640625
 10
0.5049525404893287
 20
-0.3033085131248722
 10
0.4450043666612049
 20
-0.313299875429561
  0
LWPOLYLINE
  5
7DE1B343D9E0128
330
7DE1B343D9E0214
100
AcDbEntity
  8
TEXT
100
AcDbPolyline
 90
        2
 70
     0
 43
0.0001332181640625
 10
0.5315961733018298
 20
-0.3432739623436202
 10
0.4583261830674537
 20
-0.333282600038935
  0
LWPOLYLINE
  5
7DE1B343D9E012C
330
7DE1B343D9E0214
100
AcDbEntity
  8
TEXT
100
AcDbPolyline
 90
        2
 70
     0
 43
0.0001332181640625
 10
0.5049525404893287
 20
-0.3432739623436202
 10
0.4450043666612049
 20
-0.333282600038935
  0
LWPOLYLINE
  5
7DE1B343D9E0130
330
7DE1B343D9E0214
100
AcDbEntity
  8
TEXT
100
AcDbPolyline
 90
        2
 70
     0
 43
0.0001332181640625
 10
0.5049525404893287
 20
-0.4298657689842468
 10
0.4450043666612049
 20
-0.3699175951561213
  0
LWPOLYLINE
  5
7DE1B343D9E0134
330
7DE1B343D9E0214
100
AcDbEntity
  8
TEXT
100
AcDbPolyline
 90
        3
 70
     0
 43
0.0006660908203125
 10
0.4183607338487039
 20
-0.4298657689842468
 10
0.5049525404893287
 20
-0.4298657689842468
 10
0.5049525404893287
 20
-0.3432739623436202
  0
LWPOLYLINE
  5
7DE1B343D9E0139
330
7DE1B343D9E0214
100
AcDbEntity
  8
TEXT
100
AcDbPolyline
 90
        3
 70
     0
 43
0.0006660908203125
 10
0.4183607338487039
 20
-0.4565094017967479
 10
0.5315961733018298
 20
-0.4565094017967479
 10
0.5315961733018298
 20
-0.3432739623436202
  0
LWPOLYLINE
  5
7DE1B343D9E013E
330
7DE1B343D9E0214
100
AcDbEntity
  8
TEXT
100
AcDbPolyline
 90
        5
 70
     0
 43
0.0001332181640625
 10
0.3883866469346429
 20
-0.3832394115623718
 10
0.3883866469346429
 20
-0.3699175951561213
 10
0.3517516518174548
 20
-0.3699175951561213
 10
0.3517516518174548
 20
-0.333282600038935
 10
0.3384298354112043
 20
-0.333282600038935
  0
LWPOLYLINE
  5
7DE1B343D9E0145
330
7DE1B343D9E0214
100
AcDbEntity
  8
TEXT
100
AcDbPolyline
 90
        2
 70
     0
 43
0.0006660908203125
 10
0.3783952846299523
 20
-0.4298657689842468
 10
0.3783952846299523
 20
-0.4565094017967479
  0
LWPOLYLINE
  5
7DE1B343D9E0149
330
7DE1B343D9E0214
100
AcDbEntity
  8
TEXT
100
AcDbPolyline
 90
        2
 70
     0
 43
0.0001332181640625
 10
0.3783952846299523
 20
-0.4298657689842468
 10
0.3883866469346429
 20
-0.3699175951561213
  0
LWPOLYLINE
  5
7DE1B343D9E014D
330
7DE1B343D9E0214
100
AcDbEntity
  8
TEXT
100
AcDbPolyline
 90
        2
 70
     0
 43
0.0001332181640625
 10
0.3783952846299523
 20
-0.4565094017967479
 10
0.3883866469346429
 20
-0.3832394115623718
  0
LWPOLYLINE
  5
7DE1B343D9E0151
330
7DE1B343D9E0214
100
AcDbEntity
  8
TEXT
100
AcDbPolyline
 90
        5
 70
     0
 43
0.0001332181640625
 10
0.3384298354112043
 20
-0.313299875429561
 10
0.351751651817453
 20
-0.313299875429561
 10
0.351751651817453
 20
-0.2766648803123712
 10
0.3883866469346429
 20
-0.2766648803123712
 10
0.3883866469346429
 20
-0.2633430639061242
  0
LWPOLYLINE
  5
7DE1B343D9E0158
330
7DE1B343D9E0214
100
AcDbEntity
  8
TEXT
100
AcDbPolyline
 90
        5
 70
     0
 43
0.0001332181640625
 10
0.4083693715440151
 20
-0.2633430639061242
 10
0.4083693715440151
 20
-0.2766648803123712
 10
0.4450043666612049
 20
-0.2766648803123712
 10
0.4450043666612049
 20
-0.313299875429561
 10
0.4583261830674537
 20
-0.313299875429561
  0
LWPOLYLINE
  5
7DE1B343D9E015F
330
7DE1B343D9E0214
100
AcDbEntity
  8
TEXT
100
AcDbPolyline
 90
        2
 70
     0
 43
0.0001332181640625
 10
0.4183607338487039
 20
-0.4298657689842468
 10
0.4083693715440151
 20
-0.3699175951561213
  0
LWPOLYLINE
  5
7DE1B343D9E0163
330
7DE1B343D9E0214
100
AcDbEntity
  8
TEXT
100
AcDbPolyline
 90
        2
 70
     0
 43
0.0001332181640625
 10
0.4083693715440151
 20
-0.3832394115623718
 10
0.4183607338487039
 20
-0.4565094017967479
  0
LWPOLYLINE
  5
7DE1B343D9E0167
330
7DE1B343D9E0214
100
AcDbEntity
  8
TEXT
100
AcDbPolyline
 90
        2
 70
     0
 43
0.0006660908203125
 10
0.4183607338487039
 20
-0.4298657689842468
 10
0.4183607338487039
 20
-0.4565094017967479
  0
LWPOLYLINE
  5
7DE1B343D9E016B
330
7DE1B343D9E0214
100
AcDbEntity
  8
TEXT
100
AcDbPolyline
 90
        5
 70
     0
 43
0.0001332181640625
 10
0.4583261830674537
 20
-0.333282600038935
 10
0.4450043666612049
 20
-0.333282600038935
 10
0.4450043666612049
 20
-0.3699175951561213
 10
0.4083693715440151
 20
-0.3699175951561213
 10
0.4083693715440151
 20
-0.3832394115623718
  0
LWPOLYLINE
  5
7DE1B343D9E0172
330
7DE1B343D9E0214
100
AcDbEntity
  8
TEXT
100
AcDbPolyline
 90
        2
 70
     0
 43
0.0006660908203125
 10
0.5049525404893287
 20
-0.3033085131248722
 10
0.5315961733018298
 20
-0.3033085131248722
  0
LWPOLYLINE
  5
7DE1B343D9E0176
330
7DE1B343D9E0214
100
AcDbEntity
  8
TEXT
100
AcDbPolyline
 90
        2
 70
     0
 43
0.0006660908203125
 10
0.5049525404893287
 20
-0.3432739623436202
 10
0.5315961733018298
 20
-0.3432739623436202
  0
LINE
  5
7DE1B343D9E017A
330
7DE1B343D9E0214
100
AcDbEntity
  8
TEXT
100
AcDbLine
 10
0.8017103101498545
 20
-0.2543497683285136
 30
0.0
 11
0.9686159641788258
 21
-0.2543497683285136
 31
0.0
  0
LINE
  5
7DE1B343D9E017B
330
7DE1B343D9E0214
100
AcDbEntity
  8
TEXT
100
AcDbLine
 10
0.8673104463941555
 20
-0.2901544899391415
 30
0.0
 11
0.8017103101498545
 21
-0.2901544899391415
 31
0.0
  0
LINE
  5
7DE1B343D9E017C
330
7DE1B343D9E0214
100
AcDbEntity
  8
TEXT
100
AcDbLine
 10
0.714385520589103
 20
-0.4565461066602591
 30
0.0
 11
0.8673104463941555
 21
-0.4565461066602591
 31
0.0
  0
LINE
  5
7DE1B343D9E017D
330
7DE1B343D9E0214
100
AcDbEntity
  8
TEXT
100
AcDbLine
 10
0.8722508203004352
 20
-0.3881891003268198
 30
0.0
 11
0.7143855205891012
 21
-0.3881891003268198
 31
0.0
  0
LINE
  5
7DE1B343D9E017E
330
7DE1B343D9E0214
100
AcDbEntity
  8
TEXT
100
AcDbLine
 10
0.7964729800356066
 20
-0.3542479925647552
 30
0.0
 11
0.8722508203004352
 21
-0.3542479925647552
 31
0.0
  0
ARC
  5
7DE1B343D9E017F
330
7DE1B343D9E0214
100
AcDbEntity
  8
TEXT
100
AcDbCircle
 10
0.8017103101498555
 20
-0.2722521291338257
 30
0.0
 40
0.017902360805315
100
AcDbArc
 50
90.0
 51
270.0
  0
LINE
  5
7DE1B343D9E0180
330
7DE1B343D9E0214
100
AcDbEntity
  8
TEXT
100
AcDbLine
 10
0.7143855205891012
 20
-0.3881891003268198
 30
0.0
 11
0.714385520589103
 21
-0.4565461066602591
 31
0.0
  0
LINE
  5
7DE1B343D9E0181
330
7DE1B343D9E0214
100
AcDbEntity
  8
TEXT
100
AcDbLine
 10
0.9686159641788258
 20
-0.2543497683285136
 30
0.0
 11
0.9686159641788258
 21
-0.3967537153222093
 31
0.0
  0
ARC
  5
7DE1B343D9E0182
330
7DE1B343D9E0214
100
AcDbEntity
  8
TEXT
100
AcDbCircle
 10
0.8673104463941566
 20
-0.3733502982997021
 30
0.0
 40
0.0831958083605586
100
AcDbArc
 50
270.0
 51
90.0
  0
ARC
  5
7DE1B343D9E0183
330
7DE1B343D9E0214
100
AcDbEntity
  8
TEXT
100
AcDbCircle
 10
0.8722508203004363
 20
-0.3712185464457857
 30
0.0
 40
0.0169705538810321
100
AcDbArc
 50
270.0
 51
90.0
  0
LWPOLYLINE
  5
7DE1B343D9E0184
330
7DE1B343D9E0214
100
AcDbEntity
  8
TEXT
100
AcDbPolyline
 90
        2
 70
     0
 43
0.0006660908203125
 10
0.3783952846299523
 20
-0.2167167064842456
 10
0.3783952846299523
 20
-0.1900730736717446
  0
LWPOLYLINE
  5
7DE1B343D9E0188
330
7DE1B343D9E0214
100
AcDbEntity
  8
TEXT
100
AcDbPolyline
 90
        2
 70
     0
 43
0.0006660908203125
 10
0.4183607338487039
 20
-0.2167167064842456
 10
0.4183607338487039
 20
-0.1900730736717446
  0
LINE
  5
7DE1B343D9E018C
330
7DE1B343D9E0214
100
AcDbEntity
  8
TEXT
100
AcDbLine
 10
0.9722047329341187
 20
-0.1900730736717481
 30
0.0
 11
0.7964729800356066
 21
-0.1900730736717481
 31
0.0
  0
LINE
  5
7DE1B343D9E018D
330
7DE1B343D9E0214
100
AcDbEntity
  8
TEXT
100
AcDbLine
 10
0.9722047329341187
 20
-0.15568515607761
 30
0.0
 11
0.9722047329341187
 21
-0.1900730736717481
 31
0.0
  0
LINE
  5
7DE1B343D9E018E
330
7DE1B343D9E0214
100
AcDbEntity
  8
TEXT
100
AcDbLine
 10
1.162676624953971
 20
-0.2909450697848687
 30
0.0
 11
1.104046303922033
 21
-0.1900730736717481
 31
0.0
  0
LINE
  5
7DE1B343D9E018F
330
7DE1B343D9E0214
100
AcDbEntity
  8
TEXT
100
AcDbLine
 10
1.221425187759836
 20
-0.1900730736717481
 30
0.0
 11
1.162676624953971
 21
-0.2909450697848687
 31
0.0
  0
LINE
  5
7DE1B343D9E0190
330
7DE1B343D9E0214
100
AcDbEntity
  8
TEXT
100
AcDbLine
 10
1.318355813119577
 20
-0.3741582685572599
 30
0.0
 11
1.318355813119577
 21
-0.1220615959329376
 31
0.0
  0
LINE
  5
7DE1B343D9E0191
330
7DE1B343D9E0214
100
AcDbEntity
  8
TEXT
100
AcDbLine
 10
1.350667667257237
 20
-0.1900730736717481
 30
0.0
 11
1.350667667257237
 21
-0.3909372804041564
 31
0.0
  0
LINE
  5
7DE1B343D9E0192
330
7DE1B343D9E0214
100
AcDbEntity
  8
TEXT
100
AcDbLine
 10
1.350667667257237
 20
-0.3909372804041564
 30
0.0
 11
1.333674030372636
 21
-0.3909372804041564
 31
0.0
  0
LINE
  5
7DE1B343D9E0193
330
7DE1B343D9E0214
100
AcDbEntity
  8
TEXT
100
AcDbLine
 10
1.319495386615772
 20
-0.4565461066602591
 30
0.0
 11
1.417498720315207
 21
-0.4565461066602591
 31
0.0
  0
LINE
  5
7DE1B343D9E0194
330
7DE1B343D9E0214
100
AcDbEntity
  8
TEXT
100
AcDbLine
 10
1.153076387957016
 20
-0.4365876005552462
 30
0.0
 11
1.250376094050461
 21
-0.2722373896199781
 31
0.0
  0
ARC
  5
7DE1B343D9E0195
330
7DE1B343D9E0214
100
AcDbEntity
  8
TEXT
100
AcDbCircle
 10
1.119032828044802
 20
-0.4169983843865634
 30
0.0
 40
0.0392772371940762
100
AcDbArc
 50
270.1604552698595
 51
330.0831797321295
  0
LINE
  5
7DE1B343D9E0196
330
7DE1B343D9E0214
100
AcDbEntity
  8
TEXT
100
AcDbLine
 10
1.022502571658931
 20
-0.4565461066602591
 30
0.0
 11
1.119142822733925
 21
-0.4562754675619768
 31
0.0
  0
LWPOLYLINE
  5
7DE1B343D9E0197
330
7DE1B343D9E0214
100
AcDbEntity
  8
TEXT
100
AcDbPolyline
 90
        6
 70
     1
 43
0.0
 10
1.065026375234081
 20
-0.2543497683285136
 10
1.034709781013873
 20
-0.2543497683285136
 10
1.034709781013873
 20
-0.3774607663834079
 42
0.407328721240804
 10
1.046253432175349
 20
-0.389279681059794
 10
1.10687513122008
 20
-0.389279681059794
 10
1.124340471627398
 20
-0.3564674520163149
  0
LINE
  5
7DE1B343D9E019F
330
7DE1B343D9E0214
100
AcDbEntity
  8
TEXT
100
AcDbLine
 10
1.250376094050461
 20
-0.2722373896199781
 30
0.0
 11
1.250376094050461
 21
-0.4049947644453344
 31
0.0
  0
ARC
  5
7DE1B343D9E01A0
330
7DE1B343D9E0214
100
AcDbEntity
  8
TEXT
100
AcDbCircle
 10
1.333674030372634
 20
-0.3755554741607309
 30
0.0
 40
0.0153818062434269
100
AcDbArc
 50
174.7883570302258
 51
270.0
  0
LWPOLYLINE
  5
7DE1B343D9E01A1
330
7DE1B343D9E0214
100
AcDbEntity
  8
TEXT
100
AcDbPolyline
 90
        2
 70
     0
 43
0.0
 10
1.250376094050459
 20
-0.4049947644453308
 42
0.3318488747599744
 10
1.319495386615772
 20
-0.4565461066602591
 42
-6.868794160588311
  0
LINE
  5
7DE1B343D9E01A5
330
7DE1B343D9E0214
100
AcDbEntity
  8
TEXT
100
AcDbLine
 10
1.474887789304468
 20
-0.4565461066602591
 30
0.0
 11
1.541945836086308
 21
-0.4565461066602591
 31
0.0
  0
LINE
  5
7DE1B343D9E01A6
330
7DE1B343D9E0214
100
AcDbEntity
  8
TEXT
100
AcDbLine
 10
1.474887789304468
 20
-0.2619035574946235
 30
0.0
 11
1.474887789304468
 21
-0.4565461066602591
 31
0.0
  0
LINE
  5
7DE1B343D9E01A7
330
7DE1B343D9E0214
100
AcDbEntity
  8
TEXT
100
AcDbLine
 10
1.417498720315207
 20
-0.2543497683285136
 30
0.0
 11
1.467334000138354
 21
-0.2543497683285136
 31
0.0
  0
LINE
  5
7DE1B343D9E01A8
330
7DE1B343D9E0214
100
AcDbEntity
  8
TEXT
100
AcDbLine
 10
1.417498720315207
 20
-0.4565461066602591
 30
0.0
 11
1.417498720315207
 21
-0.2543497683285136
 31
0.0
  0
LWPOLYLINE
  5
7DE1B343D9E01A9
330
7DE1B343D9E0214
100
AcDbEntity
  8
TEXT
100
AcDbPolyline
 90
        2
 70
     0
 43
0.0
 10
1.467334000138353
 20
-0.2543497683285136
 42
-0.4142135623731017
 10
1.474887789304466
 20
-0.2619035574946235
 42
-0.9999999999999998
  0
LINE
  5
7DE1B343D9E01AD
330
7DE1B343D9E0214
100
AcDbEntity
  8
TEXT
100
AcDbLine
 10
1.673144000916038
 20
-0.2543497683285136
 30
0.0
 11
1.673144000916038
 21
-0.3294021744027202
 31
0.0
  0
LINE
  5
7DE1B343D9E01AE
330
7DE1B343D9E0214
100
AcDbEntity
  8
TEXT
100
AcDbLine
 10
1.541945836086308
 20
-0.2543497683285136
 30
0.0
 11
1.596079433007258
 21
-0.2543497683285136
 31
0.0
  0
LINE
  5
7DE1B343D9E01AF
330
7DE1B343D9E0214
100
AcDbEntity
  8
TEXT
100
AcDbLine
 10
1.541945836086308
 20
-0.4565461066602591
 30
0.0
 11
1.541945836086308
 21
-0.2543497683285136
 31
0.0
  0
LWPOLYLINE
  5
7DE1B343D9E01B0
330
7DE1B343D9E0214
100
AcDbEntity
  8
TEXT
100
AcDbPolyline
 90
        2
 70
     0
 43
0.0
 10
1.596079433007256
 20
-0.2543497683285136
 42
-0.4142135623731017
 10
1.60363322217337
 20
-0.2619035574946235
 42
-0.9999999999999998
  0
LWPOLYLINE
  5
7DE1B343D9E01B4
330
7DE1B343D9E0214
100
AcDbEntity
  8
TEXT
100
AcDbPolyline
 90
        4
 70
     0
 43
0.0
 10
1.60363322217337
 20
-0.2619035574946235
 10
1.60363322217337
 20
-0.4565461066602591
 10
1.672111505461228
 20
-0.4565461066602591
 10
1.672111505461228
 20
-0.413055161709821
 42
-1.714843617202739
  0
LINE
  5
7DE1B343D9E01BA
330
7DE1B343D9E0214
100
AcDbEntity
  8
TEXT
100
AcDbLine
 10
1.032247337778125
 20
-0.1900730736717481
 30
0.0
 11
1.032247337778125
 21
-0.15568515607761
 31
0.0
  0
LINE
  5
7DE1B343D9E01BB
330
7DE1B343D9E0214
100
AcDbEntity
  8
TEXT
100
AcDbLine
 10
1.104046303922033
 20
-0.1900730736717481
 30
0.0
 11
1.032247337778125
 21
-0.1900730736717481
 31
0.0
  0
LINE
  5
7DE1B343D9E01BC
330
7DE1B343D9E0214
100
AcDbEntity
  8
TEXT
100
AcDbLine
 10
1.251547100553212
 20
-0.1900730736717481
 30
0.0
 11
1.221425187759836
 21
-0.1900730736717481
 31
0.0
  0
LINE
  5
7DE1B343D9E01BD
330
7DE1B343D9E0214
100
AcDbEntity
  8
TEXT
100
AcDbLine
 10
1.251547100553212
 20
-0.1220615959329376
 30
0.0
 11
1.251547100553212
 21
-0.1900730736717481
 31
0.0
  0
LINE
  5
7DE1B343D9E01BE
330
7DE1B343D9E0214
100
AcDbEntity
  8
TEXT
100
AcDbLine
 10
1.318355813119577
 20
-0.1220615959329376
 30
0.0
 11
1.251547100553212
 21
-0.1220615959329376
 31
0.0
  0
LWPOLYLINE
  5
7DE1B343D9E01BF
330
7DE1B343D9E0214
100
AcDbEntity
  8
TEXT
100
AcDbPolyline
 90
        3
 70
     0
 43
0.0
 10
1.63876757271758
 20
-0.1900730736717446
 10
1.520467413901535
 20
-0.1900730736717446
 10
1.520467413901535
 20
-0.2172405704326405
 42
-1.960274751411753
  0
LINE
  5
7DE1B343D9E01C4
330
7DE1B343D9E0214
100
AcDbEntity
  8
TEXT
100
AcDbLine
 10
1.484685723188374
 20
-0.1900730736717481
 30
0.0
 11
1.350667667257237
 21
-0.1900730736717481
 31
0.0
  0
LWPOLYLINE
  5
7DE1B343D9E01C5
330
7DE1B343D9E0214
100
AcDbEntity
  8
TEXT
100
AcDbPolyline
 90
        2
 70
     0
 43
0.0
 10
1.484685723188374
 20
-0.1900730736717446
 42
-0.3328679258950098
 10
1.520467413901535
 20
-0.2172405704326405
 42
6.772930709997214
  0
LINE
  5
7DE1B343D9E01C9
330
7DE1B343D9E0214
100
AcDbEntity
  8
TEXT
100
AcDbLine
 10
1.674549263430746
 20
-0.1900730736717481
 30
0.0
 11
1.674549263430746
 21
-0.218395619441392
 31
0.0
  0
LWPOLYLINE
  5
7DE1B343D9E01CA
330
7DE1B343D9E0214
100
AcDbEntity
  8
TEXT
100
AcDbPolyline
 90
        2
 70
     0
 43
0.0
 10
1.63876757271758
 20
-0.1900730736717446
 42
-0.3277054968067132
 10
1.674549263430745
 20
-0.2183956194413885
 42
6.667889725900311
  0
LINE
  5
7DE1B343D9E01CE
330
7DE1B343D9E0214
100
AcDbEntity
  8
TEXT
100
AcDbLine
 10
1.888341111522846
 20
-0.2952850522251755
 30
0.0
 11
1.844590340340945
 21
-0.2130347762290303
 31
0.0
  0
LINE
  5
7DE1B343D9E01CF
330
7DE1B343D9E0214
100
AcDbEntity
  8
TEXT
100
AcDbLine
 10
1.888341111522846
 20
-0.1900730736717481
 30
0.0
 11
1.888341111522846
 21
-0.2952850522251755
 31
0.0
  0
LINE
  5
7DE1B343D9E01D0
330
7DE1B343D9E0214
100
AcDbEntity
  8
TEXT
100
AcDbLine
 10
2.116024850461216
 20
-0.2659384000832862
 30
0.0
 11
2.116024850461216
 21
-0.1246088679041474
 31
0.0
  0
LINE
  5
7DE1B343D9E01D1
330
7DE1B343D9E0214
100
AcDbEntity
  8
TEXT
100
AcDbLine
 10
2.1631230090172
 20
-0.1900730736717481
 30
0.0
 11
2.116024850461216
 21
-0.2659384000832862
 31
0.0
  0
LINE
  5
7DE1B343D9E01D2
330
7DE1B343D9E0214
100
AcDbEntity
  8
TEXT
100
AcDbLine
 10
2.173557725781123
 20
-0.2999663166127217
 30
0.0
 11
2.238114841746828
 21
-0.1900730736717481
 31
0.0
  0
LINE
  5
7DE1B343D9E01D3
330
7DE1B343D9E0214
100
AcDbEntity
  8
TEXT
100
AcDbLine
 10
2.052189859238442
 20
-0.4565461066602591
 30
0.0
 11
2.116568043557063
 21
-0.4565461066602591
 31
0.0
  0
LWPOLYLINE
  5
7DE1B343D9E01D4
330
7DE1B343D9E0214
100
AcDbEntity
  8
TEXT
100
AcDbPolyline
 90
        2
 70
     0
 43
0.0
 10
1.892280788827884
 20
-0.413055161709821
 42
-0.2901071551932486
 10
1.84920485596024
 20
-0.4565461066602591
 42
-5.328517124445184
  0
ARC
  5
7DE1B343D9E01D8
330
7DE1B343D9E0214
100
AcDbEntity
  8
TEXT
100
AcDbCircle
 10
1.780350274303325
 20
-0.2827091433285109
 30
0.0
 40
0.028359375
100
AcDbArc
 50
25.78218179591245
 51
90.0
  0
LINE
  5
7DE1B343D9E01D9
330
7DE1B343D9E0214
100
AcDbEntity
  8
TEXT
100
AcDbLine
 10
1.816151349607448
 20
-0.2916247417906459
 30
0.0
 11
1.805886589193884
 21
-0.2703742022179516
 31
0.0
  0
LINE
  5
7DE1B343D9E01DA
330
7DE1B343D9E0214
100
AcDbEntity
  8
TEXT
100
AcDbLine
 10
1.733863359824065
 20
-0.2916247417906459
 30
0.0
 11
1.816151349607448
 21
-0.2916247417906459
 31
0.0
  0
LWPOLYLINE
  5
7DE1B343D9E01DB
330
7DE1B343D9E0214
100
AcDbEntity
  8
TEXT
100
AcDbPolyline
 90
        4
 70
     1
 43
0.0
 10
1.829082390890347
 20
-0.3535821286762339
 10
1.740422072230489
 20
-0.3535821286762339
 42
0.9999999999999998
 10
1.740422072230489
 20
-0.3959806691800946
 10
1.829082390890347
 20
-0.3959806691800946
 42
1.0
  0
LWPOLYLINE
  5
7DE1B343D9E01E1
330
7DE1B343D9E0214
100
AcDbEntity
  8
TEXT
100
AcDbPolyline
 90
        2
 70
     0
 43
0.0
 10
1.715187438328863
 20
-0.4565461066602591
 10
1.84920485596024
 20
-0.4565461066602591
 42
0.9999999999999998
  0
LINE
  5
7DE1B343D9E01E5
330
7DE1B343D9E0214
100
AcDbEntity
  8
TEXT
100
AcDbLine
 10
1.975541877945879
 20
-0.2543497683285136
 30
0.0
 11
2.052189859238437
 21
-0.2543497683285136
 31
0.0
  0
LINE
  5
7DE1B343D9E01E6
330
7DE1B343D9E0214
100
AcDbEntity
  8
TEXT
100
AcDbLine
 10
2.052189859238437
 20
-0.2543497683285136
 30
0.0
 11
2.052189859238442
 21
-0.4565461066602591
 31
0.0
  0
ARC
  5
7DE1B343D9E01E7
330
7DE1B343D9E0214
100
AcDbEntity
  8
TEXT
100
AcDbCircle
 10
1.975541877945877
 20
-0.2792556436111763
 30
0.0
 40
0.0249058752826653
100
AcDbArc
 50
89.99971217465335
 51
179.9999999999985
  0
LINE
  5
7DE1B343D9E01E8
330
7DE1B343D9E0214
100
AcDbEntity
  8
TEXT
100
AcDbLine
 10
1.95063600266322
 20
-0.4565461066602591
 30
0.0
 11
1.950636002663215
 21
-0.2792556012287907
 31
0.0
  0
LWPOLYLINE
  5
7DE1B343D9E01E9
330
7DE1B343D9E0214
100
AcDbEntity
  8
TEXT
100
AcDbPolyline
 90
        2
 70
     0
 43
0.0
 10
1.892280788827884
 20
-0.4565461066602591
 10
1.950636002663218
 20
-0.4565461066602591
  0
LWPOLYLINE
  5
7DE1B343D9E01ED
330
7DE1B343D9E0214
100
AcDbEntity
  8
TEXT
100
AcDbPolyline
 90
        2
 70
     0
 43
0.0
 10
1.892280788827884
 20
-0.413055161709821
 10
1.892280788827884
 20
-0.4565461066602591
  0
LINE
  5
7DE1B343D9E01F1
330
7DE1B343D9E0214
100
AcDbEntity
  8
TEXT
100
AcDbLine
 10
2.269049949144733
 20
-0.4565461066602591
 30
0.0
 11
2.173557725781123
 21
-0.2999663166127217
 31
0.0
  0
LINE
  5
7DE1B343D9E01F2
330
7DE1B343D9E0214
100
AcDbEntity
  8
TEXT
100
AcDbLine
 10
2.192471576768527
 20
-0.4565461066602591
 30
0.0
 11
2.269049949144733
 21
-0.4565461066602591
 31
0.0
  0
LINE
  5
7DE1B343D9E01F3
330
7DE1B343D9E0214
100
AcDbEntity
  8
TEXT
100
AcDbLine
 10
2.116568043557063
 20
-0.3249665381840789
 30
0.0
 11
2.192471576768527
 21
-0.4565461066602591
 31
0.0
  0
LINE
  5
7DE1B343D9E01F4
330
7DE1B343D9E0214
100
AcDbEntity
  8
TEXT
100
AcDbLine
 10
2.116568043557063
 20
-0.4565461066602591
 30
0.0
 11
2.116568043557063
 21
-0.3249665381840789
 31
0.0
  0
LINE
  5
7DE1B343D9E01F5
330
7DE1B343D9E0214
100
AcDbEntity
  8
TEXT
100
AcDbLine
 10
2.116024850461216
 20
-0.1246088679041474
 30
0.0
 11
2.047709971911942
 21
-0.1246088679041474
 31
0.0
  0
ARC
  5
7DE1B343D9E01F6
330
7DE1B343D9E0214
100
AcDbEntity
  8
TEXT
100
AcDbCircle
 10
1.807354232870736
 20
-0.2316566407926505
 30
0.0
 40
0.0416329381542859
100
AcDbArc
 50
26.56974201007528
 51
87.20939649401342
  0
LINE
  5
7DE1B343D9E01F7
330
7DE1B343D9E0214
100
AcDbEntity
  8
TEXT
100
AcDbLine
 10
1.952238017822347
 20
-0.1900730736717481
 30
0.0
 11
1.888341111522846
 21
-0.1900730736717481
 31
0.0
  0
LINE
  5
7DE1B343D9E01F8
330
7DE1B343D9E0214
100
AcDbEntity
  8
TEXT
100
AcDbLine
 10
1.952238017822347
 20
-0.2176207235326228
 30
0.0
 11
1.952238017822347
 21
-0.1900730736717481
 31
0.0
  0
ARC
  5
7DE1B343D9E01F9
330
7DE1B343D9E0214
100
AcDbEntity
  8
TEXT
100
AcDbCircle
 10
1.983430834885455
 20
-0.221318800954013
 30
0.0
 40
0.0314112657011332
100
AcDbArc
 50
95.88484768694724
 51
173.2388340632136
  0
LINE
  5
7DE1B343D9E01FA
330
7DE1B343D9E0214
100
AcDbEntity
  8
TEXT
100
AcDbLine
 10
2.047709971911937
 20
-0.1900730736717481
 30
0.0
 11
1.98021025426242
 21
-0.1900730736717481
 31
0.0
  0
LINE
  5
7DE1B343D9E01FB
330
7DE1B343D9E0214
100
AcDbEntity
  8
TEXT
100
AcDbLine
 10
2.047709971911942
 20
-0.1246088679041474
 30
0.0
 11
2.047709971911937
 21
-0.1900730736717481
 31
0.0
  0
LINE
  5
7DE1B343D9E01FC
330
7DE1B343D9E0214
100
AcDbEntity
  8
TEXT
100
AcDbLine
 10
2.238114841746828
 20
-0.1900730736717481
 30
0.0
 11
2.163123009017202
 21
-0.1900730736717481
 31
0.0
  0
ENDSEC
  0
SECTION
  2
OBJECTS
  0
DICTIONARY
  5
7DE1B343D9E0208
330
0
100
AcDbDictionary
  3
ACAD_GROUP
350
7DE1B343D9E0209
  3
ACAD_LAYOUT
350
7DE1B343D9E022E
  3
ACAD_MLINESTYLE
350
7DE1B343D9E020A
  3
ACAD_PLOTSETTINGS
350
7DE1B343D9E022F
  3
ACAD_PLOTSTYLENAME
350
7DE1B343D9E022C
  3
ACDBHEADERROUNDTRIPXREC
350
7DE1B343D9E0239
  3
ACDBVARIABLEDICTIONARY
350
7DE1B343D9E0236
  0
DICTIONARY
  5
7DE1B343D9E025B
330
7DE1B343D9E0214
100
AcDbDictionary
280
     1
  3
ACAD_LAYOUTSELFREF
360
7DE1B343D9E025C
  0
DICTIONARY
  5
7DE1B343D9E0259
330
7DE1B343D9E0211
100
AcDbDictionary
280
     1
  3
ACAD_LAYOUTSELFREF
360
7DE1B343D9E025A
  0
DICTIONARY
  5
7DE1B343D9E0209
102
{ACAD_REACTORS
330
7DE1B343D9E0208
102
}
330
7DE1B343D9E0208
100
AcDbDictionary
  0
DICTIONARY
  5
7DE1B343D9E022E
102
{ACAD_REACTORS
330
7DE1B343D9E0208
102
}
330
7DE1B343D9E0208
100
AcDbDictionary
  0
DICTIONARY
  5
7DE1B343D9E020A
102
{ACAD_REACTORS
330
7DE1B343D9E0208
102
}
330
7DE1B343D9E0208
100
AcDbDictionary
  3
STANDARD
350
7DE1B343D9E0217
  0
DICTIONARY
  5
7DE1B343D9E022F
102
{ACAD_REACTORS
330
7DE1B343D9E0208
102
}
330
7DE1B343D9E0208
100
AcDbDictionary
  0
ACDBDICTIONARYWDFLT
  5
7DE1B343D9E022C
102
{ACAD_REACTORS
330
7DE1B343D9E0208
102
}
330
7DE1B343D9E0208
100
AcDbDictionary
281
     1
  3
Normal
350
7DE1B343D9E022D
100
AcDbDictionaryWithDefault
340
7DE1B343D9E022D
  0
DICTIONARY
  5
7DE1B343D9E0239
102
{ACAD_REACTORS
330
7DE1B343D9E0208
102
}
330
7DE1B343D9E0208
100
AcDbDictionary
  3
CEPSNTYPE
350
7DE1B343D9E0243
  3
FINGERPRINTGUID
350
7DE1B343D9E0244
  3
HYPERLINKBASE
350
7DE1B343D9E023C
  3
INSUNITS
350
7DE1B343D9E0242
  3
LAYOUTDICT
350
7DE1B343D9E023E
  3
LWETCUNION
350
7DE1B343D9E0241
  3
PLOTSETDICT
350
7DE1B343D9E023F
  3
PLOTSTYLNAMDICT
350
7DE1B343D9E0240
  3
PSVPSCALE
350
7DE1B343D9E0246
  3
PUCSBASE
350
7DE1B343D9E0249
  3
PUCSORGBACK
350
7DE1B343D9E024F
  3
PUCSORGBOTTOM
350
7DE1B343D9E024B
  3
PUCSORGFRONT
350
7DE1B343D9E024E
  3
PUCSORGLEFT
350
7DE1B343D9E024C
  3
PUCSORGRIGHT
350
7DE1B343D9E024D
  3
PUCSORGTOP
350
7DE1B343D9E024A
  3
PUCSORTHOREF
350
7DE1B343D9E0247
  3
PUCSORTHOVIEW
350
7DE1B343D9E0248
  3
STYLESHEET
350
7DE1B343D9E023D
  3
TSTACKALIGN
350
7DE1B343D9E023A
  3
TSTACKSIZE
350
7DE1B343D9E023B
  3
UCSBASE
350
7DE1B343D9E0252
  3
UCSORGBACK
350
7DE1B343D9E0258
  3
UCSORGBOTTOM
350
7DE1B343D9E0254
  3
UCSORGFRONT
350
7DE1B343D9E0257
  3
UCSORGLEFT
350
7DE1B343D9E0255
  3
UCSORGRIGHT
350
7DE1B343D9E0256
  3
UCSORGTOP
350
7DE1B343D9E0253
  3
UCSORTHOREF
350
7DE1B343D9E0250
  3
UCSORTHOVIEW
350
7DE1B343D9E0251
  3
VERSIONGUID
350
7DE1B343D9E0245
  0
DICTIONARY
  5
7DE1B343D9E0236
102
{ACAD_REACTORS
330
7DE1B343D9E0208
102
}
330
7DE1B343D9E0208
100
AcDbDictionary
  3
DIMASSOC
350
7DE1B343D9E0237
  0
XRECORD
  5
7DE1B343D9E025C
102
{ACAD_REACTORS
330
7DE1B343D9E025B
102
}
330
7DE1B343D9E025B
100
AcDbXrecord
340
7DE1B343D9E0214
  0
XRECORD
  5
7DE1B343D9E025A
102
{ACAD_REACTORS
330
7DE1B343D9E0259
102
}
330
7DE1B343D9E0259
100
AcDbXrecord
340
7DE1B343D9E0211
  0
MLINESTYLE
  5
7DE1B343D9E0217
102
{ACAD_REACTORS
330
7DE1B343D9E020A
102
}
330
7DE1B343D9E020A
100
AcDbMlineStyle
  2
STANDARD
 70
     0
  3

 62
     0
 51
90.0
 52
90.0
 71
     2
 49
0.5
 62
   256
  6
BYLAYER
 49
-0.5
 62
   256
  6
BYLAYER
  0
ACDBPLACEHOLDER
  5
7DE1B343D9E022D
102
{ACAD_REACTORS
330
7DE1B343D9E022C
102
}
330
7DE1B343D9E022C
100
AcDbPlaceHolder
280
     0
  0
XRECORD
  5
7DE1B343D9E0243
102
{ACAD_REACTORS
330
7DE1B343D9E0239
102
}
330
7DE1B343D9E0239
100
AcDbXrecord
 90
        0
  0
XRECORD
  5
7DE1B343D9E0244
102
{ACAD_REACTORS
330
7DE1B343D9E0239
102
}
330
7DE1B343D9E0239
100
AcDbXrecord
  1
{9374FC60-8DB6-11D6-88E6-0090279574E7}
  0
XRECORD
  5
7DE1B343D9E023C
102
{ACAD_REACTORS
330
7DE1B343D9E0239
102
}
330
7DE1B343D9E0239
100
AcDbXrecord
  1

  0
XRECORD
  5
7DE1B343D9E0242
102
{ACAD_REACTORS
330
7DE1B343D9E0239
102
}
330
7DE1B343D9E0239
100
AcDbXrecord
 90
        0
  0
XRECORD
  5
7DE1B343D9E023E
102
{ACAD_REACTORS
330
7DE1B343D9E0239
102
}
330
7DE1B343D9E0239
100
AcDbXrecord
340
7DE1B343D9E022E
  0
XRECORD
  5
7DE1B343D9E0241
102
{ACAD_REACTORS
330
7DE1B343D9E0239
102
}
330
7DE1B343D9E0239
100
AcDbXrecord
 90
    14877
  0
XRECORD
  5
7DE1B343D9E023F
102
{ACAD_REACTORS
330
7DE1B343D9E0239
102
}
330
7DE1B343D9E0239
100
AcDbXrecord
340
7DE1B343D9E022F
  0
XRECORD
  5
7DE1B343D9E0240
102
{ACAD_REACTORS
330
7DE1B343D9E0239
102
}
330
7DE1B343D9E0239
100
AcDbXrecord
340
7DE1B343D9E022C
  0
XRECORD
  5
7DE1B343D9E0246
102
{ACAD_REACTORS
330
7DE1B343D9E0239
102
}
330
7DE1B343D9E0239
100
AcDbXrecord
 40
0.0
  0
XRECORD
  5
7DE1B343D9E0249
102
{ACAD_REACTORS
330
7DE1B343D9E0239
102
}
330
7DE1B343D9E0239
100
AcDbXrecord
340
0
  0
XRECORD
  5
7DE1B343D9E024F
102
{ACAD_REACTORS
330
7DE1B343D9E0239
102
}
330
7DE1B343D9E0239
100
AcDbXrecord
 10
0.0
 20
0.0
 30
0.0
  0
XRECORD
  5
7DE1B343D9E024B
102
{ACAD_REACTORS
330
7DE1B343D9E0239
102
}
330
7DE1B343D9E0239
100
AcDbXrecord
 10
0.0
 20
0.0
 30
0.0
  0
XRECORD
  5
7DE1B343D9E024E
102
{ACAD_REACTORS
330
7DE1B343D9E0239
102
}
330
7DE1B343D9E0239
100
AcDbXrecord
 10
0.0
 20
0.0
 30
0.0
  0
XRECORD
  5
7DE1B343D9E024C
102
{ACAD_REACTORS
330
7DE1B343D9E0239
102
}
330
7DE1B343D9E0239
100
AcDbXrecord
 10
0.0
 20
0.0
 30
0.0
  0
XRECORD
  5
7DE1B343D9E024D
102
{ACAD_REACTORS
330
7DE1B343D9E0239
102
}
330
7DE1B343D9E0239
100
AcDbXrecord
 10
0.0
 20
0.0
 30
0.0
  0
XRECORD
  5
7DE1B343D9E024A
102
{ACAD_REACTORS
330
7DE1B343D9E0239
102
}
330
7DE1B343D9E0239
100
AcDbXrecord
 10
0.0
 20
0.0
 30
0.0
  0
XRECORD
  5
7DE1B343D9E0247
102
{ACAD_REACTORS
330
7DE1B343D9E0239
102
}
330
7DE1B343D9E0239
100
AcDbXrecord
340
0
  0
XRECORD
  5
7DE1B343D9E0248
102
{ACAD_REACTORS
330
7DE1B343D9E0239
102
}
330
7DE1B343D9E0239
100
AcDbXrecord
 70
     0
  0
XRECORD
  5
7DE1B343D9E023D
102
{ACAD_REACTORS
330
7DE1B343D9E0239
102
}
330
7DE1B343D9E0239
100
AcDbXrecord
  1

  0
XRECORD
  5
7DE1B343D9E023A
102
{ACAD_REACTORS
330
7DE1B343D9E0239
102
}
330
7DE1B343D9E0239
100
AcDbXrecord
 90
        1
  0
XRECORD
  5
7DE1B343D9E023B
102
{ACAD_REACTORS
330
7DE1B343D9E0239
102
}
330
7DE1B343D9E0239
100
AcDbXrecord
 90
       70
  0
XRECORD
  5
7DE1B343D9E0252
102
{ACAD_REACTORS
330
7DE1B343D9E0239
102
}
330
7DE1B343D9E0239
100
AcDbXrecord
340
0
  0
XRECORD
  5
7DE1B343D9E0258
102
{ACAD_REACTORS
330
7DE1B343D9E0239
102
}
330
7DE1B343D9E0239
100
AcDbXrecord
 10
0.0
 20
0.0
 30
0.0
  0
XRECORD
  5
7DE1B343D9E0254
102
{ACAD_REACTORS
330
7DE1B343D9E0239
102
}
330
7DE1B343D9E0239
100
AcDbXrecord
 10
0.0
 20
0.0
 30
0.0
  0
XRECORD
  5
7DE1B343D9E0257
102
{ACAD_REACTORS
330
7DE1B343D9E0239
102
}
330
7DE1B343D9E0239
100
AcDbXrecord
 10
0.0
 20
0.0
 30
0.0
  0
XRECORD
  5
7DE1B343D9E0255
102
{ACAD_REACTORS
330
7DE1B343D9E0239
102
}
330
7DE1B343D9E0239
100
AcDbXrecord
 10
0.0
 20
0.0
 30
0.0
  0
XRECORD
  5
7DE1B343D9E0256
102
{ACAD_REACTORS
330
7DE1B343D9E0239
102
}
330
7DE1B343D9E0239
100
AcDbXrecord
 10
0.0
 20
0.0
 30
0.0
  0
XRECORD
  5
7DE1B343D9E0253
102
{ACAD_REACTORS
330
7DE1B343D9E0239
102
}
330
7DE1B343D9E0239
100
AcDbXrecord
 10
0.0
 20
0.0
 30
0.0
  0
XRECORD
  5
7DE1B343D9E0250
102
{ACAD_REACTORS
330
7DE1B343D9E0239
102
}
330
7DE1B343D9E0239
100
AcDbXrecord
340
0
  0
XRECORD
  5
7DE1B343D9E0251
102
{ACAD_REACTORS
330
7DE1B343D9E0239
102
}
330
7DE1B343D9E0239
100
AcDbXrecord
 70
     0
  0
XRECORD
  5
7DE1B343D9E0245
102
{ACAD_REACTORS
330
7DE1B343D9E0239
102
}
330
7DE1B343D9E0239
100
AcDbXrecord
  1
{9374FC62-8DB6-11D6-88E6-0090279574E7}
  0
DICTIONARYVAR
  5
7DE1B343D9E0237
102
{ACAD_REACTORS
330
7DE1B343D9E0236
102
}
330
7DE1B343D9E0236
100
DictionaryVariables
280
     0
  1
1
  0
ENDSEC
  0
EOF
