  0
SECTION
  2
HEADER
  9
$ACADVER
  1
AC1014
  9
$ACADMAINTVER
 70
     9
  9
$DWGCODEPAGE
  3
ANSI_1252
  9
$INSBASE
 10
5.627460924940081
 20
4.821720879541408
 30
0.0
  9
$EXTMIN
 10
3.884479345712937
 20
4.062057013091909
 30
0.0
  9
$EXTMAX
 10
7.369698667460072
 20
6.071720879541408
 30
0.0
  9
$LIMMIN
 10
0.0
 20
0.0
  9
$LIMMAX
 10
18.0
 20
12.0
  9
$ORTHOMODE
 70
     1
  9
$REGENMODE
 70
     1
  9
$FILLMODE
 70
     1
  9
$QTEXTMODE
 70
     0
  9
$MIRRTEXT
 70
     0
  9
$DRAGMODE
 70
     2
  9
$LTSCALE
 40
1.0
  9
$OSMODE
 70
    39
  9
$ATTMODE
 70
     1
  9
$TEXTSIZE
 40
0.125
  9
$TRACEWID
 40
0.05
  9
$TEXTSTYLE
  7
ROMANS
  9
$CLAYER
  8
0
  9
$CELTYPE
  6
BYLAYER
  9
$CECOLOR
 62
   256
  9
$CELTSCALE
 40
1.0
  9
$DELOBJ
 70
     1
  9
$DISPSILH
 70
     1
  9
$DIMSCALE
 40
1.0
  9
$DIMASZ
 40
0.125
  9
$DIMEXO
 40
0.125
  9
$DIMDLI
 40
0.375
  9
$DIMRND
 40
0.0
  9
$DIMDLE
 40
0.0
  9
$DIMEXE
 40
0.125
  9
$DIMTP
 40
0.0
  9
$DIMTM
 40
0.0
  9
$DIMTXT
 40
0.125
  9
$DIMCEN
 40
-0.125
  9
$DIMTSZ
 40
0.0
  9
$DIMTOL
 70
     0
  9
$DIMLIM
 70
     0
  9
$DIMTIH
 70
     1
  9
$DIMTOH
 70
     1
  9
$DIMSE1
 70
     0
  9
$DIMSE2
 70
     0
  9
$DIMTAD
 70
     0
  9
$DIMZIN
 70
     4
  9
$DIMBLK
  1

  9
$DIMASO
 70
     1
  9
$DIMSHO
 70
     1
  9
$DIMPOST
  1

  9
$DIMAPOST
  1

  9
$DIMALT
 70
     0
  9
$DIMALTD
 70
     2
  9
$DIMALTF
 40
25.4
  9
$DIMLFAC
 40
1.0
  9
$DIMTOFL
 70
     0
  9
$DIMTVP
 40
0.0
  9
$DIMTIX
 70
     1
  9
$DIMSOXD
 70
     0
  9
$DIMSAH
 70
     0
  9
$DIMBLK1
  1

  9
$DIMBLK2
  1

  9
$DIMSTYLE
  2
STANDARD
  9
$DIMCLRD
 70
     0
  9
$DIMCLRE
 70
     0
  9
$DIMCLRT
 70
     0
  9
$DIMTFAC
 40
1.0
  9
$DIMGAP
 40
0.09
  9
$DIMJUST
 70
     0
  9
$DIMSD1
 70
     0
  9
$DIMSD2
 70
     0
  9
$DIMTOLJ
 70
     1
  9
$DIMTZIN
 70
     4
  9
$DIMALTZ
 70
     0
  9
$DIMALTTZ
 70
     0
  9
$DIMFIT
 70
     3
  9
$DIMUPT
 70
     0
  9
$DIMUNIT
 70
     2
  9
$DIMDEC
 70
     3
  9
$DIMTDEC
 70
     3
  9
$DIMALTU
 70
     2
  9
$DIMALTTD
 70
     2
  9
$DIMTXSTY
  7
ROMANS
  9
$DIMAUNIT
 70
     0
  9
$LUNITS
 70
     2
  9
$LUPREC
 70
     3
  9
$SKETCHINC
 40
0.1
  9
$FILLETRAD
 40
0.03125
  9
$AUNITS
 70
     0
  9
$AUPREC
 70
     0
  9
$MENU
  1
ACAD
  9
$ELEVATION
 40
0.0
  9
$PELEVATION
 40
0.0
  9
$THICKNESS
 40
0.0
  9
$LIMCHECK
 70
     0
  9
$BLIPMODE
 70
     0
  9
$CHAMFERA
 40
0.0
  9
$CHAMFERB
 40
0.0
  9
$CHAMFERC
 40
0.0
  9
$CHAMFERD
 40
0.0
  9
$SKPOLY
 70
     0
  9
$TDCREATE
 40
2448994.591995023
  9
$TDUPDATE
 40
2452458.308223611
  9
$TDINDWG
 40
0.0005860648
  9
$TDUSRTIMER
 40
0.0005860648
  9
$USRTIMER
 70
     1
  9
$ANGBASE
 50
0.0
  9
$ANGDIR
 70
     0
  9
$PDMODE
 70
     0
  9
$PDSIZE
 40
0.0
  9
$PLINEWID
 40
0.0
  9
$COORDS
 70
     2
  9
$SPLFRAME
 70
     0
  9
$SPLINETYPE
 70
     6
  9
$SPLINESEGS
 70
     8
  9
$ATTDIA
 70
     0
  9
$ATTREQ
 70
     1
  9
$HANDLING
 70
 22529
  9
$HANDSEED
  5
7DE1B343D9DFE33
  9
$SURFTAB1
 70
     6
  9
$SURFTAB2
 70
     6
  9
$SURFTYPE
 70
     6
  9
$SURFU
 70
     6
  9
$SURFV
 70
     6
  9
$UCSNAME
  2

  9
$UCSORG
 10
0.0
 20
0.0
 30
0.0
  9
$UCSXDIR
 10
1.0
 20
0.0
 30
0.0
  9
$UCSYDIR
 10
0.0
 20
1.0
 30
0.0
  9
$PUCSNAME
  2

  9
$PUCSORG
 10
0.0
 20
0.0
 30
0.0
  9
$PUCSXDIR
 10
1.0
 20
0.0
 30
0.0
  9
$PUCSYDIR
 10
0.0
 20
1.0
 30
0.0
  9
$USERI1
 70
     0
  9
$USERI2
 70
     0
  9
$USERI3
 70
     0
  9
$USERI4
 70
     0
  9
$USERI5
 70
     0
  9
$USERR1
 40
0.0
  9
$USERR2
 40
0.0
  9
$USERR3
 40
0.0
  9
$USERR4
 40
0.0
  9
$USERR5
 40
0.0
  9
$WORLDVIEW
 70
     1
  9
$SHADEDGE
 70
     3
  9
$SHADEDIF
 70
    70
  9
$TILEMODE
 70
     1
  9
$MAXACTVP
 70
    16
  9
$PINSBASE
 10
3.392823668662904
 20
50.00000000000001
 30
4.839771087279346
  9
$PLIMCHECK
 70
     0
  9
$PEXTMIN
 10
1.000000000000000E+20
 20
1.000000000000000E+20
 30
1.000000000000000E+20
  9
$PEXTMAX
 10
-1.000000000000000E+20
 20
-1.000000000000000E+20
 30
-1.000000000000000E+20
  9
$PLIMMIN
 10
0.0
 20
0.0
  9
$PLIMMAX
 10
12.0
 20
9.0
  9
$UNITMODE
 70
     0
  9
$VISRETAIN
 70
     0
  9
$PLINEGEN
 70
     1
  9
$PSLTSCALE
 70
     0
  9
$TREEDEPTH
 70
  3020
  9
$PICKSTYLE
 70
     1
  9
$CMLSTYLE
  2
STANDARD
  9
$CMLJUST
 70
     0
  9
$CMLSCALE
 40
1.0
  9
$PROXYGRAPHICS
 70
     1
  9
$MEASUREMENT
 70
     0
  0
ENDSEC
  0
SECTION
  2
CLASSES
  0
CLASS
  1
LWPOLYLINE
  2
AcDbPolyline
  3
AutoCAD 2000
 90
        0
280
     0
281
     1
  0
CLASS
  1
ACDBDICTIONARYWDFLT
  2
AcDbDictionaryWithDefault
  3
AutoCAD 2000
 90
        0
280
     0
281
     0
  0
CLASS
  1
ACDBPLACEHOLDER
  2
AcDbPlaceHolder
  3
AutoCAD 2000
 90
        0
280
     0
281
     0
  0
CLASS
  1
LAYOUT
  2
AcDbLayout
  3
AutoCAD 2000
 90
        0
280
     0
281
     0
  0
CLASS
  1
DICTIONARYVAR
  2
AcDbDictionaryVar
  3
AutoCAD 2000
 90
        0
280
     0
281
     0
  0
CLASS
  1
LONG_TRANSACTION
  2
AcDbLongTransaction
  3
AutoCAD 2000
 90
        0
280
     0
281
     0
  0
CLASS
  1
LWPOLYLINE
  2
AcDbPolyline
  3
AutoCAD 2000
 90
        0
280
     0
281
     1
  0
CLASS
  1
HATCH
  2
AcDbHatch
  3
AutoCAD 2000
 90
        0
280
     0
281
     1
  0
CLASS
  1
XRECORD
  2
AcDbXrecord
  3
AutoCAD 2000
 90
        0
280
     0
281
     0
  0
ENDSEC
  0
SECTION
  2
TABLES
  0
TABLE
  2
VPORT
  5
7DE1B343D9DFDDA
330
0
100
AcDbSymbolTable
 70
     2
  0
VPORT
  5
7DE1B343D9DFE0E
330
7DE1B343D9DFDDA
100
AcDbSymbolTableRecord
100
AcDbViewportTableRecord
  2
*ACTIVE
 70
     0
 10
0.0
 20
0.0
 11
1.0
 21
1.0
 12
8.602846947138051
 22
5.067077663572362
 13
0.0
 23
0.0
 14
0.015625
 24
0.015625
 15
0.0
 25
0.0
 16
0.0
 26
0.0
 36
1.0
 17
0.0
 27
0.0
 37
0.0
 40
2.282647215150728
 41
4.320930232558139
 42
50.0
 43
0.0
 44
0.0
 50
0.0
 51
0.0
 71
     0
 72
  2000
 73
     1
 74
     0
 75
     0
 76
     0
 77
     0
 78
     0
  0
ENDTAB
  0
TABLE
  2
LTYPE
  5
7DE1B343D9DFDD7
330
0
100
AcDbSymbolTable
 70
     1
  0
LTYPE
  5
7DE1B343D9DFDE4
330
7DE1B343D9DFDD7
100
AcDbSymbolTableRecord
100
AcDbLinetypeTableRecord
  2
BYBLOCK
 70
     0
  3

 72
    65
 73
     0
 40
0.0
  0
LTYPE
  5
7DE1B343D9DFDE5
330
7DE1B343D9DFDD7
100
AcDbSymbolTableRecord
100
AcDbLinetypeTableRecord
  2
BYLAYER
 70
     0
  3

 72
    65
 73
     0
 40
0.0
  0
LTYPE
  5
7DE1B343D9DFDE6
330
7DE1B343D9DFDD7
100
AcDbSymbolTableRecord
100
AcDbLinetypeTableRecord
  2
CONTINUOUS
 70
     0
  3
Solid line
 72
    65
 73
     0
 40
0.0
  0
ENDTAB
  0
TABLE
  2
LAYER
  5
7DE1B343D9DFDD4
330
0
100
AcDbSymbolTable
 70
     2
  0
LAYER
  5
7DE1B343D9DFDE1
330
7DE1B343D9DFDD4
100
AcDbSymbolTableRecord
100
AcDbLayerTableRecord
  2
0
 70
     0
 62
     7
  6
CONTINUOUS
  0
LAYER
  5
7DE1B343D9DFDF1
330
7DE1B343D9DFDD4
100
AcDbSymbolTableRecord
100
AcDbLayerTableRecord
  2
TEXT
 70
     0
 62
     3
  6
CONTINUOUS
  0
ENDTAB
  0
TABLE
  2
STYLE
  5
7DE1B343D9DFDD5
330
0
100
AcDbSymbolTable
 70
     3
  0
STYLE
  5
7DE1B343D9DFDE2
330
7DE1B343D9DFDD5
100
AcDbSymbolTableRecord
100
AcDbTextStyleTableRecord
  2
STANDARD
 70
     0
 40
0.0
 41
1.0
 50
0.0
 71
     0
 42
0.3125
  3
txt
  4

  0
STYLE
  5
7DE1B343D9DFDEE
330
7DE1B343D9DFDD5
100
AcDbSymbolTableRecord
100
AcDbTextStyleTableRecord
  2
ITALICC
 70
     0
 40
0.0
 41
1.0
 50
0.0
 71
     0
 42
0.125
  3
italicc
  4

  0
STYLE
  5
7DE1B343D9DFDFE
330
7DE1B343D9DFDD5
100
AcDbSymbolTableRecord
100
AcDbTextStyleTableRecord
  2
ROMANS
 70
     0
 40
0.0
 41
1.0
 50
0.0
 71
     0
 42
0.125
  3
romans.shx
  4

  0
ENDTAB
  0
TABLE
  2
VIEW
  5
7DE1B343D9DFDD8
330
0
100
AcDbSymbolTable
 70
     0
  0
ENDTAB
  0
TABLE
  2
UCS
  5
7DE1B343D9DFDD9
330
0
100
AcDbSymbolTable
 70
     0
  0
ENDTAB
  0
TABLE
  2
APPID
  5
7DE1B343D9DFDDB
330
0
100
AcDbSymbolTable
 70
     1
  0
APPID
  5
7DE1B343D9DFDE3
330
7DE1B343D9DFDDB
100
AcDbSymbolTableRecord
100
AcDbRegAppTableRecord
  2
ACAD
 70
     0
  0
ENDTAB
  0
TABLE
  2
DIMSTYLE
  5
7DE1B343D9DFDDC
330
0
100
AcDbSymbolTable
 70
     1
  0
DIMSTYLE
105
7DE1B343D9DFDF6
330
7DE1B343D9DFDDC
100
AcDbSymbolTableRecord
100
AcDbDimStyleTableRecord
  2
STANDARD
 70
     0
  3

  4

  5

  6

  7

 40
1.0
 41
0.125
 42
0.125
 43
0.375
 44
0.125
 45
0.0
 46
0.0
 47
0.0
 48
0.0
140
0.125
141
-0.125
142
0.0
143
25.4
144
1.0
145
0.0
146
1.0
147
0.09
 71
     0
 72
     0
 73
     1
 74
     1
 75
     0
 76
     0
 77
     0
 78
     4
170
     0
171
     2
172
     0
173
     0
174
     1
175
     0
176
     0
177
     0
178
     0
270
     2
271
     3
272
     3
273
     2
274
     2
340
7DE1B343D9DFDFE
275
     0
280
     0
281
     0
282
     0
283
     1
284
     4
285
     0
286
     0
287
     3
288
     0
  0
ENDTAB
  0
TABLE
  2
BLOCK_RECORD
  5
7DE1B343D9DFDD3
330
0
100
AcDbSymbolTable
 70
     0
  0
BLOCK_RECORD
  5
7DE1B343D9DFDEA
102
{ACAD_XDICTIONARY
360
7DE1B343D9DFE31
102
}
330
7DE1B343D9DFDD3
100
AcDbSymbolTableRecord
100
AcDbBlockTableRecord
  2
*MODEL_SPACE
  0
BLOCK_RECORD
  5
7DE1B343D9DFDE7
102
{ACAD_XDICTIONARY
360
7DE1B343D9DFE2F
102
}
330
7DE1B343D9DFDD3
100
AcDbSymbolTableRecord
100
AcDbBlockTableRecord
  2
*PAPER_SPACE
  0
ENDTAB
  0
ENDSEC
  0
SECTION
  2
BLOCKS
  0
BLOCK
  5
7DE1B343D9DFDF4
330
7DE1B343D9DFDEA
100
AcDbEntity
  8
0
100
AcDbBlockBegin
  2
*MODEL_SPACE
 70
     0
 10
0.0
 20
0.0
 30
0.0
  3
*MODEL_SPACE
  1

  0
ENDBLK
  5
7DE1B343D9DFDF5
330
7DE1B343D9DFDEA
100
AcDbEntity
  8
0
100
AcDbBlockEnd
  0
BLOCK
  5
7DE1B343D9DFDF2
330
7DE1B343D9DFDE7
100
AcDbEntity
 67
     1
  8
0
100
AcDbBlockBegin
  2
*PAPER_SPACE
 70
     0
 10
0.0
 20
0.0
 30
0.0
  3
*PAPER_SPACE
  1

  0
ENDBLK
  5
7DE1B343D9DFDF3
330
7DE1B343D9DFDE7
100
AcDbEntity
 67
     1
  8
0
100
AcDbBlockEnd
  0
ENDSEC
  0
SECTION
  2
ENTITIES
  0
LWPOLYLINE
  5
7DE1B343D9DE80E
330
7DE1B343D9DFDEA
100
AcDbEntity
  8
0
100
AcDbPolyline
 90
       15
 70
     1
 43
0.0
 10
4.80246092494008
 20
6.071720879541408
 10
4.80246092494008
 20
4.946720879541408
 10
4.61996092494008
 20
4.946720879541408
 10
4.61996092494008
 20
4.821720879541408
 10
6.63496092494008
 20
4.821720879541408
 10
6.63496092494008
 20
4.946720879541408
 10
6.452460924940081
 20
4.946720879541408
 10
6.452460924940081
 20
6.071720879541408
 10
6.327460924940081
 20
6.071720879541408
 10
6.327460924940081
 20
4.946720879541408
 10
5.63746092494008
 20
4.946720879541408
 10
5.627460924940081
 20
4.936720879541408
 10
5.61746092494008
 20
4.946720879541408
 10
4.92746092494008
 20
4.946720879541408
 10
4.92746092494008
 20
6.071720879541408
  0
TEXT
  5
7DE1B343D9DFC95
330
7DE1B343D9DFDEA
100
AcDbEntity
  8
TEXT
100
AcDbText
 10
4.87448473446389
 20
4.520075617174489
 30
0.0
 40
0.125
  1
PART #110358
  7
ITALICC
 72
     1
 11
5.627460924940081
 21
4.520075617174489
 31
0.0
100
AcDbText
  0
TEXT
  5
7DE1B343D9DFC96
330
7DE1B343D9DFDEA
100
AcDbEntity
  8
TEXT
100
AcDbText
 10
6.040766083190401
 20
4.073152974502114
 30
0.0
 40
0.0522247191011236
  1
Phone  1-800-328-2495
 41
1.272321428571429
 72
     5
 11
7.369698667460065
 21
4.073152974502114
 31
0.0
100
AcDbText
  0
TEXT
  5
7DE1B343D9DFC97
330
7DE1B343D9DFDEA
100
AcDbEntity
  8
TEXT
100
AcDbText
 10
6.040766083190401
 20
4.352928255400991
 30
0.0
 40
0.0522247191011236
  1
Stylmark  Incorporated
 41
1.221428571428573
 72
     5
 11
7.369698667460065
 21
4.352928255400991
 31
0.0
100
AcDbText
  0
TEXT
  5
7DE1B343D9DFC98
330
7DE1B343D9DFDEA
100
AcDbEntity
  8
TEXT
100
AcDbText
 10
6.040766083190401
 20
4.259669828434699
 30
0.0
 40
0.0522247191011236
  1
6536 Main St. N.E. * P.O. Box 32008
 41
0.8388932496075366
 72
     5
 11
7.369698667460065
 21
4.259669828434699
 31
0.0
100
AcDbText
  0
TEXT
  5
7DE1B343D9DFC99
330
7DE1B343D9DFDEA
100
AcDbEntity
  8
TEXT
100
AcDbText
 10
6.040766083190401
 20
4.166411401468407
 30
0.0
 40
0.0522247191011236
  1
Minneapolis, MN 55432-0008
 41
1.11444212721585
 72
     5
 11
7.369698667460065
 21
4.166411401468407
 31
0.0
100
AcDbText
  0
LWPOLYLINE
  5
7DE1B343D9DFC9A
330
7DE1B343D9DFDEA
100
AcDbEntity
  8
TEXT
100
AcDbPolyline
 90
        3
 70
     0
 43
0.0006660908203125
 10
3.884812391123094
 20
4.186797737139549
 10
3.884812391123094
 20
4.073562297686422
 10
3.998047830576216
 20
4.073562297686422
  0
LWPOLYLINE
  5
7DE1B343D9DFC9F
330
7DE1B343D9DFDEA
100
AcDbEntity
  8
TEXT
100
AcDbPolyline
 90
        3
 70
     0
 43
0.0006660908203125
 10
3.911456023935591
 20
4.186797737139549
 10
3.911456023935591
 20
4.100205930498923
 10
3.998047830576216
 20
4.100205930498923
  0
LWPOLYLINE
  5
7DE1B343D9DFCA4
330
7DE1B343D9DFDEA
100
AcDbEntity
  8
TEXT
100
AcDbPolyline
 90
        2
 70
     0
 43
0.0001332181640625
 10
3.958082381357468
 20
4.196789099444234
 10
3.884812391123094
 20
4.186797737139549
  0
LWPOLYLINE
  5
7DE1B343D9DFCA8
330
7DE1B343D9DFDEA
100
AcDbEntity
  8
TEXT
100
AcDbPolyline
 90
        2
 70
     0
 43
0.0001332181640625
 10
3.911456023935591
 20
4.186797737139549
 10
3.971404197763718
 20
4.196789099444234
  0
LWPOLYLINE
  5
7DE1B343D9DFCAC
330
7DE1B343D9DFDEA
100
AcDbEntity
  8
TEXT
100
AcDbPolyline
 90
        2
 70
     0
 43
0.0001332181640625
 10
3.911456023935591
 20
4.100205930498923
 10
3.971404197763718
 20
4.160154104327048
  0
LWPOLYLINE
  5
7DE1B343D9DFCB0
330
7DE1B343D9DFDEA
100
AcDbEntity
  8
TEXT
100
AcDbPolyline
 90
        3
 70
     0
 43
0.0006660908203125
 10
3.998047830576216
 20
4.339998625811425
 10
3.884812391123094
 20
4.339998625811425
 10
3.884812391123094
 20
4.226763186358297
  0
LWPOLYLINE
  5
7DE1B343D9DFCB5
330
7DE1B343D9DFDEA
100
AcDbEntity
  8
TEXT
100
AcDbPolyline
 90
        3
 70
     0
 43
0.0006660908203125
 10
3.998047830576216
 20
4.313354992998924
 10
3.911456023935591
 20
4.313354992998924
 10
3.911456023935591
 20
4.226763186358297
  0
LWPOLYLINE
  5
7DE1B343D9DFCBA
330
7DE1B343D9DFDEA
100
AcDbEntity
  8
TEXT
100
AcDbPolyline
 90
        2
 70
     0
 43
0.0001332181640625
 10
3.911456023935591
 20
4.313354992998924
 10
3.971404197763717
 20
4.253406819170798
  0
LWPOLYLINE
  5
7DE1B343D9DFCBE
330
7DE1B343D9DFDEA
100
AcDbEntity
  8
TEXT
100
AcDbPolyline
 90
        2
 70
     0
 43
0.0001332181640625
 10
3.911456023935591
 20
4.226763186358297
 10
3.971404197763717
 20
4.216771824053608
  0
LWPOLYLINE
  5
7DE1B343D9DFCC2
330
7DE1B343D9DFDEA
100
AcDbEntity
  8
TEXT
100
AcDbPolyline
 90
        2
 70
     0
 43
0.0001332181640625
 10
3.884812391123094
 20
4.226763186358297
 10
3.958082381357468
 20
4.216771824053608
  0
LWPOLYLINE
  5
7DE1B343D9DFCC6
330
7DE1B343D9DFDEA
100
AcDbEntity
  8
TEXT
100
AcDbPolyline
 90
        2
 70
     0
 43
0.0006660908203125
 10
3.911456023935591
 20
4.186797737139549
 10
3.884812391123094
 20
4.186797737139549
  0
LWPOLYLINE
  5
7DE1B343D9DFCCA
330
7DE1B343D9DFDEA
100
AcDbEntity
  8
TEXT
100
AcDbPolyline
 90
        2
 70
     0
 43
0.0006660908203125
 10
3.911456023935591
 20
4.226763186358297
 10
3.884812391123094
 20
4.226763186358297
  0
LINE
  5
7DE1B343D9DFCCE
330
7DE1B343D9DFDEA
100
AcDbEntity
  8
TEXT
100
AcDbLine
 10
5.400002820249591
 20
4.275721931154656
 30
0.0
 11
5.292796546862302
 21
4.275721931154656
 31
0.0
  0
LINE
  5
7DE1B343D9DFCCF
330
7DE1B343D9DFDEA
100
AcDbEntity
  8
TEXT
100
AcDbLine
 10
5.42903371859407
 20
4.339998625811421
 30
0.0
 11
5.29420180937701
 21
4.339998625811421
 31
0.0
  0
ARC
  5
7DE1B343D9DFCD0
330
7DE1B343D9DFDEA
100
AcDbEntity
  8
TEXT
100
AcDbCircle
 10
5.353515905770327
 20
4.170761376548405
 30
0.0
 40
0.0676855811441166
100
AcDbArc
 50
90.0
 51
153.7768192527749
  0
LWPOLYLINE
  5
7DE1B343D9DFCD1
330
7DE1B343D9DFDEA
100
AcDbEntity
  8
TEXT
100
AcDbPolyline
 90
        2
 70
     0
 43
0.0
 10
5.291764051407492
 20
4.117016537773348
 42
0.2901071551932823
 10
5.334839984275127
 20
4.07352559282291
 42
5.328517124445801
  0
ARC
  5
7DE1B343D9DFCD5
330
7DE1B343D9DFDEA
100
AcDbEntity
  8
TEXT
100
AcDbCircle
 10
4.648384528098842
 20
4.13331798416096
 30
0.0
 40
0.0601160179737537
100
AcDbArc
 50
180.0000000000003
 51
264.0521544866073
  0
LINE
  5
7DE1B343D9DFCD6
330
7DE1B343D9DFDEA
100
AcDbEntity
  8
TEXT
100
AcDbLine
 10
4.651899883724389
 20
4.374386543405559
 30
0.0
 11
4.591857278880382
 21
4.374386543405559
 31
0.0
  0
ARC
  5
7DE1B343D9DFCD7
330
7DE1B343D9DFDEA
100
AcDbEntity
  8
TEXT
100
AcDbCircle
 10
4.416125525981871
 20
4.25791116636492
 30
0.0
 40
0.0820874594465043
100
AcDbArc
 50
90.0
 51
270.0
  0
LWPOLYLINE
  5
7DE1B343D9DFCD8
330
7DE1B343D9DFDEA
100
AcDbEntity
  8
TEXT
100
AcDbPolyline
 90
        2
 70
     0
 43
0.0001332181640625
 10
4.008039192880906
 20
4.266728635577045
 10
3.998047830576216
 20
4.339998625811425
  0
LWPOLYLINE
  5
7DE1B343D9DFCDC
330
7DE1B343D9DFDEA
100
AcDbEntity
  8
TEXT
100
AcDbPolyline
 90
        2
 70
     0
 43
0.0001332181640625
 10
3.998047830576216
 20
4.313354992998924
 10
4.008039192880906
 20
4.253406819170798
  0
LWPOLYLINE
  5
7DE1B343D9DFCE0
330
7DE1B343D9DFDEA
100
AcDbEntity
  8
TEXT
100
AcDbPolyline
 90
        3
 70
     0
 43
0.0006660908203125
 10
4.151248719248093
 20
4.226763186358297
 10
4.151248719248093
 20
4.339998625811425
 10
4.038013279794967
 20
4.339998625811425
  0
LWPOLYLINE
  5
7DE1B343D9DFCE5
330
7DE1B343D9DFDEA
100
AcDbEntity
  8
TEXT
100
AcDbPolyline
 90
        3
 70
     0
 43
0.0006660908203125
 10
4.124605086435592
 20
4.226763186358297
 10
4.124605086435592
 20
4.313354992998924
 10
4.038013279794967
 20
4.313354992998924
  0
LWPOLYLINE
  5
7DE1B343D9DFCEA
330
7DE1B343D9DFDEA
100
AcDbEntity
  8
TEXT
100
AcDbPolyline
 90
        2
 70
     0
 43
0.0001332181640625
 10
4.124605086435592
 20
4.313354992998924
 10
4.064656912607468
 20
4.253406819170798
  0
LWPOLYLINE
  5
7DE1B343D9DFCEE
330
7DE1B343D9DFDEA
100
AcDbEntity
  8
TEXT
100
AcDbPolyline
 90
        2
 70
     0
 43
0.0001332181640625
 10
4.038013279794967
 20
4.313354992998924
 10
4.028021917490279
 20
4.253406819170798
  0
LWPOLYLINE
  5
7DE1B343D9DFCF2
330
7DE1B343D9DFDEA
100
AcDbEntity
  8
TEXT
100
AcDbPolyline
 90
        2
 70
     0
 43
0.0001332181640625
 10
4.038013279794967
 20
4.339998625811425
 10
4.028021917490279
 20
4.266728635577045
  0
LWPOLYLINE
  5
7DE1B343D9DFCF6
330
7DE1B343D9DFDEA
100
AcDbEntity
  8
TEXT
100
AcDbPolyline
 90
        2
 70
     0
 43
0.0001332181640625
 10
4.077978729013717
 20
4.216771824053608
 10
4.151248719248093
 20
4.226763186358297
  0
LWPOLYLINE
  5
7DE1B343D9DFCFA
330
7DE1B343D9DFDEA
100
AcDbEntity
  8
TEXT
100
AcDbPolyline
 90
        2
 70
     0
 43
0.0001332181640625
 10
4.124605086435592
 20
4.226763186358297
 10
4.064656912607468
 20
4.216771824053608
  0
LWPOLYLINE
  5
7DE1B343D9DFCFE
330
7DE1B343D9DFDEA
100
AcDbEntity
  8
TEXT
100
AcDbPolyline
 90
        2
 70
     0
 43
0.0001332181640625
 10
4.151248719248093
 20
4.186797737139549
 10
4.077978729013717
 20
4.196789099444234
  0
LWPOLYLINE
  5
7DE1B343D9DFD02
330
7DE1B343D9DFDEA
100
AcDbEntity
  8
TEXT
100
AcDbPolyline
 90
        2
 70
     0
 43
0.0001332181640625
 10
4.124605086435592
 20
4.186797737139549
 10
4.064656912607468
 20
4.196789099444234
  0
LWPOLYLINE
  5
7DE1B343D9DFD06
330
7DE1B343D9DFDEA
100
AcDbEntity
  8
TEXT
100
AcDbPolyline
 90
        2
 70
     0
 43
0.0001332181640625
 10
4.124605086435592
 20
4.100205930498923
 10
4.064656912607468
 20
4.160154104327048
  0
LWPOLYLINE
  5
7DE1B343D9DFD0A
330
7DE1B343D9DFDEA
100
AcDbEntity
  8
TEXT
100
AcDbPolyline
 90
        3
 70
     0
 43
0.0006660908203125
 10
4.038013279794967
 20
4.100205930498923
 10
4.124605086435592
 20
4.100205930498923
 10
4.124605086435592
 20
4.186797737139549
  0
LWPOLYLINE
  5
7DE1B343D9DFD0F
330
7DE1B343D9DFDEA
100
AcDbEntity
  8
TEXT
100
AcDbPolyline
 90
        3
 70
     0
 43
0.0006660908203125
 10
4.038013279794967
 20
4.073562297686422
 10
4.151248719248093
 20
4.073562297686422
 10
4.151248719248093
 20
4.186797737139549
  0
LWPOLYLINE
  5
7DE1B343D9DFD14
330
7DE1B343D9DFDEA
100
AcDbEntity
  8
TEXT
100
AcDbPolyline
 90
        5
 70
     0
 43
0.0001332181640625
 10
4.008039192880906
 20
4.146832287920798
 10
4.008039192880906
 20
4.160154104327048
 10
3.971404197763718
 20
4.160154104327048
 10
3.971404197763718
 20
4.196789099444234
 10
3.958082381357468
 20
4.196789099444234
  0
LWPOLYLINE
  5
7DE1B343D9DFD1B
330
7DE1B343D9DFDEA
100
AcDbEntity
  8
TEXT
100
AcDbPolyline
 90
        2
 70
     0
 43
0.0006660908203125
 10
3.998047830576216
 20
4.100205930498923
 10
3.998047830576216
 20
4.073562297686422
  0
LWPOLYLINE
  5
7DE1B343D9DFD1F
330
7DE1B343D9DFDEA
100
AcDbEntity
  8
TEXT
100
AcDbPolyline
 90
        2
 70
     0
 43
0.0001332181640625
 10
3.998047830576216
 20
4.100205930498923
 10
4.008039192880906
 20
4.160154104327048
  0
LWPOLYLINE
  5
7DE1B343D9DFD23
330
7DE1B343D9DFDEA
100
AcDbEntity
  8
TEXT
100
AcDbPolyline
 90
        2
 70
     0
 43
0.0001332181640625
 10
3.998047830576216
 20
4.073562297686422
 10
4.008039192880906
 20
4.146832287920798
  0
LWPOLYLINE
  5
7DE1B343D9DFD27
330
7DE1B343D9DFDEA
100
AcDbEntity
  8
TEXT
100
AcDbPolyline
 90
        5
 70
     0
 43
0.0001332181640625
 10
3.958082381357468
 20
4.216771824053608
 10
3.971404197763717
 20
4.216771824053608
 10
3.971404197763717
 20
4.253406819170798
 10
4.008039192880906
 20
4.253406819170798
 10
4.008039192880906
 20
4.266728635577045
  0
LWPOLYLINE
  5
7DE1B343D9DFD2E
330
7DE1B343D9DFDEA
100
AcDbEntity
  8
TEXT
100
AcDbPolyline
 90
        5
 70
     0
 43
0.0001332181640625
 10
4.028021917490279
 20
4.266728635577045
 10
4.028021917490279
 20
4.253406819170798
 10
4.064656912607468
 20
4.253406819170798
 10
4.064656912607468
 20
4.216771824053608
 10
4.077978729013717
 20
4.216771824053608
  0
LWPOLYLINE
  5
7DE1B343D9DFD35
330
7DE1B343D9DFDEA
100
AcDbEntity
  8
TEXT
100
AcDbPolyline
 90
        2
 70
     0
 43
0.0001332181640625
 10
4.038013279794967
 20
4.100205930498923
 10
4.028021917490279
 20
4.160154104327048
  0
LWPOLYLINE
  5
7DE1B343D9DFD39
330
7DE1B343D9DFDEA
100
AcDbEntity
  8
TEXT
100
AcDbPolyline
 90
        2
 70
     0
 43
0.0001332181640625
 10
4.028021917490279
 20
4.146832287920798
 10
4.038013279794967
 20
4.073562297686422
  0
LWPOLYLINE
  5
7DE1B343D9DFD3D
330
7DE1B343D9DFDEA
100
AcDbEntity
  8
TEXT
100
AcDbPolyline
 90
        2
 70
     0
 43
0.0006660908203125
 10
4.038013279794967
 20
4.100205930498923
 10
4.038013279794967
 20
4.073562297686422
  0
LWPOLYLINE
  5
7DE1B343D9DFD41
330
7DE1B343D9DFDEA
100
AcDbEntity
  8
TEXT
100
AcDbPolyline
 90
        5
 70
     0
 43
0.0001332181640625
 10
4.077978729013717
 20
4.196789099444234
 10
4.064656912607468
 20
4.196789099444234
 10
4.064656912607468
 20
4.160154104327048
 10
4.028021917490279
 20
4.160154104327048
 10
4.028021917490279
 20
4.146832287920798
  0
LWPOLYLINE
  5
7DE1B343D9DFD48
330
7DE1B343D9DFDEA
100
AcDbEntity
  8
TEXT
100
AcDbPolyline
 90
        2
 70
     0
 43
0.0006660908203125
 10
4.124605086435592
 20
4.226763186358297
 10
4.151248719248093
 20
4.226763186358297
  0
LWPOLYLINE
  5
7DE1B343D9DFD4C
330
7DE1B343D9DFDEA
100
AcDbEntity
  8
TEXT
100
AcDbPolyline
 90
        2
 70
     0
 43
0.0006660908203125
 10
4.124605086435592
 20
4.186797737139549
 10
4.151248719248093
 20
4.186797737139549
  0
LINE
  5
7DE1B343D9DFD50
330
7DE1B343D9DFDEA
100
AcDbEntity
  8
TEXT
100
AcDbLine
 10
4.421362856096118
 20
4.275721931154656
 30
0.0
 11
4.588268510125089
 21
4.275721931154656
 31
0.0
  0
LINE
  5
7DE1B343D9DFD51
330
7DE1B343D9DFDEA
100
AcDbEntity
  8
TEXT
100
AcDbLine
 10
4.486962992340419
 20
4.239917209544028
 30
0.0
 11
4.421362856096118
 21
4.239917209544028
 31
0.0
  0
LINE
  5
7DE1B343D9DFD52
330
7DE1B343D9DFDEA
100
AcDbEntity
  8
TEXT
100
AcDbLine
 10
4.334038066535367
 20
4.07352559282291
 30
0.0
 11
4.486962992340419
 21
4.07352559282291
 31
0.0
  0
LINE
  5
7DE1B343D9DFD53
330
7DE1B343D9DFDEA
100
AcDbEntity
  8
TEXT
100
AcDbLine
 10
4.491903366246699
 20
4.14188259915635
 30
0.0
 11
4.334038066535365
 21
4.14188259915635
 31
0.0
  0
LINE
  5
7DE1B343D9DFD54
330
7DE1B343D9DFDEA
100
AcDbEntity
  8
TEXT
100
AcDbLine
 10
4.41612552598187
 20
4.175823706918414
 30
0.0
 11
4.491903366246699
 21
4.175823706918414
 31
0.0
  0
ARC
  5
7DE1B343D9DFD55
330
7DE1B343D9DFDEA
100
AcDbEntity
  8
TEXT
100
AcDbCircle
 10
4.421362856096119
 20
4.257819570349344
 30
0.0
 40
0.017902360805315
100
AcDbArc
 50
90.0
 51
270.0
  0
LINE
  5
7DE1B343D9DFD56
330
7DE1B343D9DFDEA
100
AcDbEntity
  8
TEXT
100
AcDbLine
 10
4.334038066535365
 20
4.14188259915635
 30
0.0
 11
4.334038066535367
 21
4.07352559282291
 31
0.0
  0
LINE
  5
7DE1B343D9DFD57
330
7DE1B343D9DFDEA
100
AcDbEntity
  8
TEXT
100
AcDbLine
 10
4.588268510125089
 20
4.275721931154656
 30
0.0
 11
4.588268510125089
 21
4.13331798416096
 31
0.0
  0
ARC
  5
7DE1B343D9DFD58
330
7DE1B343D9DFDEA
100
AcDbEntity
  8
TEXT
100
AcDbCircle
 10
4.48696299234042
 20
4.156721401183467
 30
0.0
 40
0.0831958083605586
100
AcDbArc
 50
270.0
 51
90.0
  0
ARC
  5
7DE1B343D9DFD59
330
7DE1B343D9DFDEA
100
AcDbEntity
  8
TEXT
100
AcDbCircle
 10
4.4919033662467
 20
4.158853153037384
 30
0.0
 40
0.0169705538810321
100
AcDbArc
 50
270.0
 51
90.0
  0
LWPOLYLINE
  5
7DE1B343D9DFD5A
330
7DE1B343D9DFDEA
100
AcDbEntity
  8
TEXT
100
AcDbPolyline
 90
        2
 70
     0
 43
0.0006660908203125
 10
3.998047830576216
 20
4.313354992998924
 10
3.998047830576216
 20
4.339998625811425
  0
LWPOLYLINE
  5
7DE1B343D9DFD5E
330
7DE1B343D9DFDEA
100
AcDbEntity
  8
TEXT
100
AcDbPolyline
 90
        2
 70
     0
 43
0.0006660908203125
 10
4.038013279794967
 20
4.313354992998924
 10
4.038013279794967
 20
4.339998625811425
  0
LINE
  5
7DE1B343D9DFD62
330
7DE1B343D9DFDEA
100
AcDbEntity
  8
TEXT
100
AcDbLine
 10
4.591857278880382
 20
4.339998625811421
 30
0.0
 11
4.41612552598187
 21
4.339998625811421
 31
0.0
  0
LINE
  5
7DE1B343D9DFD63
330
7DE1B343D9DFDEA
100
AcDbEntity
  8
TEXT
100
AcDbLine
 10
4.591857278880382
 20
4.374386543405559
 30
0.0
 11
4.591857278880382
 21
4.339998625811421
 31
0.0
  0
LINE
  5
7DE1B343D9DFD64
330
7DE1B343D9DFDEA
100
AcDbEntity
  8
TEXT
100
AcDbLine
 10
4.782329170900235
 20
4.239126629698301
 30
0.0
 11
4.723698849868297
 21
4.339998625811421
 31
0.0
  0
LINE
  5
7DE1B343D9DFD65
330
7DE1B343D9DFDEA
100
AcDbEntity
  8
TEXT
100
AcDbLine
 10
4.8410777337061
 20
4.339998625811421
 30
0.0
 11
4.782329170900235
 21
4.239126629698301
 31
0.0
  0
LINE
  5
7DE1B343D9DFD66
330
7DE1B343D9DFDEA
100
AcDbEntity
  8
TEXT
100
AcDbLine
 10
4.938008359065841
 20
4.15591343092591
 30
0.0
 11
4.938008359065841
 21
4.408010103550232
 31
0.0
  0
LINE
  5
7DE1B343D9DFD67
330
7DE1B343D9DFDEA
100
AcDbEntity
  8
TEXT
100
AcDbLine
 10
4.970320213203502
 20
4.339998625811421
 30
0.0
 11
4.970320213203502
 21
4.139134419079013
 31
0.0
  0
LINE
  5
7DE1B343D9DFD68
330
7DE1B343D9DFDEA
100
AcDbEntity
  8
TEXT
100
AcDbLine
 10
4.970320213203502
 20
4.139134419079013
 30
0.0
 11
4.9533265763189
 21
4.139134419079013
 31
0.0
  0
LINE
  5
7DE1B343D9DFD69
330
7DE1B343D9DFDEA
100
AcDbEntity
  8
TEXT
100
AcDbLine
 10
4.939147932562036
 20
4.07352559282291
 30
0.0
 11
5.037151266261471
 21
4.07352559282291
 31
0.0
  0
LINE
  5
7DE1B343D9DFD6A
330
7DE1B343D9DFDEA
100
AcDbEntity
  8
TEXT
100
AcDbLine
 10
4.77272893390328
 20
4.093484098927923
 30
0.0
 11
4.870028639996725
 21
4.257834309863191
 31
0.0
  0
ARC
  5
7DE1B343D9DFD6B
330
7DE1B343D9DFDEA
100
AcDbEntity
  8
TEXT
100
AcDbCircle
 10
4.738685373991066
 20
4.113073315096606
 30
0.0
 40
0.0392772371940762
100
AcDbArc
 50
270.1604552698595
 51
330.0831797321295
  0
LINE
  5
7DE1B343D9DFD6C
330
7DE1B343D9DFDEA
100
AcDbEntity
  8
TEXT
100
AcDbLine
 10
4.642155117605195
 20
4.07352559282291
 30
0.0
 11
4.73879536868019
 21
4.073796231921193
 31
0.0
  0
LWPOLYLINE
  5
7DE1B343D9DFD6D
330
7DE1B343D9DFDEA
100
AcDbEntity
  8
TEXT
100
AcDbPolyline
 90
        6
 70
     1
 43
0.0
 10
4.684678921180345
 20
4.275721931154656
 10
4.654362326960137
 20
4.275721931154656
 10
4.654362326960137
 20
4.152610933099762
 42
0.407328721240804
 10
4.665905978121613
 20
4.140792018423375
 10
4.726527677166344
 20
4.140792018423375
 10
4.743993017573662
 20
4.173604247466855
  0
LINE
  5
7DE1B343D9DFD75
330
7DE1B343D9DFDEA
100
AcDbEntity
  8
TEXT
100
AcDbLine
 10
4.870028639996725
 20
4.257834309863191
 30
0.0
 11
4.870028639996725
 21
4.125076935037835
 31
0.0
  0
ARC
  5
7DE1B343D9DFD76
330
7DE1B343D9DFDEA
100
AcDbEntity
  8
TEXT
100
AcDbCircle
 10
4.953326576318898
 20
4.154516225322439
 30
0.0
 40
0.0153818062434269
100
AcDbArc
 50
174.7883570302258
 51
270.0
  0
LWPOLYLINE
  5
7DE1B343D9DFD77
330
7DE1B343D9DFDEA
100
AcDbEntity
  8
TEXT
100
AcDbPolyline
 90
        2
 70
     0
 43
0.0
 10
4.870028639996723
 20
4.125076935037839
 42
0.3318488747599744
 10
4.939147932562036
 20
4.07352559282291
 42
-6.868794160588311
  0
LINE
  5
7DE1B343D9DFD7B
330
7DE1B343D9DFDEA
100
AcDbEntity
  8
TEXT
100
AcDbLine
 10
5.094540335250732
 20
4.07352559282291
 30
0.0
 11
5.161598382032572
 21
4.07352559282291
 31
0.0
  0
LINE
  5
7DE1B343D9DFD7C
330
7DE1B343D9DFDEA
100
AcDbEntity
  8
TEXT
100
AcDbLine
 10
5.094540335250732
 20
4.268168141988546
 30
0.0
 11
5.094540335250732
 21
4.07352559282291
 31
0.0
  0
LINE
  5
7DE1B343D9DFD7D
330
7DE1B343D9DFDEA
100
AcDbEntity
  8
TEXT
100
AcDbLine
 10
5.037151266261471
 20
4.275721931154656
 30
0.0
 11
5.086986546084618
 21
4.275721931154656
 31
0.0
  0
LINE
  5
7DE1B343D9DFD7E
330
7DE1B343D9DFDEA
100
AcDbEntity
  8
TEXT
100
AcDbLine
 10
5.037151266261471
 20
4.07352559282291
 30
0.0
 11
5.037151266261471
 21
4.275721931154656
 31
0.0
  0
LWPOLYLINE
  5
7DE1B343D9DFD7F
330
7DE1B343D9DFDEA
100
AcDbEntity
  8
TEXT
100
AcDbPolyline
 90
        2
 70
     0
 43
0.0
 10
5.086986546084617
 20
4.275721931154656
 42
-0.4142135623731017
 10
5.09454033525073
 20
4.268168141988546
 42
-0.9999999999999998
  0
LINE
  5
7DE1B343D9DFD83
330
7DE1B343D9DFDEA
100
AcDbEntity
  8
TEXT
100
AcDbLine
 10
5.292796546862302
 20
4.275721931154656
 30
0.0
 11
5.292796546862302
 21
4.200669525080449
 31
0.0
  0
LINE
  5
7DE1B343D9DFD84
330
7DE1B343D9DFDEA
100
AcDbEntity
  8
TEXT
100
AcDbLine
 10
5.161598382032572
 20
4.275721931154656
 30
0.0
 11
5.215731978953522
 21
4.275721931154656
 31
0.0
  0
LINE
  5
7DE1B343D9DFD85
330
7DE1B343D9DFDEA
100
AcDbEntity
  8
TEXT
100
AcDbLine
 10
5.161598382032572
 20
4.07352559282291
 30
0.0
 11
5.161598382032572
 21
4.275721931154656
 31
0.0
  0
LWPOLYLINE
  5
7DE1B343D9DFD86
330
7DE1B343D9DFDEA
100
AcDbEntity
  8
TEXT
100
AcDbPolyline
 90
        2
 70
     0
 43
0.0
 10
5.21573197895352
 20
4.275721931154656
 42
-0.4142135623731017
 10
5.223285768119634
 20
4.268168141988546
 42
-0.9999999999999998
  0
LWPOLYLINE
  5
7DE1B343D9DFD8A
330
7DE1B343D9DFDEA
100
AcDbEntity
  8
TEXT
100
AcDbPolyline
 90
        4
 70
     0
 43
0.0
 10
5.223285768119634
 20
4.268168141988546
 10
5.223285768119634
 20
4.07352559282291
 10
5.291764051407492
 20
4.07352559282291
 10
5.291764051407492
 20
4.117016537773348
 42
-1.714843617202739
  0
LINE
  5
7DE1B343D9DFD90
330
7DE1B343D9DFDEA
100
AcDbEntity
  8
TEXT
100
AcDbLine
 10
4.651899883724389
 20
4.339998625811421
 30
0.0
 11
4.651899883724389
 21
4.374386543405559
 31
0.0
  0
LINE
  5
7DE1B343D9DFD91
330
7DE1B343D9DFDEA
100
AcDbEntity
  8
TEXT
100
AcDbLine
 10
4.723698849868297
 20
4.339998625811421
 30
0.0
 11
4.651899883724389
 21
4.339998625811421
 31
0.0
  0
LINE
  5
7DE1B343D9DFD92
330
7DE1B343D9DFDEA
100
AcDbEntity
  8
TEXT
100
AcDbLine
 10
4.871199646499476
 20
4.339998625811421
 30
0.0
 11
4.8410777337061
 21
4.339998625811421
 31
0.0
  0
LINE
  5
7DE1B343D9DFD93
330
7DE1B343D9DFDEA
100
AcDbEntity
  8
TEXT
100
AcDbLine
 10
4.871199646499476
 20
4.408010103550232
 30
0.0
 11
4.871199646499476
 21
4.339998625811421
 31
0.0
  0
LINE
  5
7DE1B343D9DFD94
330
7DE1B343D9DFDEA
100
AcDbEntity
  8
TEXT
100
AcDbLine
 10
4.938008359065841
 20
4.408010103550232
 30
0.0
 11
4.871199646499476
 21
4.408010103550232
 31
0.0
  0
LWPOLYLINE
  5
7DE1B343D9DFD95
330
7DE1B343D9DFDEA
100
AcDbEntity
  8
TEXT
100
AcDbPolyline
 90
        3
 70
     0
 43
0.0
 10
5.258420118663844
 20
4.339998625811425
 10
5.140119959847799
 20
4.339998625811425
 10
5.140119959847799
 20
4.312831129050529
 42
-1.960274751411753
  0
LINE
  5
7DE1B343D9DFD9A
330
7DE1B343D9DFDEA
100
AcDbEntity
  8
TEXT
100
AcDbLine
 10
5.104338269134638
 20
4.339998625811421
 30
0.0
 11
4.970320213203502
 21
4.339998625811421
 31
0.0
  0
LWPOLYLINE
  5
7DE1B343D9DFD9B
330
7DE1B343D9DFDEA
100
AcDbEntity
  8
TEXT
100
AcDbPolyline
 90
        2
 70
     0
 43
0.0
 10
5.104338269134638
 20
4.339998625811425
 42
-0.3328679258950098
 10
5.140119959847799
 20
4.312831129050529
 42
6.772930709997214
  0
LINE
  5
7DE1B343D9DFD9F
330
7DE1B343D9DFDEA
100
AcDbEntity
  8
TEXT
100
AcDbLine
 10
5.29420180937701
 20
4.339998625811421
 30
0.0
 11
5.29420180937701
 21
4.311676080041777
 31
0.0
  0
LWPOLYLINE
  5
7DE1B343D9DFDA0
330
7DE1B343D9DFDEA
100
AcDbEntity
  8
TEXT
100
AcDbPolyline
 90
        2
 70
     0
 43
0.0
 10
5.258420118663844
 20
4.339998625811425
 42
-0.3277054968067132
 10
5.294201809377009
 20
4.311676080041781
 42
6.667889725900311
  0
LINE
  5
7DE1B343D9DFDA4
330
7DE1B343D9DFDEA
100
AcDbEntity
  8
TEXT
100
AcDbLine
 10
5.507993657469111
 20
4.234786647257994
 30
0.0
 11
5.464242886287209
 21
4.317036923254139
 31
0.0
  0
LINE
  5
7DE1B343D9DFDA5
330
7DE1B343D9DFDEA
100
AcDbEntity
  8
TEXT
100
AcDbLine
 10
5.507993657469111
 20
4.339998625811421
 30
0.0
 11
5.507993657469111
 21
4.234786647257994
 31
0.0
  0
LINE
  5
7DE1B343D9DFDA6
330
7DE1B343D9DFDEA
100
AcDbEntity
  8
TEXT
100
AcDbLine
 10
5.73567739640748
 20
4.264133299399883
 30
0.0
 11
5.73567739640748
 21
4.405462831579022
 31
0.0
  0
LINE
  5
7DE1B343D9DFDA7
330
7DE1B343D9DFDEA
100
AcDbEntity
  8
TEXT
100
AcDbLine
 10
5.782775554963464
 20
4.339998625811421
 30
0.0
 11
5.73567739640748
 21
4.264133299399883
 31
0.0
  0
LINE
  5
7DE1B343D9DFDA8
330
7DE1B343D9DFDEA
100
AcDbEntity
  8
TEXT
100
AcDbLine
 10
5.793210271727387
 20
4.230105382870448
 30
0.0
 11
5.857767387693092
 21
4.339998625811421
 31
0.0
  0
LINE
  5
7DE1B343D9DFDA9
330
7DE1B343D9DFDEA
100
AcDbEntity
  8
TEXT
100
AcDbLine
 10
5.671842405184706
 20
4.07352559282291
 30
0.0
 11
5.736220589503327
 21
4.07352559282291
 31
0.0
  0
LWPOLYLINE
  5
7DE1B343D9DFDAA
330
7DE1B343D9DFDEA
100
AcDbEntity
  8
TEXT
100
AcDbPolyline
 90
        2
 70
     0
 43
0.0
 10
5.511933334774148
 20
4.117016537773348
 42
-0.2901071551932486
 10
5.468857401906504
 20
4.07352559282291
 42
-5.328517124445184
  0
ARC
  5
7DE1B343D9DFDAE
330
7DE1B343D9DFDEA
100
AcDbEntity
  8
TEXT
100
AcDbCircle
 10
5.400002820249589
 20
4.247362556154659
 30
0.0
 40
0.028359375
100
AcDbArc
 50
25.78218179591245
 51
90.0
  0
LINE
  5
7DE1B343D9DFDAF
330
7DE1B343D9DFDEA
100
AcDbEntity
  8
TEXT
100
AcDbLine
 10
5.435803895553712
 20
4.238446957692524
 30
0.0
 11
5.425539135140148
 21
4.259697497265218
 31
0.0
  0
LINE
  5
7DE1B343D9DFDB0
330
7DE1B343D9DFDEA
100
AcDbEntity
  8
TEXT
100
AcDbLine
 10
5.353515905770329
 20
4.238446957692524
 30
0.0
 11
5.435803895553712
 21
4.238446957692524
 31
0.0
  0
LWPOLYLINE
  5
7DE1B343D9DFDB1
330
7DE1B343D9DFDEA
100
AcDbEntity
  8
TEXT
100
AcDbPolyline
 90
        4
 70
     1
 43
0.0
 10
5.448734936836611
 20
4.176489570806936
 10
5.360074618176753
 20
4.176489570806936
 42
0.9999999999999998
 10
5.360074618176753
 20
4.134091030303075
 10
5.448734936836611
 20
4.134091030303075
 42
1.0
  0
LWPOLYLINE
  5
7DE1B343D9DFDB7
330
7DE1B343D9DFDEA
100
AcDbEntity
  8
TEXT
100
AcDbPolyline
 90
        2
 70
     0
 43
0.0
 10
5.334839984275127
 20
4.07352559282291
 10
5.468857401906504
 20
4.07352559282291
 42
0.9999999999999998
  0
LINE
  5
7DE1B343D9DFDBB
330
7DE1B343D9DFDEA
100
AcDbEntity
  8
TEXT
100
AcDbLine
 10
5.595194423892143
 20
4.275721931154656
 30
0.0
 11
5.671842405184701
 21
4.275721931154656
 31
0.0
  0
LINE
  5
7DE1B343D9DFDBC
330
7DE1B343D9DFDEA
100
AcDbEntity
  8
TEXT
100
AcDbLine
 10
5.671842405184701
 20
4.275721931154656
 30
0.0
 11
5.671842405184706
 21
4.07352559282291
 31
0.0
  0
ARC
  5
7DE1B343D9DFDBD
330
7DE1B343D9DFDEA
100
AcDbEntity
  8
TEXT
100
AcDbCircle
 10
5.595194423892142
 20
4.250816055871993
 30
0.0
 40
0.0249058752826653
100
AcDbArc
 50
89.99971217465335
 51
179.9999999999985
  0
LINE
  5
7DE1B343D9DFDBE
330
7DE1B343D9DFDEA
100
AcDbEntity
  8
TEXT
100
AcDbLine
 10
5.570288548609484
 20
4.07352559282291
 30
0.0
 11
5.570288548609479
 21
4.250816098254379
 31
0.0
  0
LWPOLYLINE
  5
7DE1B343D9DFDBF
330
7DE1B343D9DFDEA
100
AcDbEntity
  8
TEXT
100
AcDbPolyline
 90
        2
 70
     0
 43
0.0
 10
5.511933334774148
 20
4.07352559282291
 10
5.570288548609482
 20
4.07352559282291
  0
LWPOLYLINE
  5
7DE1B343D9DFDC3
330
7DE1B343D9DFDEA
100
AcDbEntity
  8
TEXT
100
AcDbPolyline
 90
        2
 70
     0
 43
0.0
 10
5.511933334774148
 20
4.117016537773348
 10
5.511933334774148
 20
4.07352559282291
  0
LINE
  5
7DE1B343D9DFDC7
330
7DE1B343D9DFDEA
100
AcDbEntity
  8
TEXT
100
AcDbLine
 10
5.888702495090997
 20
4.07352559282291
 30
0.0
 11
5.793210271727387
 21
4.230105382870448
 31
0.0
  0
LINE
  5
7DE1B343D9DFDC8
330
7DE1B343D9DFDEA
100
AcDbEntity
  8
TEXT
100
AcDbLine
 10
5.812124122714791
 20
4.07352559282291
 30
0.0
 11
5.888702495090997
 21
4.07352559282291
 31
0.0
  0
LINE
  5
7DE1B343D9DFDC9
330
7DE1B343D9DFDEA
100
AcDbEntity
  8
TEXT
100
AcDbLine
 10
5.736220589503327
 20
4.205105161299091
 30
0.0
 11
5.812124122714791
 21
4.07352559282291
 31
0.0
  0
LINE
  5
7DE1B343D9DFDCA
330
7DE1B343D9DFDEA
100
AcDbEntity
  8
TEXT
100
AcDbLine
 10
5.736220589503327
 20
4.07352559282291
 30
0.0
 11
5.736220589503327
 21
4.205105161299091
 31
0.0
  0
LINE
  5
7DE1B343D9DFDCB
330
7DE1B343D9DFDEA
100
AcDbEntity
  8
TEXT
100
AcDbLine
 10
5.73567739640748
 20
4.405462831579022
 30
0.0
 11
5.667362517858206
 21
4.405462831579022
 31
0.0
  0
ARC
  5
7DE1B343D9DFDCC
330
7DE1B343D9DFDEA
100
AcDbEntity
  8
TEXT
100
AcDbCircle
 10
5.427006778817
 20
4.298415058690519
 30
0.0
 40
0.0416329381542859
100
AcDbArc
 50
26.56974201007528
 51
87.20939649401342
  0
LINE
  5
7DE1B343D9DFDCD
330
7DE1B343D9DFDEA
100
AcDbEntity
  8
TEXT
100
AcDbLine
 10
5.571890563768612
 20
4.339998625811421
 30
0.0
 11
5.507993657469111
 21
4.339998625811421
 31
0.0
  0
LINE
  5
7DE1B343D9DFDCE
330
7DE1B343D9DFDEA
100
AcDbEntity
  8
TEXT
100
AcDbLine
 10
5.571890563768612
 20
4.312450975950547
 30
0.0
 11
5.571890563768612
 21
4.339998625811421
 31
0.0
  0
ARC
  5
7DE1B343D9DFDCF
330
7DE1B343D9DFDEA
100
AcDbEntity
  8
TEXT
100
AcDbCircle
 10
5.603083380831719
 20
4.308752898529156
 30
0.0
 40
0.0314112657011332
100
AcDbArc
 50
95.88484768694724
 51
173.2388340632136
  0
LINE
  5
7DE1B343D9DFDD0
330
7DE1B343D9DFDEA
100
AcDbEntity
  8
TEXT
100
AcDbLine
 10
5.667362517858201
 20
4.339998625811421
 30
0.0
 11
5.599862800208684
 21
4.339998625811421
 31
0.0
  0
LINE
  5
7DE1B343D9DFDD1
330
7DE1B343D9DFDEA
100
AcDbEntity
  8
TEXT
100
AcDbLine
 10
5.667362517858206
 20
4.405462831579022
 30
0.0
 11
5.667362517858201
 21
4.339998625811421
 31
0.0
  0
LINE
  5
7DE1B343D9DFDD2
330
7DE1B343D9DFDEA
100
AcDbEntity
  8
TEXT
100
AcDbLine
 10
5.857767387693092
 20
4.339998625811421
 30
0.0
 11
5.782775554963466
 21
4.339998625811421
 31
0.0
  0
ENDSEC
  0
SECTION
  2
OBJECTS
  0
DICTIONARY
  5
7DE1B343D9DFDDE
330
0
100
AcDbDictionary
  3
ACAD_GROUP
350
7DE1B343D9DFDDF
  3
ACAD_LAYOUT
350
7DE1B343D9DFE04
  3
ACAD_MLINESTYLE
350
7DE1B343D9DFDE0
  3
ACAD_PLOTSETTINGS
350
7DE1B343D9DFE05
  3
ACAD_PLOTSTYLENAME
350
7DE1B343D9DFE02
  3
ACDBHEADERROUNDTRIPXREC
350
7DE1B343D9DFE0F
  3
ACDBVARIABLEDICTIONARY
350
7DE1B343D9DFE0C
  0
DICTIONARY
  5
7DE1B343D9DFE31
330
7DE1B343D9DFDEA
100
AcDbDictionary
280
     1
  3
ACAD_LAYOUTSELFREF
360
7DE1B343D9DFE32
  0
DICTIONARY
  5
7DE1B343D9DFE2F
330
7DE1B343D9DFDE7
100
AcDbDictionary
280
     1
  3
ACAD_LAYOUTSELFREF
360
7DE1B343D9DFE30
  0
DICTIONARY
  5
7DE1B343D9DFDDF
102
{ACAD_REACTORS
330
7DE1B343D9DFDDE
102
}
330
7DE1B343D9DFDDE
100
AcDbDictionary
  0
DICTIONARY
  5
7DE1B343D9DFE04
102
{ACAD_REACTORS
330
7DE1B343D9DFDDE
102
}
330
7DE1B343D9DFDDE
100
AcDbDictionary
  0
DICTIONARY
  5
7DE1B343D9DFDE0
102
{ACAD_REACTORS
330
7DE1B343D9DFDDE
102
}
330
7DE1B343D9DFDDE
100
AcDbDictionary
  3
STANDARD
350
7DE1B343D9DFDED
  0
DICTIONARY
  5
7DE1B343D9DFE05
102
{ACAD_REACTORS
330
7DE1B343D9DFDDE
102
}
330
7DE1B343D9DFDDE
100
AcDbDictionary
  0
ACDBDICTIONARYWDFLT
  5
7DE1B343D9DFE02
102
{ACAD_REACTORS
330
7DE1B343D9DFDDE
102
}
330
7DE1B343D9DFDDE
100
AcDbDictionary
281
     1
  3
Normal
350
7DE1B343D9DFE03
100
AcDbDictionaryWithDefault
340
7DE1B343D9DFE03
  0
DICTIONARY
  5
7DE1B343D9DFE0F
102
{ACAD_REACTORS
330
7DE1B343D9DFDDE
102
}
330
7DE1B343D9DFDDE
100
AcDbDictionary
  3
CEPSNTYPE
350
7DE1B343D9DFE19
  3
FINGERPRINTGUID
350
7DE1B343D9DFE1A
  3
HYPERLINKBASE
350
7DE1B343D9DFE12
  3
INSUNITS
350
7DE1B343D9DFE18
  3
LAYOUTDICT
350
7DE1B343D9DFE14
  3
LWETCUNION
350
7DE1B343D9DFE17
  3
PLOTSETDICT
350
7DE1B343D9DFE15
  3
PLOTSTYLNAMDICT
350
7DE1B343D9DFE16
  3
PSVPSCALE
350
7DE1B343D9DFE1C
  3
PUCSBASE
350
7DE1B343D9DFE1F
  3
PUCSORGBACK
350
7DE1B343D9DFE25
  3
PUCSORGBOTTOM
350
7DE1B343D9DFE21
  3
PUCSORGFRONT
350
7DE1B343D9DFE24
  3
PUCSORGLEFT
350
7DE1B343D9DFE22
  3
PUCSORGRIGHT
350
7DE1B343D9DFE23
  3
PUCSORGTOP
350
7DE1B343D9DFE20
  3
PUCSORTHOREF
350
7DE1B343D9DFE1D
  3
PUCSORTHOVIEW
350
7DE1B343D9DFE1E
  3
STYLESHEET
350
7DE1B343D9DFE13
  3
TSTACKALIGN
350
7DE1B343D9DFE10
  3
TSTACKSIZE
350
7DE1B343D9DFE11
  3
UCSBASE
350
7DE1B343D9DFE28
  3
UCSORGBACK
350
7DE1B343D9DFE2E
  3
UCSORGBOTTOM
350
7DE1B343D9DFE2A
  3
UCSORGFRONT
350
7DE1B343D9DFE2D
  3
UCSORGLEFT
350
7DE1B343D9DFE2B
  3
UCSORGRIGHT
350
7DE1B343D9DFE2C
  3
UCSORGTOP
350
7DE1B343D9DFE29
  3
UCSORTHOREF
350
7DE1B343D9DFE26
  3
UCSORTHOVIEW
350
7DE1B343D9DFE27
  3
VERSIONGUID
350
7DE1B343D9DFE1B
  0
DICTIONARY
  5
7DE1B343D9DFE0C
102
{ACAD_REACTORS
330
7DE1B343D9DFDDE
102
}
330
7DE1B343D9DFDDE
100
AcDbDictionary
  3
DIMASSOC
350
7DE1B343D9DFE0D
  0
XRECORD
  5
7DE1B343D9DFE32
102
{ACAD_REACTORS
330
7DE1B343D9DFE31
102
}
330
7DE1B343D9DFE31
100
AcDbXrecord
340
7DE1B343D9DFDEA
  0
XRECORD
  5
7DE1B343D9DFE30
102
{ACAD_REACTORS
330
7DE1B343D9DFE2F
102
}
330
7DE1B343D9DFE2F
100
AcDbXrecord
340
7DE1B343D9DFDE7
  0
MLINESTYLE
  5
7DE1B343D9DFDED
102
{ACAD_REACTORS
330
7DE1B343D9DFDE0
102
}
330
7DE1B343D9DFDE0
100
AcDbMlineStyle
  2
STANDARD
 70
     0
  3

 62
     0
 51
90.0
 52
90.0
 71
     2
 49
0.5
 62
   256
  6
BYLAYER
 49
-0.5
 62
   256
  6
BYLAYER
  0
ACDBPLACEHOLDER
  5
7DE1B343D9DFE03
102
{ACAD_REACTORS
330
7DE1B343D9DFE02
102
}
330
7DE1B343D9DFE02
100
AcDbPlaceHolder
280
     0
  0
XRECORD
  5
7DE1B343D9DFE19
102
{ACAD_REACTORS
330
7DE1B343D9DFE0F
102
}
330
7DE1B343D9DFE0F
100
AcDbXrecord
 90
        0
  0
XRECORD
  5
7DE1B343D9DFE1A
102
{ACAD_REACTORS
330
7DE1B343D9DFE0F
102
}
330
7DE1B343D9DFE0F
100
AcDbXrecord
  1
{8F1B04B0-8DB6-11D6-88E6-0090279574E7}
  0
XRECORD
  5
7DE1B343D9DFE12
102
{ACAD_REACTORS
330
7DE1B343D9DFE0F
102
}
330
7DE1B343D9DFE0F
100
AcDbXrecord
  1

  0
XRECORD
  5
7DE1B343D9DFE18
102
{ACAD_REACTORS
330
7DE1B343D9DFE0F
102
}
330
7DE1B343D9DFE0F
100
AcDbXrecord
 90
        0
  0
XRECORD
  5
7DE1B343D9DFE14
102
{ACAD_REACTORS
330
7DE1B343D9DFE0F
102
}
330
7DE1B343D9DFE0F
100
AcDbXrecord
340
7DE1B343D9DFE04
  0
XRECORD
  5
7DE1B343D9DFE17
102
{ACAD_REACTORS
330
7DE1B343D9DFE0F
102
}
330
7DE1B343D9DFE0F
100
AcDbXrecord
 90
    14877
  0
XRECORD
  5
7DE1B343D9DFE15
102
{ACAD_REACTORS
330
7DE1B343D9DFE0F
102
}
330
7DE1B343D9DFE0F
100
AcDbXrecord
340
7DE1B343D9DFE05
  0
XRECORD
  5
7DE1B343D9DFE16
102
{ACAD_REACTORS
330
7DE1B343D9DFE0F
102
}
330
7DE1B343D9DFE0F
100
AcDbXrecord
340
7DE1B343D9DFE02
  0
XRECORD
  5
7DE1B343D9DFE1C
102
{ACAD_REACTORS
330
7DE1B343D9DFE0F
102
}
330
7DE1B343D9DFE0F
100
AcDbXrecord
 40
0.0
  0
XRECORD
  5
7DE1B343D9DFE1F
102
{ACAD_REACTORS
330
7DE1B343D9DFE0F
102
}
330
7DE1B343D9DFE0F
100
AcDbXrecord
340
0
  0
XRECORD
  5
7DE1B343D9DFE25
102
{ACAD_REACTORS
330
7DE1B343D9DFE0F
102
}
330
7DE1B343D9DFE0F
100
AcDbXrecord
 10
0.0
 20
0.0
 30
0.0
  0
XRECORD
  5
7DE1B343D9DFE21
102
{ACAD_REACTORS
330
7DE1B343D9DFE0F
102
}
330
7DE1B343D9DFE0F
100
AcDbXrecord
 10
0.0
 20
0.0
 30
0.0
  0
XRECORD
  5
7DE1B343D9DFE24
102
{ACAD_REACTORS
330
7DE1B343D9DFE0F
102
}
330
7DE1B343D9DFE0F
100
AcDbXrecord
 10
0.0
 20
0.0
 30
0.0
  0
XRECORD
  5
7DE1B343D9DFE22
102
{ACAD_REACTORS
330
7DE1B343D9DFE0F
102
}
330
7DE1B343D9DFE0F
100
AcDbXrecord
 10
0.0
 20
0.0
 30
0.0
  0
XRECORD
  5
7DE1B343D9DFE23
102
{ACAD_REACTORS
330
7DE1B343D9DFE0F
102
}
330
7DE1B343D9DFE0F
100
AcDbXrecord
 10
0.0
 20
0.0
 30
0.0
  0
XRECORD
  5
7DE1B343D9DFE20
102
{ACAD_REACTORS
330
7DE1B343D9DFE0F
102
}
330
7DE1B343D9DFE0F
100
AcDbXrecord
 10
0.0
 20
0.0
 30
0.0
  0
XRECORD
  5
7DE1B343D9DFE1D
102
{ACAD_REACTORS
330
7DE1B343D9DFE0F
102
}
330
7DE1B343D9DFE0F
100
AcDbXrecord
340
0
  0
XRECORD
  5
7DE1B343D9DFE1E
102
{ACAD_REACTORS
330
7DE1B343D9DFE0F
102
}
330
7DE1B343D9DFE0F
100
AcDbXrecord
 70
     0
  0
XRECORD
  5
7DE1B343D9DFE13
102
{ACAD_REACTORS
330
7DE1B343D9DFE0F
102
}
330
7DE1B343D9DFE0F
100
AcDbXrecord
  1

  0
XRECORD
  5
7DE1B343D9DFE10
102
{ACAD_REACTORS
330
7DE1B343D9DFE0F
102
}
330
7DE1B343D9DFE0F
100
AcDbXrecord
 90
        1
  0
XRECORD
  5
7DE1B343D9DFE11
102
{ACAD_REACTORS
330
7DE1B343D9DFE0F
102
}
330
7DE1B343D9DFE0F
100
AcDbXrecord
 90
       70
  0
XRECORD
  5
7DE1B343D9DFE28
102
{ACAD_REACTORS
330
7DE1B343D9DFE0F
102
}
330
7DE1B343D9DFE0F
100
AcDbXrecord
340
0
  0
XRECORD
  5
7DE1B343D9DFE2E
102
{ACAD_REACTORS
330
7DE1B343D9DFE0F
102
}
330
7DE1B343D9DFE0F
100
AcDbXrecord
 10
0.0
 20
0.0
 30
0.0
  0
XRECORD
  5
7DE1B343D9DFE2A
102
{ACAD_REACTORS
330
7DE1B343D9DFE0F
102
}
330
7DE1B343D9DFE0F
100
AcDbXrecord
 10
0.0
 20
0.0
 30
0.0
  0
XRECORD
  5
7DE1B343D9DFE2D
102
{ACAD_REACTORS
330
7DE1B343D9DFE0F
102
}
330
7DE1B343D9DFE0F
100
AcDbXrecord
 10
0.0
 20
0.0
 30
0.0
  0
XRECORD
  5
7DE1B343D9DFE2B
102
{ACAD_REACTORS
330
7DE1B343D9DFE0F
102
}
330
7DE1B343D9DFE0F
100
AcDbXrecord
 10
0.0
 20
0.0
 30
0.0
  0
XRECORD
  5
7DE1B343D9DFE2C
102
{ACAD_REACTORS
330
7DE1B343D9DFE0F
102
}
330
7DE1B343D9DFE0F
100
AcDbXrecord
 10
0.0
 20
0.0
 30
0.0
  0
XRECORD
  5
7DE1B343D9DFE29
102
{ACAD_REACTORS
330
7DE1B343D9DFE0F
102
}
330
7DE1B343D9DFE0F
100
AcDbXrecord
 10
0.0
 20
0.0
 30
0.0
  0
XRECORD
  5
7DE1B343D9DFE26
102
{ACAD_REACTORS
330
7DE1B343D9DFE0F
102
}
330
7DE1B343D9DFE0F
100
AcDbXrecord
340
0
  0
XRECORD
  5
7DE1B343D9DFE27
102
{ACAD_REACTORS
330
7DE1B343D9DFE0F
102
}
330
7DE1B343D9DFE0F
100
AcDbXrecord
 70
     0
  0
XRECORD
  5
7DE1B343D9DFE1B
102
{ACAD_REACTORS
330
7DE1B343D9DFE0F
102
}
330
7DE1B343D9DFE0F
100
AcDbXrecord
  1
{8F1B04B2-8DB6-11D6-88E6-0090279574E7}
  0
DICTIONARYVAR
  5
7DE1B343D9DFE0D
102
{ACAD_REACTORS
330
7DE1B343D9DFE0C
102
}
330
7DE1B343D9DFE0C
100
DictionaryVariables
280
     0
  1
1
  0
ENDSEC
  0
EOF
