  0
SECTION
  2
HEADER
  9
$ACADVER
  1
AC1014
  9
$ACADMAINTVER
 70
     9
  9
$DWGCODEPAGE
  3
ANSI_1252
  9
$INSBASE
 10
0.0
 20
0.0
 30
0.0
  9
$EXTMIN
 10
0.4002316643227793
 20
2.688462624401138
 30
0.0
  9
$EXTMAX
 10
3.998715733756607
 20
5.124475751815735
 30
0.0
  9
$LIMMIN
 10
0.0
 20
0.0
  9
$LIMMAX
 10
17.0
 20
11.0
  9
$ORTHOMODE
 70
     1
  9
$REGENMODE
 70
     1
  9
$FILLMODE
 70
     1
  9
$QTEXTMODE
 70
     0
  9
$MIRRTEXT
 70
     0
  9
$DRAGMODE
 70
     2
  9
$LTSCALE
 40
2.0
  9
$OSMODE
 70
    39
  9
$ATTMODE
 70
     1
  9
$TEXTSIZE
 40
0.125
  9
$TRACEWID
 40
0.05
  9
$TEXTSTYLE
  7
ROMANS
  9
$CLAYER
  8
TEXT
  9
$CELTYPE
  6
BYLAYER
  9
$CECOLOR
 62
   256
  9
$CELTSCALE
 40
1.0
  9
$DELOBJ
 70
     1
  9
$DISPSILH
 70
     1
  9
$DIMSCALE
 40
1.0
  9
$DIMASZ
 40
0.125
  9
$DIMEXO
 40
0.125
  9
$DIMDLI
 40
0.375
  9
$DIMRND
 40
0.0
  9
$DIMDLE
 40
0.0
  9
$DIMEXE
 40
0.125
  9
$DIMTP
 40
0.0
  9
$DIMTM
 40
0.0
  9
$DIMTXT
 40
0.125
  9
$DIMCEN
 40
-0.125
  9
$DIMTSZ
 40
0.0
  9
$DIMTOL
 70
     0
  9
$DIMLIM
 70
     0
  9
$DIMTIH
 70
     1
  9
$DIMTOH
 70
     1
  9
$DIMSE1
 70
     1
  9
$DIMSE2
 70
     0
  9
$DIMTAD
 70
     0
  9
$DIMZIN
 70
     4
  9
$DIMBLK
  1

  9
$DIMASO
 70
     1
  9
$DIMSHO
 70
     1
  9
$DIMPOST
  1

  9
$DIMAPOST
  1

  9
$DIMALT
 70
     0
  9
$DIMALTD
 70
     2
  9
$DIMALTF
 40
25.4
  9
$DIMLFAC
 40
1.0
  9
$DIMTOFL
 70
     0
  9
$DIMTVP
 40
0.0
  9
$DIMTIX
 70
     0
  9
$DIMSOXD
 70
     0
  9
$DIMSAH
 70
     0
  9
$DIMBLK1
  1

  9
$DIMBLK2
  1

  9
$DIMSTYLE
  2
STANDARD
  9
$DIMCLRD
 70
     0
  9
$DIMCLRE
 70
     0
  9
$DIMCLRT
 70
     0
  9
$DIMTFAC
 40
1.0
  9
$DIMGAP
 40
0.09
  9
$DIMJUST
 70
     0
  9
$DIMSD1
 70
     0
  9
$DIMSD2
 70
     0
  9
$DIMTOLJ
 70
     1
  9
$DIMTZIN
 70
     0
  9
$DIMALTZ
 70
     0
  9
$DIMALTTZ
 70
     0
  9
$DIMFIT
 70
     3
  9
$DIMUPT
 70
     0
  9
$DIMUNIT
 70
     2
  9
$DIMDEC
 70
     3
  9
$DIMTDEC
 70
     4
  9
$DIMALTU
 70
     2
  9
$DIMALTTD
 70
     2
  9
$DIMTXSTY
  7
ROMANS
  9
$DIMAUNIT
 70
     0
  9
$LUNITS
 70
     2
  9
$LUPREC
 70
     3
  9
$SKETCHINC
 40
0.1
  9
$FILLETRAD
 40
0.03125
  9
$AUNITS
 70
     0
  9
$AUPREC
 70
     0
  9
$MENU
  1
AUTOMSTR
  9
$ELEVATION
 40
0.0
  9
$PELEVATION
 40
0.0
  9
$THICKNESS
 40
0.0
  9
$LIMCHECK
 70
     0
  9
$BLIPMODE
 70
     0
  9
$CHAMFERA
 40
0.0
  9
$CHAMFERB
 40
0.0
  9
$CHAMFERC
 40
0.0
  9
$CHAMFERD
 40
0.0
  9
$SKPOLY
 70
     0
  9
$TDCREATE
 40
2448022.834058217
  9
$TDUPDATE
 40
2452458.308138542
  9
$TDINDWG
 40
0.1128234491
  9
$TDUSRTIMER
 40
0.1128234491
  9
$USRTIMER
 70
     1
  9
$ANGBASE
 50
0.0
  9
$ANGDIR
 70
     0
  9
$PDMODE
 70
     0
  9
$PDSIZE
 40
0.0
  9
$PLINEWID
 40
0.0
  9
$COORDS
 70
     2
  9
$SPLFRAME
 70
     0
  9
$SPLINETYPE
 70
     6
  9
$SPLINESEGS
 70
     8
  9
$ATTDIA
 70
     0
  9
$ATTREQ
 70
     1
  9
$HANDLING
 70
 22529
  9
$HANDSEED
  5
37A
  9
$SURFTAB1
 70
     6
  9
$SURFTAB2
 70
     6
  9
$SURFTYPE
 70
     6
  9
$SURFU
 70
     6
  9
$SURFV
 70
     6
  9
$UCSNAME
  2

  9
$UCSORG
 10
0.0
 20
0.0
 30
0.0
  9
$UCSXDIR
 10
1.0
 20
0.0
 30
0.0
  9
$UCSYDIR
 10
0.0
 20
1.0
 30
0.0
  9
$PUCSNAME
  2

  9
$PUCSORG
 10
0.0
 20
0.0
 30
0.0
  9
$PUCSXDIR
 10
1.0
 20
0.0
 30
0.0
  9
$PUCSYDIR
 10
0.0
 20
1.0
 30
0.0
  9
$USERI1
 70
     0
  9
$USERI2
 70
     0
  9
$USERI3
 70
     0
  9
$USERI4
 70
     0
  9
$USERI5
 70
     0
  9
$USERR1
 40
0.0
  9
$USERR2
 40
0.0
  9
$USERR3
 40
0.0
  9
$USERR4
 40
0.0
  9
$USERR5
 40
0.0
  9
$WORLDVIEW
 70
     1
  9
$SHADEDGE
 70
     3
  9
$SHADEDIF
 70
    70
  9
$TILEMODE
 70
     1
  9
$MAXACTVP
 70
    16
  9
$PINSBASE
 10
0.0
 20
0.0
 30
0.0
  9
$PLIMCHECK
 70
     0
  9
$PEXTMIN
 10
1.000000000000000E+20
 20
1.000000000000000E+20
 30
1.000000000000000E+20
  9
$PEXTMAX
 10
-1.000000000000000E+20
 20
-1.000000000000000E+20
 30
-1.000000000000000E+20
  9
$PLIMMIN
 10
0.0
 20
0.0
  9
$PLIMMAX
 10
12.0
 20
9.0
  9
$UNITMODE
 70
     0
  9
$VISRETAIN
 70
     0
  9
$PLINEGEN
 70
     1
  9
$PSLTSCALE
 70
     0
  9
$TREEDEPTH
 70
  3020
  9
$PICKSTYLE
 70
     1
  9
$CMLSTYLE
  2
STANDARD
  9
$CMLJUST
 70
     0
  9
$CMLSCALE
 40
1.0
  9
$PROXYGRAPHICS
 70
     1
  9
$MEASUREMENT
 70
     0
  0
ENDSEC
  0
SECTION
  2
CLASSES
  0
CLASS
  1
LWPOLYLINE
  2
AcDbPolyline
  3
AutoCAD 2000
 90
        0
280
     0
281
     1
  0
CLASS
  1
ACDBDICTIONARYWDFLT
  2
AcDbDictionaryWithDefault
  3
AutoCAD 2000
 90
        0
280
     0
281
     0
  0
CLASS
  1
ACDBPLACEHOLDER
  2
AcDbPlaceHolder
  3
AutoCAD 2000
 90
        0
280
     0
281
     0
  0
CLASS
  1
LAYOUT
  2
AcDbLayout
  3
AutoCAD 2000
 90
        0
280
     0
281
     0
  0
CLASS
  1
DICTIONARYVAR
  2
AcDbDictionaryVar
  3
AutoCAD 2000
 90
        0
280
     0
281
     0
  0
CLASS
  1
LONG_TRANSACTION
  2
AcDbLongTransaction
  3
AutoCAD 2000
 90
        0
280
     0
281
     0
  0
CLASS
  1
LWPOLYLINE
  2
AcDbPolyline
  3
AutoCAD 2000
 90
        0
280
     0
281
     1
  0
CLASS
  1
HATCH
  2
AcDbHatch
  3
AutoCAD 2000
 90
        0
280
     0
281
     1
  0
CLASS
  1
XRECORD
  2
AcDbXrecord
  3
AutoCAD 2000
 90
        0
280
     0
281
     0
  0
ENDSEC
  0
SECTION
  2
TABLES
  0
TABLE
  2
VPORT
  5
8
330
0
100
AcDbSymbolTable
 70
     2
  0
VPORT
  5
355
330
8
100
AcDbSymbolTableRecord
100
AcDbViewportTableRecord
  2
*ACTIVE
 70
     0
 10
0.0
 20
0.0
 11
1.0
 21
1.0
 12
5.519866663462589
 22
3.906814001081997
 13
0.0
 23
0.0
 14
0.015625
 24
0.015625
 15
0.0
 25
0.0
 16
0.0
 26
0.0
 36
1.0
 17
0.0
 27
0.0
 37
0.0
 40
2.458242923399298
 41
4.320930232558139
 42
50.0
 43
0.0
 44
0.0
 50
0.0
 51
0.0
 71
     0
 72
  2000
 73
     1
 74
     1
 75
     0
 76
     0
 77
     0
 78
     0
  0
ENDTAB
  0
TABLE
  2
LTYPE
  5
5
330
0
100
AcDbSymbolTable
 70
     1
  0
LTYPE
  5
12
330
5
100
AcDbSymbolTableRecord
100
AcDbLinetypeTableRecord
  2
BYBLOCK
 70
     0
  3

 72
    65
 73
     0
 40
0.0
  0
LTYPE
  5
13
330
5
100
AcDbSymbolTableRecord
100
AcDbLinetypeTableRecord
  2
BYLAYER
 70
     0
  3

 72
    65
 73
     0
 40
0.0
  0
LTYPE
  5
14
330
5
100
AcDbSymbolTableRecord
100
AcDbLinetypeTableRecord
  2
CONTINUOUS
 70
     0
  3
Solid line
 72
    65
 73
     0
 40
0.0
  0
ENDTAB
  0
TABLE
  2
LAYER
  5
2
330
0
100
AcDbSymbolTable
 70
     2
  0
LAYER
  5
F
330
2
100
AcDbSymbolTableRecord
100
AcDbLayerTableRecord
  2
0
 70
     0
 62
     7
  6
CONTINUOUS
  0
LAYER
  5
2B
330
2
100
AcDbSymbolTableRecord
100
AcDbLayerTableRecord
  2
TEXT
 70
     0
 62
     3
  6
CONTINUOUS
  0
ENDTAB
  0
TABLE
  2
STYLE
  5
3
330
0
100
AcDbSymbolTable
 70
     3
  0
STYLE
  5
10
330
3
100
AcDbSymbolTableRecord
100
AcDbTextStyleTableRecord
  2
STANDARD
 70
     0
 40
0.0
 41
1.0
 50
0.0
 71
     0
 42
0.125
  3
txt
  4

  0
STYLE
  5
240
330
3
100
AcDbSymbolTableRecord
100
AcDbTextStyleTableRecord
  2
ITALICC
 70
     0
 40
0.0
 41
1.0
 50
0.0
 71
     0
 42
0.125
  3
italicc
  4

  0
STYLE
  5
351
330
3
100
AcDbSymbolTableRecord
100
AcDbTextStyleTableRecord
  2
ROMANS
 70
     0
 40
0.0
 41
1.0
 50
0.0
 71
     0
 42
0.125
  3
romans.shx
  4

  0
ENDTAB
  0
TABLE
  2
VIEW
  5
6
330
0
100
AcDbSymbolTable
 70
     0
  0
ENDTAB
  0
TABLE
  2
UCS
  5
7
330
0
100
AcDbSymbolTable
 70
     0
  0
ENDTAB
  0
TABLE
  2
APPID
  5
9
330
0
100
AcDbSymbolTable
 70
     1
  0
APPID
  5
11
330
9
100
AcDbSymbolTableRecord
100
AcDbRegAppTableRecord
  2
ACAD
 70
     0
  0
ENDTAB
  0
TABLE
  2
DIMSTYLE
  5
A
330
0
100
AcDbSymbolTable
 70
     1
  0
DIMSTYLE
105
234
330
A
100
AcDbSymbolTableRecord
100
AcDbDimStyleTableRecord
  2
STANDARD
 70
     0
  3

  4

  5

  6

  7

 40
1.0
 41
0.18
 42
0.0625
 43
0.38
 44
0.18
 45
0.0
 46
0.0
 47
0.0
 48
0.0
140
0.18
141
0.09
142
0.0
143
25.4
144
1.0
145
0.0
146
1.0
147
0.09
 71
     0
 72
     0
 73
     1
 74
     1
 75
     0
 76
     0
 77
     0
 78
     0
170
     0
171
     2
172
     0
173
     0
174
     0
175
     0
176
     0
177
     0
178
     0
270
     2
271
     4
272
     4
273
     2
274
     2
340
10
275
     0
280
     0
281
     0
282
     0
283
     1
284
     0
285
     0
286
     0
287
     3
288
     0
  0
ENDTAB
  0
TABLE
  2
BLOCK_RECORD
  5
1
330
0
100
AcDbSymbolTable
 70
     0
  0
BLOCK_RECORD
  5
18
102
{ACAD_XDICTIONARY
360
378
102
}
330
1
100
AcDbSymbolTableRecord
100
AcDbBlockTableRecord
  2
*MODEL_SPACE
  0
BLOCK_RECORD
  5
15
102
{ACAD_XDICTIONARY
360
376
102
}
330
1
100
AcDbSymbolTableRecord
100
AcDbBlockTableRecord
  2
*PAPER_SPACE
  0
ENDTAB
  0
ENDSEC
  0
SECTION
  2
BLOCKS
  0
BLOCK
  5
33
330
18
100
AcDbEntity
  8
0
100
AcDbBlockBegin
  2
*MODEL_SPACE
 70
     0
 10
0.0
 20
0.0
 30
0.0
  3
*MODEL_SPACE
  1

  0
ENDBLK
  5
34
330
18
100
AcDbEntity
  8
0
100
AcDbBlockEnd
  0
BLOCK
  5
31
330
15
100
AcDbEntity
 67
     1
  8
0
100
AcDbBlockBegin
  2
*PAPER_SPACE
 70
     0
 10
0.0
 20
0.0
 30
0.0
  3
*PAPER_SPACE
  1

  0
ENDBLK
  5
32
330
15
100
AcDbEntity
 67
     1
  8
0
100
AcDbBlockEnd
  0
ENDSEC
  0
SECTION
  2
ENTITIES
  0
LWPOLYLINE
  5
1D1
330
18
100
AcDbEntity
  8
0
 62
     7
100
AcDbPolyline
 90
       16
 70
     1
 43
0.0
 10
3.566023650223017
 20
3.380509656762118
 10
3.636136498725129
 20
3.380509656762118
 42
-0.0055061681107296
 10
3.637153472704302
 20
3.348855470240674
 42
1.000000068886971
 10
3.699139665915429
 20
3.350163847553603
 42
0.4080456605827187
 10
2.199473699039692
 20
4.818509656762119
 42
0.4080456605827186
 10
0.6998077321639567
 20
3.350163847553603
 42
1.000000068886971
 10
0.7617939253750825
 20
3.348855470240674
 42
-0.0055061681107296
 10
0.7628108993542553
 20
3.380509656762118
 10
0.8329237478563676
 20
3.380509656762118
 42
0.2670332831407415
 10
0.8599334617426585
 20
3.396042218809936
 10
0.8869736990396926
 20
3.442509656762118
 10
0.7668299889707866
 20
3.442509656762119
 42
-0.3891459446913021
 10
2.199473699039692
 20
4.756509656762117
 42
-0.3891459446913021
 10
3.632117409108599
 20
3.442509656762119
 10
3.511973699039692
 20
3.442509656762118
 10
3.539013936336726
 20
3.396042218809936
 42
0.2670332831407408
  0
TEXT
  5
2C6
330
18
100
AcDbEntity
  8
TEXT
100
AcDbText
 10
1.419977150094687
 20
3.14648122848372
 30
0.0
 40
0.125
  1
PART #110355
  7
ITALICC
 72
     1
 11
2.175929531047068
 21
3.14648122848372
 31
0.0
100
AcDbText
  0
LINE
  5
2C7
330
18
100
AcDbEntity
  8
TEXT
100
AcDbLine
 10
2.143663029999131
 20
2.902127542463886
 30
0.0
 11
2.220311011291689
 21
2.902127542463886
 31
0.0
  0
LINE
  5
2C8
330
18
100
AcDbEntity
  8
TEXT
100
AcDbLine
 10
2.215831123965188
 20
2.966404237120651
 30
0.0
 11
2.148331406315672
 21
2.966404237120651
 31
0.0
  0
LWPOLYLINE
  5
2C9
330
18
100
AcDbEntity
  8
TEXT
100
AcDbPolyline
 90
        5
 70
     0
 43
0.0001332181640625
 10
0.5065509874644563
 20
2.843177435362838
 10
0.519872803870705
 20
2.843177435362838
 10
0.519872803870705
 20
2.879812430480028
 10
0.5565077989878949
 20
2.879812430480028
 10
0.5565077989878949
 20
2.893134246886275
  0
LWPOLYLINE
  5
2CA
330
18
100
AcDbEntity
  8
TEXT
100
AcDbPolyline
 90
        3
 70
     0
 43
0.0006660908203125
 10
0.5465164366832043
 20
2.939760604308154
 10
0.4599246300425795
 20
2.939760604308154
 10
0.4599246300425795
 20
2.853168797667527
  0
LWPOLYLINE
  5
2CB
330
18
100
AcDbEntity
  8
TEXT
100
AcDbPolyline
 90
        3
 70
     0
 43
0.0006660908203125
 10
0.5465164366832043
 20
2.966404237120655
 10
0.433280997230082
 20
2.966404237120655
 10
0.433280997230082
 20
2.853168797667527
  0
LWPOLYLINE
  5
2CC
330
18
100
AcDbEntity
  8
TEXT
100
AcDbPolyline
 90
        5
 70
     0
 43
0.0001332181640625
 10
0.5565077989878949
 20
2.773237899230028
 10
0.5565077989878949
 20
2.786559715636278
 10
0.5198728038707068
 20
2.786559715636278
 10
0.5198728038707068
 20
2.823194710753464
 10
0.5065509874644563
 20
2.823194710753464
  0
LWPOLYLINE
  5
2CD
330
18
100
AcDbEntity
  8
TEXT
100
AcDbPolyline
 90
        3
 70
     0
 43
0.0006660908203125
 10
0.4599246300425795
 20
2.813203348448779
 10
0.4599246300425795
 20
2.726611541808153
 10
0.5465164366832043
 20
2.726611541808153
  0
LWPOLYLINE
  5
2CE
330
18
100
AcDbEntity
  8
TEXT
100
AcDbPolyline
 90
        3
 70
     0
 43
0.0006660908203125
 10
0.433280997230082
 20
2.813203348448779
 10
0.433280997230082
 20
2.699967908995652
 10
0.5465164366832043
 20
2.699967908995652
  0
LWPOLYLINE
  5
2CF
330
18
100
AcDbEntity
  8
TEXT
100
AcDbPolyline
 90
        2
 70
     0
 43
0.0001332181640625
 10
0.4599246300425795
 20
2.813203348448779
 10
0.5198728038707068
 20
2.823194710753464
  0
LWPOLYLINE
  5
2D0
330
18
100
AcDbEntity
  8
TEXT
100
AcDbPolyline
 90
        2
 70
     0
 43
0.0001332181640625
 10
0.5065509874644563
 20
2.823194710753464
 10
0.433280997230082
 20
2.813203348448779
  0
LWPOLYLINE
  5
2D1
330
18
100
AcDbEntity
  8
TEXT
100
AcDbPolyline
 90
        2
 70
     0
 43
0.0006660908203125
 10
0.4599246300425795
 20
2.813203348448779
 10
0.433280997230082
 20
2.813203348448779
  0
LWPOLYLINE
  5
2D2
330
18
100
AcDbEntity
  8
TEXT
100
AcDbPolyline
 90
        2
 70
     0
 43
0.0001332181640625
 10
0.4599246300425795
 20
2.726611541808153
 10
0.5198728038707068
 20
2.786559715636278
  0
LWPOLYLINE
  5
2D3
330
18
100
AcDbEntity
  8
TEXT
100
AcDbPolyline
 90
        2
 70
     0
 43
0.0006660908203125
 10
0.4599246300425795
 20
2.853168797667527
 10
0.433280997230082
 20
2.853168797667527
  0
LWPOLYLINE
  5
2D4
330
18
100
AcDbEntity
  8
TEXT
100
AcDbPolyline
 90
        2
 70
     0
 43
0.0001332181640625
 10
0.433280997230082
 20
2.853168797667527
 10
0.5065509874644563
 20
2.843177435362838
  0
LWPOLYLINE
  5
2D5
330
18
100
AcDbEntity
  8
TEXT
100
AcDbPolyline
 90
        2
 70
     0
 43
0.0001332181640625
 10
0.4599246300425795
 20
2.853168797667527
 10
0.519872803870705
 20
2.843177435362838
  0
LWPOLYLINE
  5
2D6
330
18
100
AcDbEntity
  8
TEXT
100
AcDbPolyline
 90
        2
 70
     0
 43
0.0001332181640625
 10
0.4599246300425795
 20
2.939760604308154
 10
0.519872803870705
 20
2.879812430480028
  0
LWPOLYLINE
  5
2D7
330
18
100
AcDbEntity
  8
TEXT
100
AcDbPolyline
 90
        5
 70
     0
 43
0.0001332181640625
 10
0.6264473351207056
 20
2.823194710753464
 10
0.6131255187144569
 20
2.823194710753464
 10
0.6131255187144569
 20
2.786559715636278
 10
0.5764905235972671
 20
2.786559715636278
 10
0.5764905235972671
 20
2.773237899230028
  0
LWPOLYLINE
  5
2D8
330
18
100
AcDbEntity
  8
TEXT
100
AcDbPolyline
 90
        2
 70
     0
 43
0.0001332181640625
 10
0.6730736925425807
 20
2.813203348448779
 10
0.6131255187144569
 20
2.823194710753464
  0
LWPOLYLINE
  5
2D9
330
18
100
AcDbEntity
  8
TEXT
100
AcDbPolyline
 90
        2
 70
     0
 43
0.0001332181640625
 10
0.6997173253550817
 20
2.813203348448779
 10
0.6264473351207056
 20
2.823194710753464
  0
LWPOLYLINE
  5
2DA
330
18
100
AcDbEntity
  8
TEXT
100
AcDbPolyline
 90
        3
 70
     0
 43
0.0006660908203125
 10
0.5864818859019559
 20
2.699967908995652
 10
0.6997173253550817
 20
2.699967908995652
 10
0.6997173253550817
 20
2.813203348448779
  0
LWPOLYLINE
  5
2DB
330
18
100
AcDbEntity
  8
TEXT
100
AcDbPolyline
 90
        3
 70
     0
 43
0.0006660908203125
 10
0.5864818859019559
 20
2.726611541808153
 10
0.6730736925425807
 20
2.726611541808153
 10
0.6730736925425807
 20
2.813203348448779
  0
LWPOLYLINE
  5
2DC
330
18
100
AcDbEntity
  8
TEXT
100
AcDbPolyline
 90
        2
 70
     0
 43
0.0001332181640625
 10
0.6730736925425807
 20
2.726611541808153
 10
0.6131255187144569
 20
2.786559715636278
  0
LWPOLYLINE
  5
2DD
330
18
100
AcDbEntity
  8
TEXT
100
AcDbPolyline
 90
        2
 70
     0
 43
0.0006660908203125
 10
0.5864818859019559
 20
2.726611541808153
 10
0.5864818859019559
 20
2.699967908995652
  0
LWPOLYLINE
  5
2DE
330
18
100
AcDbEntity
  8
TEXT
100
AcDbPolyline
 90
        2
 70
     0
 43
0.0001332181640625
 10
0.5764905235972671
 20
2.773237899230028
 10
0.5864818859019559
 20
2.699967908995652
  0
LWPOLYLINE
  5
2DF
330
18
100
AcDbEntity
  8
TEXT
100
AcDbPolyline
 90
        2
 70
     0
 43
0.0001332181640625
 10
0.5864818859019559
 20
2.726611541808153
 10
0.5764905235972671
 20
2.786559715636278
  0
LWPOLYLINE
  5
2E0
330
18
100
AcDbEntity
  8
TEXT
100
AcDbPolyline
 90
        2
 70
     0
 43
0.0001332181640625
 10
0.5465164366832043
 20
2.699967908995652
 10
0.5565077989878949
 20
2.773237899230028
  0
LWPOLYLINE
  5
2E1
330
18
100
AcDbEntity
  8
TEXT
100
AcDbPolyline
 90
        2
 70
     0
 43
0.0001332181640625
 10
0.5465164366832043
 20
2.726611541808153
 10
0.5565077989878949
 20
2.786559715636278
  0
LWPOLYLINE
  5
2E2
330
18
100
AcDbEntity
  8
TEXT
100
AcDbPolyline
 90
        2
 70
     0
 43
0.0006660908203125
 10
0.5465164366832043
 20
2.726611541808153
 10
0.5465164366832043
 20
2.699967908995652
  0
LWPOLYLINE
  5
2E3
330
18
100
AcDbEntity
  8
TEXT
100
AcDbPolyline
 90
        2
 70
     0
 43
0.0006660908203125
 10
0.6730736925425807
 20
2.813203348448779
 10
0.6997173253550817
 20
2.813203348448779
  0
LWPOLYLINE
  5
2E4
330
18
100
AcDbEntity
  8
TEXT
100
AcDbPolyline
 90
        2
 70
     0
 43
0.0001332181640625
 10
0.6730736925425807
 20
2.939760604308154
 10
0.6131255187144569
 20
2.879812430480028
  0
LWPOLYLINE
  5
2E5
330
18
100
AcDbEntity
  8
TEXT
100
AcDbPolyline
 90
        2
 70
     0
 43
0.0001332181640625
 10
0.6730736925425807
 20
2.853168797667527
 10
0.6131255187144569
 20
2.843177435362838
  0
LWPOLYLINE
  5
2E6
330
18
100
AcDbEntity
  8
TEXT
100
AcDbPolyline
 90
        2
 70
     0
 43
0.0001332181640625
 10
0.6264473351207056
 20
2.843177435362838
 10
0.6997173253550817
 20
2.853168797667527
  0
LWPOLYLINE
  5
2E7
330
18
100
AcDbEntity
  8
TEXT
100
AcDbPolyline
 90
        3
 70
     0
 43
0.0006660908203125
 10
0.6730736925425807
 20
2.853168797667527
 10
0.6730736925425807
 20
2.939760604308154
 10
0.5864818859019559
 20
2.939760604308154
  0
LWPOLYLINE
  5
2E8
330
18
100
AcDbEntity
  8
TEXT
100
AcDbPolyline
 90
        3
 70
     0
 43
0.0006660908203125
 10
0.6997173253550817
 20
2.853168797667527
 10
0.6997173253550817
 20
2.966404237120655
 10
0.5864818859019559
 20
2.966404237120655
  0
LWPOLYLINE
  5
2E9
330
18
100
AcDbEntity
  8
TEXT
100
AcDbPolyline
 90
        2
 70
     0
 43
0.0001332181640625
 10
0.5864818859019559
 20
2.966404237120655
 10
0.5764905235972671
 20
2.893134246886275
  0
LWPOLYLINE
  5
2EA
330
18
100
AcDbEntity
  8
TEXT
100
AcDbPolyline
 90
        2
 70
     0
 43
0.0001332181640625
 10
0.5864818859019559
 20
2.939760604308154
 10
0.5764905235972671
 20
2.879812430480028
  0
LWPOLYLINE
  5
2EB
330
18
100
AcDbEntity
  8
TEXT
100
AcDbPolyline
 90
        2
 70
     0
 43
0.0006660908203125
 10
0.5864818859019559
 20
2.939760604308154
 10
0.5864818859019559
 20
2.966404237120655
  0
LWPOLYLINE
  5
2EC
330
18
100
AcDbEntity
  8
TEXT
100
AcDbPolyline
 90
        5
 70
     0
 43
0.0001332181640625
 10
0.5764905235972671
 20
2.893134246886275
 10
0.5764905235972671
 20
2.879812430480028
 10
0.6131255187144569
 20
2.879812430480028
 10
0.6131255187144569
 20
2.843177435362838
 10
0.6264473351207056
 20
2.843177435362838
  0
LWPOLYLINE
  5
2ED
330
18
100
AcDbEntity
  8
TEXT
100
AcDbPolyline
 90
        2
 70
     0
 43
0.0001332181640625
 10
0.5465164366832043
 20
2.939760604308154
 10
0.5565077989878949
 20
2.879812430480028
  0
LWPOLYLINE
  5
2EE
330
18
100
AcDbEntity
  8
TEXT
100
AcDbPolyline
 90
        2
 70
     0
 43
0.0001332181640625
 10
0.5565077989878949
 20
2.893134246886275
 10
0.5465164366832043
 20
2.966404237120655
  0
LWPOLYLINE
  5
2EF
330
18
100
AcDbEntity
  8
TEXT
100
AcDbPolyline
 90
        2
 70
     0
 43
0.0006660908203125
 10
0.5465164366832043
 20
2.939760604308154
 10
0.5465164366832043
 20
2.966404237120655
  0
LWPOLYLINE
  5
2F0
330
18
100
AcDbEntity
  8
TEXT
100
AcDbPolyline
 90
        2
 70
     0
 43
0.0006660908203125
 10
0.6730736925425807
 20
2.853168797667527
 10
0.6997173253550817
 20
2.853168797667527
  0
LWPOLYLINE
  5
2F1
330
18
100
AcDbEntity
  8
TEXT
100
AcDbPolyline
 90
        2
 70
     0
 43
0.0
 10
1.418497246103711
 20
2.751482546347069
 42
0.3318488747599744
 10
1.487616538669024
 20
2.69993120413214
 42
-6.868794160588311
  0
LINE
  5
2F2
330
18
100
AcDbEntity
  8
TEXT
100
AcDbLine
 10
1.486476965172829
 20
3.034415714859462
 30
0.0
 11
1.419668252606464
 21
3.034415714859462
 31
0.0
  0
LINE
  5
2F3
330
18
100
AcDbEntity
  8
TEXT
100
AcDbLine
 10
1.14032588498737
 20
2.966404237120651
 30
0.0
 11
0.9645941320888589
 21
2.966404237120651
 31
0.0
  0
ARC
  5
2F4
330
18
100
AcDbEntity
  8
TEXT
100
AcDbCircle
 10
1.035431598447408
 20
2.783127012492697
 30
0.0
 40
0.0831958083605586
100
AcDbArc
 50
270.0
 51
90.0
  0
LINE
  5
2F5
330
18
100
AcDbEntity
  8
TEXT
100
AcDbLine
 10
0.969831462203107
 20
2.902127542463886
 30
0.0
 11
1.136737116232077
 21
2.902127542463886
 31
0.0
  0
LINE
  5
2F6
330
18
100
AcDbEntity
  8
TEXT
100
AcDbLine
 10
1.040371972353687
 20
2.76828821046558
 30
0.0
 11
0.8825066726423536
 21
2.76828821046558
 31
0.0
  0
LINE
  5
2F7
330
18
100
AcDbEntity
  8
TEXT
100
AcDbLine
 10
0.8825066726423553
 20
2.69993120413214
 30
0.0
 11
1.035431598447408
 21
2.69993120413214
 31
0.0
  0
ARC
  5
2F8
330
18
100
AcDbEntity
  8
TEXT
100
AcDbCircle
 10
0.9645941320888592
 20
2.88431677767415
 30
0.0
 40
0.0820874594465043
100
AcDbArc
 50
90.0
 51
270.0
  0
LINE
  5
2F9
330
18
100
AcDbEntity
  8
TEXT
100
AcDbLine
 10
0.8825066726423536
 20
2.76828821046558
 30
0.0
 11
0.8825066726423553
 21
2.69993120413214
 31
0.0
  0
LINE
  5
2FA
330
18
100
AcDbEntity
  8
TEXT
100
AcDbLine
 10
0.9645941320888589
 20
2.802229318227644
 30
0.0
 11
1.040371972353687
 21
2.802229318227644
 31
0.0
  0
ARC
  5
2FB
330
18
100
AcDbEntity
  8
TEXT
100
AcDbCircle
 10
1.040371972353688
 20
2.785258764346614
 30
0.0
 40
0.0169705538810321
100
AcDbArc
 50
270.0
 51
90.0
  0
LINE
  5
2FC
330
18
100
AcDbEntity
  8
TEXT
100
AcDbLine
 10
1.035431598447408
 20
2.866322820853258
 30
0.0
 11
0.969831462203107
 21
2.866322820853258
 31
0.0
  0
ARC
  5
2FD
330
18
100
AcDbEntity
  8
TEXT
100
AcDbCircle
 10
0.9698314622031073
 20
2.884225181658574
 30
0.0
 40
0.017902360805315
100
AcDbArc
 50
90.0
 51
270.0
  0
LINE
  5
2FE
330
18
100
AcDbEntity
  8
TEXT
100
AcDbLine
 10
1.330797777007222
 20
2.865532241007531
 30
0.0
 11
1.272167455975284
 21
2.966404237120651
 31
0.0
  0
LINE
  5
2FF
330
18
100
AcDbEntity
  8
TEXT
100
AcDbLine
 10
1.190623723712183
 20
2.69993120413214
 30
0.0
 11
1.287263974787177
 21
2.700201843230423
 31
0.0
  0
LWPOLYLINE
  5
300
330
18
100
AcDbEntity
  8
TEXT
100
AcDbPolyline
 90
        6
 70
     1
 43
0.0
 10
1.233147527287333
 20
2.902127542463886
 10
1.202830933067124
 20
2.902127542463886
 10
1.202830933067124
 20
2.779016544408992
 42
0.407328721240804
 10
1.214374584228601
 20
2.767197629732605
 10
1.274996283273332
 20
2.767197629732605
 10
1.29246162368065
 20
2.800009858776085
  0
LINE
  5
301
330
18
100
AcDbEntity
  8
TEXT
100
AcDbLine
 10
1.136737116232077
 20
2.902127542463886
 30
0.0
 11
1.136737116232077
 21
2.75972359547019
 31
0.0
  0
ARC
  5
302
330
18
100
AcDbEntity
  8
TEXT
100
AcDbCircle
 10
1.196853134205829
 20
2.75972359547019
 30
0.0
 40
0.0601160179737537
100
AcDbArc
 50
180.0000000000003
 51
264.0521544866073
  0
LINE
  5
303
330
18
100
AcDbEntity
  8
TEXT
100
AcDbLine
 10
1.200368489831377
 20
3.000792154714789
 30
0.0
 11
1.14032588498737
 21
3.000792154714789
 31
0.0
  0
LINE
  5
304
330
18
100
AcDbEntity
  8
TEXT
100
AcDbLine
 10
1.14032588498737
 20
3.000792154714789
 30
0.0
 11
1.14032588498737
 21
2.966404237120651
 31
0.0
  0
LINE
  5
305
330
18
100
AcDbEntity
  8
TEXT
100
AcDbLine
 10
1.200368489831377
 20
2.966404237120651
 30
0.0
 11
1.200368489831377
 21
3.000792154714789
 31
0.0
  0
LINE
  5
306
330
18
100
AcDbEntity
  8
TEXT
100
AcDbLine
 10
1.272167455975284
 20
2.966404237120651
 30
0.0
 11
1.200368489831377
 21
2.966404237120651
 31
0.0
  0
LINE
  5
307
330
18
100
AcDbEntity
  8
TEXT
100
AcDbLine
 10
1.321197540010268
 20
2.719889710237153
 30
0.0
 11
1.418497246103712
 21
2.884239921172421
 31
0.0
  0
LINE
  5
308
330
18
100
AcDbEntity
  8
TEXT
100
AcDbLine
 10
1.418497246103712
 20
2.884239921172421
 30
0.0
 11
1.418497246103712
 21
2.751482546347065
 31
0.0
  0
ARC
  5
309
330
18
100
AcDbEntity
  8
TEXT
100
AcDbCircle
 10
1.287153980098054
 20
2.739478926405836
 30
0.0
 40
0.0392772371940762
100
AcDbArc
 50
270.1604552698595
 51
330.0831797321295
  0
LINE
  5
30A
330
18
100
AcDbEntity
  8
TEXT
100
AcDbLine
 10
1.389546339813088
 20
2.966404237120651
 30
0.0
 11
1.330797777007222
 21
2.865532241007531
 31
0.0
  0
LINE
  5
30B
330
18
100
AcDbEntity
  8
TEXT
100
AcDbLine
 10
1.419668252606464
 20
3.034415714859462
 30
0.0
 11
1.419668252606464
 21
2.966404237120651
 31
0.0
  0
LINE
  5
30C
330
18
100
AcDbEntity
  8
TEXT
100
AcDbLine
 10
1.419668252606464
 20
2.966404237120651
 30
0.0
 11
1.389546339813088
 21
2.966404237120651
 31
0.0
  0
LWPOLYLINE
  5
30D
330
18
100
AcDbEntity
  8
TEXT
100
AcDbPolyline
 90
        4
 70
     0
 43
0.0
 10
1.771754374226622
 20
2.894573753297776
 10
1.771754374226622
 20
2.69993120413214
 10
1.84023265751448
 20
2.69993120413214
 10
1.84023265751448
 20
2.743422149082578
 42
-1.714843617202739
  0
LWPOLYLINE
  5
30E
330
18
100
AcDbEntity
  8
TEXT
100
AcDbPolyline
 90
        2
 70
     0
 43
0.0
 10
1.806888724770832
 20
2.966404237120655
 42
-0.3277054968067132
 10
1.842670415483997
 20
2.938081691351011
 42
6.667889725900311
  0
LWPOLYLINE
  5
30F
330
18
100
AcDbEntity
  8
TEXT
100
AcDbPolyline
 90
        2
 70
     0
 43
0.0
 10
1.635455152191605
 20
2.902127542463886
 42
-0.4142135623731017
 10
1.643008941357718
 20
2.894573753297776
 42
-0.9999999999999998
  0
LINE
  5
310
330
18
100
AcDbEntity
  8
TEXT
100
AcDbLine
 10
1.652806875241625
 20
2.966404237120651
 30
0.0
 11
1.518788819310489
 21
2.966404237120651
 31
0.0
  0
LINE
  5
311
330
18
100
AcDbEntity
  8
TEXT
100
AcDbLine
 10
1.585619872368458
 20
2.69993120413214
 30
0.0
 11
1.585619872368458
 21
2.902127542463886
 31
0.0
  0
LINE
  5
312
330
18
100
AcDbEntity
  8
TEXT
100
AcDbLine
 10
1.518788819310489
 20
2.966404237120651
 30
0.0
 11
1.518788819310489
 21
2.765540030388243
 31
0.0
  0
LINE
  5
313
330
18
100
AcDbEntity
  8
TEXT
100
AcDbLine
 10
1.486476965172829
 20
2.78231904223514
 30
0.0
 11
1.486476965172829
 21
3.034415714859462
 31
0.0
  0
LINE
  5
314
330
18
100
AcDbEntity
  8
TEXT
100
AcDbLine
 10
1.487616538669024
 20
2.69993120413214
 30
0.0
 11
1.585619872368458
 21
2.69993120413214
 31
0.0
  0
LINE
  5
315
330
18
100
AcDbEntity
  8
TEXT
100
AcDbLine
 10
1.518788819310489
 20
2.765540030388243
 30
0.0
 11
1.501795182425888
 21
2.765540030388243
 31
0.0
  0
ARC
  5
316
330
18
100
AcDbEntity
  8
TEXT
100
AcDbCircle
 10
1.501795182425887
 20
2.780921836631669
 30
0.0
 40
0.0153818062434269
100
AcDbArc
 50
174.7883570302258
 51
270.0
  0
LINE
  5
317
330
18
100
AcDbEntity
  8
TEXT
100
AcDbLine
 10
1.585619872368458
 20
2.902127542463886
 30
0.0
 11
1.635455152191606
 21
2.902127542463886
 31
0.0
  0
LINE
  5
318
330
18
100
AcDbEntity
  8
TEXT
100
AcDbLine
 10
1.643008941357719
 20
2.894573753297776
 30
0.0
 11
1.643008941357719
 21
2.69993120413214
 31
0.0
  0
LINE
  5
319
330
18
100
AcDbEntity
  8
TEXT
100
AcDbLine
 10
1.710066988139559
 20
2.69993120413214
 30
0.0
 11
1.710066988139559
 21
2.902127542463886
 31
0.0
  0
LINE
  5
31A
330
18
100
AcDbEntity
  8
TEXT
100
AcDbLine
 10
1.643008941357719
 20
2.69993120413214
 30
0.0
 11
1.710066988139559
 21
2.69993120413214
 31
0.0
  0
LWPOLYLINE
  5
31B
330
18
100
AcDbEntity
  8
TEXT
100
AcDbPolyline
 90
        3
 70
     0
 43
0.0
 10
1.806888724770832
 20
2.966404237120655
 10
1.688588565954788
 20
2.966404237120655
 10
1.688588565954788
 20
2.939236740359759
 42
-1.960274751411753
  0
LINE
  5
31C
330
18
100
AcDbEntity
  8
TEXT
100
AcDbLine
 10
1.710066988139559
 20
2.902127542463886
 30
0.0
 11
1.76420058506051
 21
2.902127542463886
 31
0.0
  0
LWPOLYLINE
  5
31D
330
18
100
AcDbEntity
  8
TEXT
100
AcDbPolyline
 90
        2
 70
     0
 43
0.0
 10
1.652806875241626
 20
2.966404237120655
 42
-0.3328679258950098
 10
1.688588565954788
 20
2.939236740359759
 42
6.772930709997214
  0
LWPOLYLINE
  5
31E
330
18
100
AcDbEntity
  8
TEXT
100
AcDbPolyline
 90
        2
 70
     0
 43
0.0
 10
1.764200585060509
 20
2.902127542463886
 42
-0.4142135623731017
 10
1.771754374226622
 20
2.894573753297776
 42
-0.9999999999999998
  0
ARC
  5
31F
330
18
100
AcDbEntity
  8
TEXT
100
AcDbCircle
 10
1.975475384923988
 20
2.924820669999749
 30
0.0
 40
0.0416329381542859
100
AcDbArc
 50
26.56974201007528
 51
87.20939649401342
  0
LWPOLYLINE
  5
320
330
18
100
AcDbEntity
  8
TEXT
100
AcDbPolyline
 90
        2
 70
     0
 43
0.0
 10
1.883308590382116
 20
2.69993120413214
 10
2.017326008013492
 20
2.69993120413214
 42
0.9999999999999998
  0
LWPOLYLINE
  5
321
330
18
100
AcDbEntity
  8
TEXT
100
AcDbPolyline
 90
        4
 70
     1
 43
0.0
 10
1.9972035429436
 20
2.802895182116166
 10
1.908543224283741
 20
2.802895182116166
 42
0.9999999999999998
 10
1.908543224283741
 20
2.760496641612305
 10
1.9972035429436
 20
2.760496641612305
 42
1.0
  0
LWPOLYLINE
  5
322
330
18
100
AcDbEntity
  8
TEXT
100
AcDbPolyline
 90
        2
 70
     0
 43
0.0
 10
1.84023265751448
 20
2.743422149082578
 42
0.2901071551932823
 10
1.883308590382116
 20
2.69993120413214
 42
5.328517124445801
  0
LINE
  5
323
330
18
100
AcDbEntity
  8
TEXT
100
AcDbLine
 10
1.977502324701057
 20
2.966404237120651
 30
0.0
 11
1.842670415483998
 21
2.966404237120651
 31
0.0
  0
LINE
  5
324
330
18
100
AcDbEntity
  8
TEXT
100
AcDbLine
 10
1.901984511877317
 20
2.864852569001754
 30
0.0
 11
1.9842725016607
 21
2.864852569001754
 31
0.0
  0
LINE
  5
325
330
18
100
AcDbEntity
  8
TEXT
100
AcDbLine
 10
1.948471426356578
 20
2.902127542463886
 30
0.0
 11
1.841265152969289
 21
2.902127542463886
 31
0.0
  0
LINE
  5
326
330
18
100
AcDbEntity
  8
TEXT
100
AcDbLine
 10
1.842670415483998
 20
2.966404237120651
 30
0.0
 11
1.842670415483998
 21
2.938081691351007
 31
0.0
  0
ARC
  5
327
330
18
100
AcDbEntity
  8
TEXT
100
AcDbCircle
 10
1.901984511877316
 20
2.797166987857635
 30
0.0
 40
0.0676855811441166
100
AcDbArc
 50
90.0
 51
153.7768192527749
  0
LINE
  5
328
330
18
100
AcDbEntity
  8
TEXT
100
AcDbLine
 10
1.841265152969289
 20
2.902127542463886
 30
0.0
 11
1.841265152969289
 21
2.827075136389679
 31
0.0
  0
LINE
  5
329
330
18
100
AcDbEntity
  8
TEXT
100
AcDbLine
 10
1.9842725016607
 20
2.864852569001754
 30
0.0
 11
1.974007741247135
 21
2.886103108574448
 31
0.0
  0
ARC
  5
32A
330
18
100
AcDbEntity
  8
TEXT
100
AcDbCircle
 10
1.948471426356578
 20
2.873768167463889
 30
0.0
 40
0.028359375
100
AcDbArc
 50
25.78218179591245
 51
90.0
  0
LINE
  5
32B
330
18
100
AcDbEntity
  8
TEXT
100
AcDbLine
 10
2.118757154716472
 20
2.69993120413214
 30
0.0
 11
2.118757154716466
 21
2.877221709563609
 31
0.0
  0
LWPOLYLINE
  5
32C
330
18
100
AcDbEntity
  8
TEXT
100
AcDbPolyline
 90
        2
 70
     0
 43
0.0
 10
2.060401940881137
 20
2.69993120413214
 10
2.118757154716471
 20
2.69993120413214
  0
LWPOLYLINE
  5
32D
330
18
100
AcDbEntity
  8
TEXT
100
AcDbPolyline
 90
        2
 70
     0
 43
0.0
 10
2.060401940881137
 20
2.743422149082578
 42
-0.2901071551932486
 10
2.017326008013492
 20
2.69993120413214
 42
-5.328517124445184
  0
LWPOLYLINE
  5
32E
330
18
100
AcDbEntity
  8
TEXT
100
AcDbPolyline
 90
        2
 70
     0
 43
0.0
 10
2.060401940881137
 20
2.743422149082578
 10
2.060401940881137
 20
2.69993120413214
  0
LINE
  5
32F
330
18
100
AcDbEntity
  8
TEXT
100
AcDbLine
 10
2.120359169875599
 20
2.966404237120651
 30
0.0
 11
2.056462263576098
 21
2.966404237120651
 31
0.0
  0
LINE
  5
330
330
18
100
AcDbEntity
  8
TEXT
100
AcDbLine
 10
2.056462263576098
 20
2.966404237120651
 30
0.0
 11
2.056462263576098
 21
2.861192258567224
 31
0.0
  0
LINE
  5
331
330
18
100
AcDbEntity
  8
TEXT
100
AcDbLine
 10
2.056462263576098
 20
2.861192258567224
 30
0.0
 11
2.012711492394196
 21
2.943442534563369
 31
0.0
  0
ARC
  5
332
330
18
100
AcDbEntity
  8
TEXT
100
AcDbCircle
 10
2.14366302999913
 20
2.877221667181223
 30
0.0
 40
0.0249058752826653
100
AcDbArc
 50
89.99971217465335
 51
179.9999999999985
  0
ARC
  5
333
330
18
100
AcDbEntity
  8
TEXT
100
AcDbCircle
 10
2.151551986938708
 20
2.935158509838386
 30
0.0
 40
0.0314112657011332
100
AcDbArc
 50
95.88484768694724
 51
173.2388340632136
  0
LINE
  5
334
330
18
100
AcDbEntity
  8
TEXT
100
AcDbLine
 10
2.120359169875599
 20
2.938856587259777
 30
0.0
 11
2.120359169875599
 21
2.966404237120651
 31
0.0
  0
TEXT
  5
335
330
18
100
AcDbEntity
  8
TEXT
100
AcDbText
 10
2.58923468929739
 20
2.792817012777637
 30
0.0
 40
0.0522247191011236
  1
Minneapolis, MN 55432-0008
 41
1.11444212721585
 72
     5
 11
3.918167273567053
 21
2.792817012777637
 31
0.0
100
AcDbText
  0
TEXT
  5
336
330
18
100
AcDbEntity
  8
TEXT
100
AcDbText
 10
2.58923468929739
 20
2.886075439743929
 30
0.0
 40
0.0522247191011236
  1
6536 Main St. N.E. * P.O. Box 32008
 41
0.8388932496075369
 72
     5
 11
3.918167273567053
 21
2.886075439743929
 31
0.0
100
AcDbText
  0
TEXT
  5
337
330
18
100
AcDbEntity
  8
TEXT
100
AcDbText
 10
2.58923468929739
 20
2.979333866710221
 30
0.0
 40
0.0522247191011236
  1
Stylmark  Incorporated
 41
1.221428571428571
 72
     5
 11
3.918167273567053
 21
2.979333866710221
 31
0.0
100
AcDbText
  0
TEXT
  5
338
330
18
100
AcDbEntity
  8
TEXT
100
AcDbText
 10
2.58923468929739
 20
2.699558585811344
 30
0.0
 40
0.0522247191011236
  1
Phone  1-800-328-2495
 41
1.272321428571429
 72
     5
 11
3.918167273567053
 21
2.699558585811344
 31
0.0
100
AcDbText
  0
LINE
  5
339
330
18
100
AcDbEntity
  8
TEXT
100
AcDbLine
 10
2.341678877834374
 20
2.856510994179678
 30
0.0
 11
2.40623599380008
 21
2.966404237120651
 31
0.0
  0
LINE
  5
33A
330
18
100
AcDbEntity
  8
TEXT
100
AcDbLine
 10
2.40623599380008
 20
2.966404237120651
 30
0.0
 11
2.331244161070453
 21
2.966404237120651
 31
0.0
  0
LINE
  5
33B
330
18
100
AcDbEntity
  8
TEXT
100
AcDbLine
 10
2.360592728821779
 20
2.69993120413214
 30
0.0
 11
2.437171101197985
 21
2.69993120413214
 31
0.0
  0
LINE
  5
33C
330
18
100
AcDbEntity
  8
TEXT
100
AcDbLine
 10
2.437171101197985
 20
2.69993120413214
 30
0.0
 11
2.341678877834374
 21
2.856510994179678
 31
0.0
  0
LINE
  5
33D
330
18
100
AcDbEntity
  8
TEXT
100
AcDbLine
 10
2.284689195610314
 20
2.69993120413214
 30
0.0
 11
2.284689195610314
 21
2.831510772608321
 31
0.0
  0
LINE
  5
33E
330
18
100
AcDbEntity
  8
TEXT
100
AcDbLine
 10
2.284689195610314
 20
2.831510772608321
 30
0.0
 11
2.360592728821779
 21
2.69993120413214
 31
0.0
  0
LINE
  5
33F
330
18
100
AcDbEntity
  8
TEXT
100
AcDbLine
 10
2.220311011291689
 20
2.902127542463886
 30
0.0
 11
2.220311011291694
 21
2.69993120413214
 31
0.0
  0
LINE
  5
340
330
18
100
AcDbEntity
  8
TEXT
100
AcDbLine
 10
2.220311011291694
 20
2.69993120413214
 30
0.0
 11
2.284689195610314
 21
2.69993120413214
 31
0.0
  0
LINE
  5
341
330
18
100
AcDbEntity
  8
TEXT
100
AcDbLine
 10
2.284146002514467
 20
3.031868442888252
 30
0.0
 11
2.215831123965194
 21
3.031868442888252
 31
0.0
  0
LINE
  5
342
330
18
100
AcDbEntity
  8
TEXT
100
AcDbLine
 10
2.215831123965194
 20
3.031868442888252
 30
0.0
 11
2.215831123965188
 21
2.966404237120651
 31
0.0
  0
LINE
  5
343
330
18
100
AcDbEntity
  8
TEXT
100
AcDbLine
 10
2.331244161070451
 20
2.966404237120651
 30
0.0
 11
2.284146002514467
 21
2.890538910709113
 31
0.0
  0
LINE
  5
344
330
18
100
AcDbEntity
  8
TEXT
100
AcDbLine
 10
2.284146002514467
 20
2.890538910709113
 30
0.0
 11
2.284146002514467
 21
3.031868442888252
 31
0.0
  0
ENDSEC
  0
SECTION
  2
OBJECTS
  0
DICTIONARY
  5
C
330
0
100
AcDbDictionary
  3
ACAD_GROUP
350
D
  3
ACAD_LAYOUT
350
34A
  3
ACAD_MLINESTYLE
350
E
  3
ACAD_PLOTSETTINGS
350
34B
  3
ACAD_PLOTSTYLENAME
350
348
  3
ACDBHEADERROUNDTRIPXREC
350
356
  3
ACDBVARIABLEDICTIONARY
350
353
  0
DICTIONARY
  5
378
330
18
100
AcDbDictionary
280
     1
  3
ACAD_LAYOUTSELFREF
360
379
  0
DICTIONARY
  5
376
330
15
100
AcDbDictionary
280
     1
  3
ACAD_LAYOUTSELFREF
360
377
  0
DICTIONARY
  5
D
102
{ACAD_REACTORS
330
C
102
}
330
C
100
AcDbDictionary
  0
DICTIONARY
  5
34A
102
{ACAD_REACTORS
330
C
102
}
330
C
100
AcDbDictionary
  0
DICTIONARY
  5
E
102
{ACAD_REACTORS
330
C
102
}
330
C
100
AcDbDictionary
  3
STANDARD
350
1B
  0
DICTIONARY
  5
34B
102
{ACAD_REACTORS
330
C
102
}
330
C
100
AcDbDictionary
  0
ACDBDICTIONARYWDFLT
  5
348
102
{ACAD_REACTORS
330
C
102
}
330
C
100
AcDbDictionary
281
     1
  3
Normal
350
349
100
AcDbDictionaryWithDefault
340
349
  0
DICTIONARY
  5
356
102
{ACAD_REACTORS
330
C
102
}
330
C
100
AcDbDictionary
  3
CEPSNTYPE
350
360
  3
FINGERPRINTGUID
350
361
  3
HYPERLINKBASE
350
359
  3
INSUNITS
350
35F
  3
LAYOUTDICT
350
35B
  3
LWETCUNION
350
35E
  3
PLOTSETDICT
350
35C
  3
PLOTSTYLNAMDICT
350
35D
  3
PSVPSCALE
350
363
  3
PUCSBASE
350
366
  3
PUCSORGBACK
350
36C
  3
PUCSORGBOTTOM
350
368
  3
PUCSORGFRONT
350
36B
  3
PUCSORGLEFT
350
369
  3
PUCSORGRIGHT
350
36A
  3
PUCSORGTOP
350
367
  3
PUCSORTHOREF
350
364
  3
PUCSORTHOVIEW
350
365
  3
STYLESHEET
350
35A
  3
TSTACKALIGN
350
357
  3
TSTACKSIZE
350
358
  3
UCSBASE
350
36F
  3
UCSORGBACK
350
375
  3
UCSORGBOTTOM
350
371
  3
UCSORGFRONT
350
374
  3
UCSORGLEFT
350
372
  3
UCSORGRIGHT
350
373
  3
UCSORGTOP
350
370
  3
UCSORTHOREF
350
36D
  3
UCSORTHOVIEW
350
36E
  3
VERSIONGUID
350
362
  0
DICTIONARY
  5
353
102
{ACAD_REACTORS
330
C
102
}
330
C
100
AcDbDictionary
  3
DIMASSOC
350
354
  0
XRECORD
  5
379
102
{ACAD_REACTORS
330
378
102
}
330
378
100
AcDbXrecord
340
18
  0
XRECORD
  5
377
102
{ACAD_REACTORS
330
376
102
}
330
376
100
AcDbXrecord
340
15
  0
MLINESTYLE
  5
1B
102
{ACAD_REACTORS
330
E
102
}
330
E
100
AcDbMlineStyle
  2
STANDARD
 70
     0
  3

 62
     0
 51
90.0
 52
90.0
 71
     2
 49
0.5
 62
   256
  6
BYLAYER
 49
-0.5
 62
   256
  6
BYLAYER
  0
ACDBPLACEHOLDER
  5
349
102
{ACAD_REACTORS
330
348
102
}
330
348
100
AcDbPlaceHolder
280
     0
  0
XRECORD
  5
360
102
{ACAD_REACTORS
330
356
102
}
330
356
100
AcDbXrecord
 90
        0
  0
XRECORD
  5
361
102
{ACAD_REACTORS
330
356
102
}
330
356
100
AcDbXrecord
  1
{8AAEB6C0-8DB6-11D6-88E6-0090279574E7}
  0
XRECORD
  5
359
102
{ACAD_REACTORS
330
356
102
}
330
356
100
AcDbXrecord
  1

  0
XRECORD
  5
35F
102
{ACAD_REACTORS
330
356
102
}
330
356
100
AcDbXrecord
 90
        0
  0
XRECORD
  5
35B
102
{ACAD_REACTORS
330
356
102
}
330
356
100
AcDbXrecord
340
34A
  0
XRECORD
  5
35E
102
{ACAD_REACTORS
330
356
102
}
330
356
100
AcDbXrecord
 90
    14877
  0
XRECORD
  5
35C
102
{ACAD_REACTORS
330
356
102
}
330
356
100
AcDbXrecord
340
34B
  0
XRECORD
  5
35D
102
{ACAD_REACTORS
330
356
102
}
330
356
100
AcDbXrecord
340
348
  0
XRECORD
  5
363
102
{ACAD_REACTORS
330
356
102
}
330
356
100
AcDbXrecord
 40
0.0
  0
XRECORD
  5
366
102
{ACAD_REACTORS
330
356
102
}
330
356
100
AcDbXrecord
340
0
  0
XRECORD
  5
36C
102
{ACAD_REACTORS
330
356
102
}
330
356
100
AcDbXrecord
 10
0.0
 20
0.0
 30
0.0
  0
XRECORD
  5
368
102
{ACAD_REACTORS
330
356
102
}
330
356
100
AcDbXrecord
 10
0.0
 20
0.0
 30
0.0
  0
XRECORD
  5
36B
102
{ACAD_REACTORS
330
356
102
}
330
356
100
AcDbXrecord
 10
0.0
 20
0.0
 30
0.0
  0
XRECORD
  5
369
102
{ACAD_REACTORS
330
356
102
}
330
356
100
AcDbXrecord
 10
0.0
 20
0.0
 30
0.0
  0
XRECORD
  5
36A
102
{ACAD_REACTORS
330
356
102
}
330
356
100
AcDbXrecord
 10
0.0
 20
0.0
 30
0.0
  0
XRECORD
  5
367
102
{ACAD_REACTORS
330
356
102
}
330
356
100
AcDbXrecord
 10
0.0
 20
0.0
 30
0.0
  0
XRECORD
  5
364
102
{ACAD_REACTORS
330
356
102
}
330
356
100
AcDbXrecord
340
0
  0
XRECORD
  5
365
102
{ACAD_REACTORS
330
356
102
}
330
356
100
AcDbXrecord
 70
     0
  0
XRECORD
  5
35A
102
{ACAD_REACTORS
330
356
102
}
330
356
100
AcDbXrecord
  1

  0
XRECORD
  5
357
102
{ACAD_REACTORS
330
356
102
}
330
356
100
AcDbXrecord
 90
        1
  0
XRECORD
  5
358
102
{ACAD_REACTORS
330
356
102
}
330
356
100
AcDbXrecord
 90
       70
  0
XRECORD
  5
36F
102
{ACAD_REACTORS
330
356
102
}
330
356
100
AcDbXrecord
340
0
  0
XRECORD
  5
375
102
{ACAD_REACTORS
330
356
102
}
330
356
100
AcDbXrecord
 10
0.0
 20
0.0
 30
0.0
  0
XRECORD
  5
371
102
{ACAD_REACTORS
330
356
102
}
330
356
100
AcDbXrecord
 10
0.0
 20
0.0
 30
0.0
  0
XRECORD
  5
374
102
{ACAD_REACTORS
330
356
102
}
330
356
100
AcDbXrecord
 10
0.0
 20
0.0
 30
0.0
  0
XRECORD
  5
372
102
{ACAD_REACTORS
330
356
102
}
330
356
100
AcDbXrecord
 10
0.0
 20
0.0
 30
0.0
  0
XRECORD
  5
373
102
{ACAD_REACTORS
330
356
102
}
330
356
100
AcDbXrecord
 10
0.0
 20
0.0
 30
0.0
  0
XRECORD
  5
370
102
{ACAD_REACTORS
330
356
102
}
330
356
100
AcDbXrecord
 10
0.0
 20
0.0
 30
0.0
  0
XRECORD
  5
36D
102
{ACAD_REACTORS
330
356
102
}
330
356
100
AcDbXrecord
340
0
  0
XRECORD
  5
36E
102
{ACAD_REACTORS
330
356
102
}
330
356
100
AcDbXrecord
 70
     0
  0
XRECORD
  5
362
102
{ACAD_REACTORS
330
356
102
}
330
356
100
AcDbXrecord
  1
{8AAEB6C2-8DB6-11D6-88E6-0090279574E7}
  0
DICTIONARYVAR
  5
354
102
{ACAD_REACTORS
330
353
102
}
330
353
100
DictionaryVariables
280
     0
  1
1
  0
ENDSEC
  0
EOF
