  0
SECTION
  2
HEADER
  9
$ACADVER
  1
AC1014
  9
$ACADMAINTVER
 70
     9
  9
$DWGCODEPAGE
  3
ANSI_1252
  9
$INSBASE
 10
0.0
 20
0.0
 30
0.0
  9
$EXTMIN
 10
-0.8906250030742526
 20
-0.3704709600623983
 30
0.0
  9
$EXTMAX
 10
2.594594318672875
 20
2.489941512120945
 30
0.0
  9
$LIMMIN
 10
0.0
 20
0.0
  9
$LIMMAX
 10
8.5
 20
11.0
  9
$ORTHOMODE
 70
     1
  9
$REGENMODE
 70
     1
  9
$FILLMODE
 70
     1
  9
$QTEXTMODE
 70
     0
  9
$MIRRTEXT
 70
     0
  9
$DRAGMODE
 70
     2
  9
$LTSCALE
 40
1.0
  9
$OSMODE
 70
    39
  9
$ATTMODE
 70
     1
  9
$TEXTSIZE
 40
0.125
  9
$TRACEWID
 40
0.05
  9
$TEXTSTYLE
  7
ROMANS
  9
$CLAYER
  8
TEXT
  9
$CELTYPE
  6
BYLAYER
  9
$CECOLOR
 62
   256
  9
$CELTSCALE
 40
1.0
  9
$DELOBJ
 70
     1
  9
$DISPSILH
 70
     1
  9
$DIMSCALE
 40
1.0
  9
$DIMASZ
 40
0.125
  9
$DIMEXO
 40
0.125
  9
$DIMDLI
 40
0.375
  9
$DIMRND
 40
0.0
  9
$DIMDLE
 40
0.0
  9
$DIMEXE
 40
0.125
  9
$DIMTP
 40
0.0
  9
$DIMTM
 40
0.0
  9
$DIMTXT
 40
0.125
  9
$DIMCEN
 40
-0.125
  9
$DIMTSZ
 40
0.0
  9
$DIMTOL
 70
     0
  9
$DIMLIM
 70
     0
  9
$DIMTIH
 70
     1
  9
$DIMTOH
 70
     1
  9
$DIMSE1
 70
     0
  9
$DIMSE2
 70
     0
  9
$DIMTAD
 70
     0
  9
$DIMZIN
 70
     4
  9
$DIMBLK
  1

  9
$DIMASO
 70
     1
  9
$DIMSHO
 70
     1
  9
$DIMPOST
  1

  9
$DIMAPOST
  1

  9
$DIMALT
 70
     0
  9
$DIMALTD
 70
     2
  9
$DIMALTF
 40
25.4
  9
$DIMLFAC
 40
0.5
  9
$DIMTOFL
 70
     0
  9
$DIMTVP
 40
0.0
  9
$DIMTIX
 70
     0
  9
$DIMSOXD
 70
     0
  9
$DIMSAH
 70
     0
  9
$DIMBLK1
  1

  9
$DIMBLK2
  1

  9
$DIMSTYLE
  2
STANDARD
  9
$DIMCLRD
 70
     0
  9
$DIMCLRE
 70
     0
  9
$DIMCLRT
 70
     0
  9
$DIMTFAC
 40
1.0
  9
$DIMGAP
 40
0.09
  9
$DIMJUST
 70
     0
  9
$DIMSD1
 70
     0
  9
$DIMSD2
 70
     0
  9
$DIMTOLJ
 70
     1
  9
$DIMTZIN
 70
     0
  9
$DIMALTZ
 70
     0
  9
$DIMALTTZ
 70
     0
  9
$DIMFIT
 70
     3
  9
$DIMUPT
 70
     0
  9
$DIMUNIT
 70
     2
  9
$DIMDEC
 70
     3
  9
$DIMTDEC
 70
     4
  9
$DIMALTU
 70
     2
  9
$DIMALTTD
 70
     2
  9
$DIMTXSTY
  7
ROMANS
  9
$DIMAUNIT
 70
     0
  9
$LUNITS
 70
     2
  9
$LUPREC
 70
     3
  9
$SKETCHINC
 40
0.1
  9
$FILLETRAD
 40
0.0
  9
$AUNITS
 70
     0
  9
$AUPREC
 70
     0
  9
$MENU
  1
AUTOMSTR
  9
$ELEVATION
 40
0.0
  9
$PELEVATION
 40
0.0
  9
$THICKNESS
 40
0.0
  9
$LIMCHECK
 70
     0
  9
$BLIPMODE
 70
     0
  9
$CHAMFERA
 40
0.0
  9
$CHAMFERB
 40
0.0
  9
$CHAMFERC
 40
0.0
  9
$CHAMFERD
 40
0.0
  9
$SKPOLY
 70
     0
  9
$TDCREATE
 40
2448341.344497222
  9
$TDUPDATE
 40
2452458.308051955
  9
$TDINDWG
 40
0.0298302083
  9
$TDUSRTIMER
 40
0.0298302083
  9
$USRTIMER
 70
     1
  9
$ANGBASE
 50
0.0
  9
$ANGDIR
 70
     0
  9
$PDMODE
 70
     0
  9
$PDSIZE
 40
0.0
  9
$PLINEWID
 40
0.0
  9
$COORDS
 70
     2
  9
$SPLFRAME
 70
     0
  9
$SPLINETYPE
 70
     6
  9
$SPLINESEGS
 70
     8
  9
$ATTDIA
 70
     0
  9
$ATTREQ
 70
     1
  9
$HANDLING
 70
 22529
  9
$HANDSEED
  5
37D
  9
$SURFTAB1
 70
     6
  9
$SURFTAB2
 70
     6
  9
$SURFTYPE
 70
     6
  9
$SURFU
 70
     6
  9
$SURFV
 70
     6
  9
$UCSNAME
  2

  9
$UCSORG
 10
0.0
 20
0.0
 30
0.0
  9
$UCSXDIR
 10
1.0
 20
0.0
 30
0.0
  9
$UCSYDIR
 10
0.0
 20
1.0
 30
0.0
  9
$PUCSNAME
  2

  9
$PUCSORG
 10
0.0
 20
0.0
 30
0.0
  9
$PUCSXDIR
 10
1.0
 20
0.0
 30
0.0
  9
$PUCSYDIR
 10
0.0
 20
1.0
 30
0.0
  9
$USERI1
 70
     0
  9
$USERI2
 70
     0
  9
$USERI3
 70
     0
  9
$USERI4
 70
     0
  9
$USERI5
 70
     0
  9
$USERR1
 40
0.0
  9
$USERR2
 40
0.0
  9
$USERR3
 40
0.0
  9
$USERR4
 40
0.0
  9
$USERR5
 40
0.0
  9
$WORLDVIEW
 70
     1
  9
$SHADEDGE
 70
     3
  9
$SHADEDIF
 70
    70
  9
$TILEMODE
 70
     1
  9
$MAXACTVP
 70
    16
  9
$PINSBASE
 10
0.0
 20
0.0
 30
0.0
  9
$PLIMCHECK
 70
     0
  9
$PEXTMIN
 10
1.000000000000000E+20
 20
1.000000000000000E+20
 30
1.000000000000000E+20
  9
$PEXTMAX
 10
-1.000000000000000E+20
 20
-1.000000000000000E+20
 30
-1.000000000000000E+20
  9
$PLIMMIN
 10
0.0
 20
0.0
  9
$PLIMMAX
 10
12.0
 20
9.0
  9
$UNITMODE
 70
     0
  9
$VISRETAIN
 70
     0
  9
$PLINEGEN
 70
     1
  9
$PSLTSCALE
 70
     0
  9
$TREEDEPTH
 70
  3020
  9
$PICKSTYLE
 70
     1
  9
$CMLSTYLE
  2
STANDARD
  9
$CMLJUST
 70
     0
  9
$CMLSCALE
 40
1.0
  9
$PROXYGRAPHICS
 70
     1
  9
$MEASUREMENT
 70
     0
  0
ENDSEC
  0
SECTION
  2
CLASSES
  0
CLASS
  1
LWPOLYLINE
  2
AcDbPolyline
  3
AutoCAD 2000
 90
        0
280
     0
281
     1
  0
CLASS
  1
ACDBDICTIONARYWDFLT
  2
AcDbDictionaryWithDefault
  3
AutoCAD 2000
 90
        0
280
     0
281
     0
  0
CLASS
  1
ACDBPLACEHOLDER
  2
AcDbPlaceHolder
  3
AutoCAD 2000
 90
        0
280
     0
281
     0
  0
CLASS
  1
LAYOUT
  2
AcDbLayout
  3
AutoCAD 2000
 90
        0
280
     0
281
     0
  0
CLASS
  1
DICTIONARYVAR
  2
AcDbDictionaryVar
  3
AutoCAD 2000
 90
        0
280
     0
281
     0
  0
CLASS
  1
LONG_TRANSACTION
  2
AcDbLongTransaction
  3
AutoCAD 2000
 90
        0
280
     0
281
     0
  0
CLASS
  1
LWPOLYLINE
  2
AcDbPolyline
  3
AutoCAD 2000
 90
        0
280
     0
281
     1
  0
CLASS
  1
HATCH
  2
AcDbHatch
  3
AutoCAD 2000
 90
        0
280
     0
281
     1
  0
CLASS
  1
XRECORD
  2
AcDbXrecord
  3
AutoCAD 2000
 90
        0
280
     0
281
     0
  0
ENDSEC
  0
SECTION
  2
TABLES
  0
TABLE
  2
VPORT
  5
8
330
0
100
AcDbSymbolTable
 70
     2
  0
VPORT
  5
358
330
8
100
AcDbSymbolTableRecord
100
AcDbViewportTableRecord
  2
*ACTIVE
 70
     0
 10
0.0
 20
0.0
 11
1.0
 21
1.0
 12
4.750165788840055
 22
1.059772664536163
 13
0.0
 23
0.0
 14
0.015625
 24
0.015625
 15
0.0
 25
0.0
 16
0.0
 26
0.0
 36
1.0
 17
0.0
 27
0.0
 37
0.0
 40
2.886357749772169
 41
4.320930232558139
 42
50.0
 43
0.0
 44
0.0
 50
0.0
 51
0.0
 71
     0
 72
  2000
 73
     1
 74
     1
 75
     1
 76
     0
 77
     0
 78
     0
  0
ENDTAB
  0
TABLE
  2
LTYPE
  5
5
330
0
100
AcDbSymbolTable
 70
     1
  0
LTYPE
  5
12
330
5
100
AcDbSymbolTableRecord
100
AcDbLinetypeTableRecord
  2
BYBLOCK
 70
     0
  3

 72
    65
 73
     0
 40
0.0
  0
LTYPE
  5
13
330
5
100
AcDbSymbolTableRecord
100
AcDbLinetypeTableRecord
  2
BYLAYER
 70
     0
  3

 72
    65
 73
     0
 40
0.0
  0
LTYPE
  5
14
330
5
100
AcDbSymbolTableRecord
100
AcDbLinetypeTableRecord
  2
CONTINUOUS
 70
     0
  3
Solid line
 72
    65
 73
     0
 40
0.0
  0
ENDTAB
  0
TABLE
  2
LAYER
  5
2
330
0
100
AcDbSymbolTable
 70
     2
  0
LAYER
  5
F
330
2
100
AcDbSymbolTableRecord
100
AcDbLayerTableRecord
  2
0
 70
     0
 62
     7
  6
CONTINUOUS
  0
LAYER
  5
2B
330
2
100
AcDbSymbolTableRecord
100
AcDbLayerTableRecord
  2
TEXT
 70
     0
 62
     3
  6
CONTINUOUS
  0
ENDTAB
  0
TABLE
  2
STYLE
  5
3
330
0
100
AcDbSymbolTable
 70
     3
  0
STYLE
  5
10
330
3
100
AcDbSymbolTableRecord
100
AcDbTextStyleTableRecord
  2
STANDARD
 70
     0
 40
0.0
 41
1.0
 50
0.0
 71
     0
 42
0.125
  3
txt
  4

  0
STYLE
  5
244
330
3
100
AcDbSymbolTableRecord
100
AcDbTextStyleTableRecord
  2
ITALICC
 70
     0
 40
0.0
 41
1.0
 50
0.0
 71
     0
 42
0.125
  3
italicc
  4

  0
STYLE
  5
354
330
3
100
AcDbSymbolTableRecord
100
AcDbTextStyleTableRecord
  2
ROMANS
 70
     0
 40
0.0
 41
1.0
 50
0.0
 71
     0
 42
0.125
  3
romans.shx
  4

  0
ENDTAB
  0
TABLE
  2
VIEW
  5
6
330
0
100
AcDbSymbolTable
 70
     0
  0
ENDTAB
  0
TABLE
  2
UCS
  5
7
330
0
100
AcDbSymbolTable
 70
     0
  0
ENDTAB
  0
TABLE
  2
APPID
  5
9
330
0
100
AcDbSymbolTable
 70
     1
  0
APPID
  5
11
330
9
100
AcDbSymbolTableRecord
100
AcDbRegAppTableRecord
  2
ACAD
 70
     0
  0
ENDTAB
  0
TABLE
  2
DIMSTYLE
  5
A
330
0
100
AcDbSymbolTable
 70
     1
  0
DIMSTYLE
105
237
330
A
100
AcDbSymbolTableRecord
100
AcDbDimStyleTableRecord
  2
STANDARD
 70
     0
  3

  4

  5

  6

  7

 40
1.0
 41
0.18
 42
0.0625
 43
0.38
 44
0.18
 45
0.0
 46
0.0
 47
0.0
 48
0.0
140
0.18
141
0.09
142
0.0
143
25.4
144
1.0
145
0.0
146
1.0
147
0.09
 71
     0
 72
     0
 73
     1
 74
     1
 75
     0
 76
     0
 77
     0
 78
     0
170
     0
171
     2
172
     0
173
     0
174
     0
175
     0
176
     0
177
     0
178
     0
270
     2
271
     4
272
     4
273
     2
274
     2
340
10
275
     0
280
     0
281
     0
282
     0
283
     1
284
     0
285
     0
286
     0
287
     3
288
     0
  0
ENDTAB
  0
TABLE
  2
BLOCK_RECORD
  5
1
330
0
100
AcDbSymbolTable
 70
     0
  0
BLOCK_RECORD
  5
18
102
{ACAD_XDICTIONARY
360
37B
102
}
330
1
100
AcDbSymbolTableRecord
100
AcDbBlockTableRecord
  2
*MODEL_SPACE
  0
BLOCK_RECORD
  5
15
102
{ACAD_XDICTIONARY
360
379
102
}
330
1
100
AcDbSymbolTableRecord
100
AcDbBlockTableRecord
  2
*PAPER_SPACE
  0
ENDTAB
  0
ENDSEC
  0
SECTION
  2
BLOCKS
  0
BLOCK
  5
33
330
18
100
AcDbEntity
  8
0
100
AcDbBlockBegin
  2
*MODEL_SPACE
 70
     0
 10
0.0
 20
0.0
 30
0.0
  3
*MODEL_SPACE
  1

  0
ENDBLK
  5
34
330
18
100
AcDbEntity
  8
0
100
AcDbBlockEnd
  0
BLOCK
  5
31
330
15
100
AcDbEntity
 67
     1
  8
0
100
AcDbBlockBegin
  2
*PAPER_SPACE
 70
     0
 10
0.0
 20
0.0
 30
0.0
  3
*PAPER_SPACE
  1

  0
ENDBLK
  5
32
330
15
100
AcDbEntity
 67
     1
  8
0
100
AcDbBlockEnd
  0
ENDSEC
  0
SECTION
  2
ENTITIES
  0
LWPOLYLINE
  5
3E
330
18
100
AcDbEntity
  8
0
100
AcDbPolyline
 90
       17
 70
     1
 43
0.0
 10
1.165470908199171
 20
0.639719425208866
 10
1.165470908199171
 20
2.452219425208865
 42
0.4142135623730951
 10
1.134220908199171
 20
2.483469425208865
 10
1.102970908199171
 20
2.483469425208865
 10
1.102970908199171
 20
1.606469425208867
 10
0.6134709081991714
 20
1.606469425208867
 10
0.6034709081991716
 20
1.596469425208867
 10
0.5934709081991736
 20
1.606469425208867
 10
0.4784709081991716
 20
1.606469425208867
 10
0.4784709081991716
 20
1.481469425208867
 10
1.102970908199172
 20
1.481469425208867
 10
1.102970908199171
 20
0.9209694252088659
 10
1.040470908199172
 20
0.9209694252088659
 10
1.040470908199171
 20
0.8584694252088659
 10
1.102970908199171
 20
0.8584694252088659
 10
1.102970908199171
 20
0.608469425208866
 10
1.134220908199171
 20
0.608469425208866
 42
0.4142135623730951
  0
TEXT
  5
2CA
330
18
100
AcDbEntity
  8
TEXT
100
AcDbText
 10
0.1112851475814615
 20
0.0875476440201832
 30
0.0
 40
0.125
  1
PART #110351
  7
ITALICC
 72
     1
 11
0.8523565761528901
 21
0.0875476440201832
 31
0.0
100
AcDbText
  0
LINE
  5
2CB
330
18
100
AcDbEntity
  8
TEXT
100
AcDbLine
 10
0.8200900751049529
 20
-0.1568060419996504
 30
0.0
 11
0.8967380563975106
 21
-0.1568060419996504
 31
0.0
  0
LINE
  5
2CC
330
18
100
AcDbEntity
  8
TEXT
100
AcDbLine
 10
0.8922581690710105
 20
-0.092529347342885
 30
0.0
 11
0.824758451421494
 21
-0.092529347342885
 31
0.0
  0
LWPOLYLINE
  5
2CD
330
18
100
AcDbEntity
  8
TEXT
100
AcDbPolyline
 90
        5
 70
     0
 43
0.0001332181640625
 10
-0.8170219674297221
 20
-0.2157561491006978
 10
-0.8037001510234734
 20
-0.2157561491006978
 10
-0.8037001510234734
 20
-0.179121153983508
 10
-0.7670651559062836
 20
-0.179121153983508
 10
-0.7670651559062836
 20
-0.1657993375772611
  0
LWPOLYLINE
  5
2CE
330
18
100
AcDbEntity
  8
TEXT
100
AcDbPolyline
 90
        3
 70
     0
 43
0.0006660908203125
 10
-0.7770565182109741
 20
-0.1191729801553825
 10
-0.863648324851599
 20
-0.1191729801553825
 10
-0.863648324851599
 20
-0.2057647867960091
  0
LWPOLYLINE
  5
2CF
330
18
100
AcDbEntity
  8
TEXT
100
AcDbPolyline
 90
        3
 70
     0
 43
0.0006660908203125
 10
-0.7770565182109741
 20
-0.0925293473428815
 10
-0.8902919576640965
 20
-0.0925293473428815
 10
-0.8902919576640965
 20
-0.2057647867960091
  0
LWPOLYLINE
  5
2D0
330
18
100
AcDbEntity
  8
TEXT
100
AcDbPolyline
 90
        5
 70
     0
 43
0.0001332181640625
 10
-0.7670651559062836
 20
-0.2856956852335086
 10
-0.7670651559062836
 20
-0.2723738688272581
 10
-0.8037001510234716
 20
-0.2723738688272581
 10
-0.8037001510234716
 20
-0.2357388737100718
 10
-0.8170219674297221
 20
-0.2357388737100718
  0
LWPOLYLINE
  5
2D1
330
18
100
AcDbEntity
  8
TEXT
100
AcDbPolyline
 90
        3
 70
     0
 43
0.0006660908203125
 10
-0.863648324851599
 20
-0.2457302360147571
 10
-0.863648324851599
 20
-0.3323220426553837
 10
-0.7770565182109741
 20
-0.3323220426553837
  0
LWPOLYLINE
  5
2D2
330
18
100
AcDbEntity
  8
TEXT
100
AcDbPolyline
 90
        3
 70
     0
 43
0.0006660908203125
 10
-0.8902919576640965
 20
-0.2457302360147571
 10
-0.8902919576640965
 20
-0.3589656754678847
 10
-0.7770565182109741
 20
-0.3589656754678847
  0
LWPOLYLINE
  5
2D3
330
18
100
AcDbEntity
  8
TEXT
100
AcDbPolyline
 90
        2
 70
     0
 43
0.0001332181640625
 10
-0.863648324851599
 20
-0.2457302360147571
 10
-0.8037001510234716
 20
-0.2357388737100718
  0
LWPOLYLINE
  5
2D4
330
18
100
AcDbEntity
  8
TEXT
100
AcDbPolyline
 90
        2
 70
     0
 43
0.0001332181640625
 10
-0.8170219674297221
 20
-0.2357388737100718
 10
-0.8902919576640965
 20
-0.2457302360147571
  0
LWPOLYLINE
  5
2D5
330
18
100
AcDbEntity
  8
TEXT
100
AcDbPolyline
 90
        2
 70
     0
 43
0.0006660908203125
 10
-0.863648324851599
 20
-0.2457302360147571
 10
-0.8902919576640965
 20
-0.2457302360147571
  0
LWPOLYLINE
  5
2D6
330
18
100
AcDbEntity
  8
TEXT
100
AcDbPolyline
 90
        2
 70
     0
 43
0.0001332181640625
 10
-0.863648324851599
 20
-0.3323220426553837
 10
-0.8037001510234716
 20
-0.2723738688272581
  0
LWPOLYLINE
  5
2D7
330
18
100
AcDbEntity
  8
TEXT
100
AcDbPolyline
 90
        2
 70
     0
 43
0.0006660908203125
 10
-0.863648324851599
 20
-0.2057647867960091
 10
-0.8902919576640965
 20
-0.2057647867960091
  0
LWPOLYLINE
  5
2D8
330
18
100
AcDbEntity
  8
TEXT
100
AcDbPolyline
 90
        2
 70
     0
 43
0.0001332181640625
 10
-0.8902919576640965
 20
-0.2057647867960091
 10
-0.8170219674297221
 20
-0.2157561491006978
  0
LWPOLYLINE
  5
2D9
330
18
100
AcDbEntity
  8
TEXT
100
AcDbPolyline
 90
        2
 70
     0
 43
0.0001332181640625
 10
-0.863648324851599
 20
-0.2057647867960091
 10
-0.8037001510234734
 20
-0.2157561491006978
  0
LWPOLYLINE
  5
2DA
330
18
100
AcDbEntity
  8
TEXT
100
AcDbPolyline
 90
        2
 70
     0
 43
0.0001332181640625
 10
-0.863648324851599
 20
-0.1191729801553825
 10
-0.8037001510234734
 20
-0.179121153983508
  0
LWPOLYLINE
  5
2DB
330
18
100
AcDbEntity
  8
TEXT
100
AcDbPolyline
 90
        5
 70
     0
 43
0.0001332181640625
 10
-0.6971256197734728
 20
-0.2357388737100718
 10
-0.7104474361797215
 20
-0.2357388737100718
 10
-0.7104474361797215
 20
-0.2723738688272581
 10
-0.7470824312969114
 20
-0.2723738688272581
 10
-0.7470824312969114
 20
-0.2856956852335086
  0
LWPOLYLINE
  5
2DC
330
18
100
AcDbEntity
  8
TEXT
100
AcDbPolyline
 90
        2
 70
     0
 43
0.0001332181640625
 10
-0.6504992623515978
 20
-0.2457302360147571
 10
-0.7104474361797215
 20
-0.2357388737100718
  0
LWPOLYLINE
  5
2DD
330
18
100
AcDbEntity
  8
TEXT
100
AcDbPolyline
 90
        2
 70
     0
 43
0.0001332181640625
 10
-0.6238556295390967
 20
-0.2457302360147571
 10
-0.6971256197734728
 20
-0.2357388737100718
  0
LWPOLYLINE
  5
2DE
330
18
100
AcDbEntity
  8
TEXT
100
AcDbPolyline
 90
        3
 70
     0
 43
0.0006660908203125
 10
-0.7370910689922226
 20
-0.3589656754678847
 10
-0.6238556295390967
 20
-0.3589656754678847
 10
-0.6238556295390967
 20
-0.2457302360147571
  0
LWPOLYLINE
  5
2DF
330
18
100
AcDbEntity
  8
TEXT
100
AcDbPolyline
 90
        3
 70
     0
 43
0.0006660908203125
 10
-0.7370910689922226
 20
-0.3323220426553837
 10
-0.6504992623515978
 20
-0.3323220426553837
 10
-0.6504992623515978
 20
-0.2457302360147571
  0
LWPOLYLINE
  5
2E0
330
18
100
AcDbEntity
  8
TEXT
100
AcDbPolyline
 90
        2
 70
     0
 43
0.0001332181640625
 10
-0.6504992623515978
 20
-0.3323220426553837
 10
-0.7104474361797215
 20
-0.2723738688272581
  0
LWPOLYLINE
  5
2E1
330
18
100
AcDbEntity
  8
TEXT
100
AcDbPolyline
 90
        2
 70
     0
 43
0.0006660908203125
 10
-0.7370910689922226
 20
-0.3323220426553837
 10
-0.7370910689922226
 20
-0.3589656754678847
  0
LWPOLYLINE
  5
2E2
330
18
100
AcDbEntity
  8
TEXT
100
AcDbPolyline
 90
        2
 70
     0
 43
0.0001332181640625
 10
-0.7470824312969114
 20
-0.2856956852335086
 10
-0.7370910689922226
 20
-0.3589656754678847
  0
LWPOLYLINE
  5
2E3
330
18
100
AcDbEntity
  8
TEXT
100
AcDbPolyline
 90
        2
 70
     0
 43
0.0001332181640625
 10
-0.7370910689922226
 20
-0.3323220426553837
 10
-0.7470824312969114
 20
-0.2723738688272581
  0
LWPOLYLINE
  5
2E4
330
18
100
AcDbEntity
  8
TEXT
100
AcDbPolyline
 90
        2
 70
     0
 43
0.0001332181640625
 10
-0.7770565182109741
 20
-0.3589656754678847
 10
-0.7670651559062836
 20
-0.2856956852335086
  0
LWPOLYLINE
  5
2E5
330
18
100
AcDbEntity
  8
TEXT
100
AcDbPolyline
 90
        2
 70
     0
 43
0.0001332181640625
 10
-0.7770565182109741
 20
-0.3323220426553837
 10
-0.7670651559062836
 20
-0.2723738688272581
  0
LWPOLYLINE
  5
2E6
330
18
100
AcDbEntity
  8
TEXT
100
AcDbPolyline
 90
        2
 70
     0
 43
0.0006660908203125
 10
-0.7770565182109741
 20
-0.3323220426553837
 10
-0.7770565182109741
 20
-0.3589656754678847
  0
LWPOLYLINE
  5
2E7
330
18
100
AcDbEntity
  8
TEXT
100
AcDbPolyline
 90
        2
 70
     0
 43
0.0006660908203125
 10
-0.6504992623515978
 20
-0.2457302360147571
 10
-0.6238556295390967
 20
-0.2457302360147571
  0
LWPOLYLINE
  5
2E8
330
18
100
AcDbEntity
  8
TEXT
100
AcDbPolyline
 90
        2
 70
     0
 43
0.0001332181640625
 10
-0.6504992623515978
 20
-0.1191729801553825
 10
-0.7104474361797215
 20
-0.179121153983508
  0
LWPOLYLINE
  5
2E9
330
18
100
AcDbEntity
  8
TEXT
100
AcDbPolyline
 90
        2
 70
     0
 43
0.0001332181640625
 10
-0.6504992623515978
 20
-0.2057647867960091
 10
-0.7104474361797215
 20
-0.2157561491006978
  0
LWPOLYLINE
  5
2EA
330
18
100
AcDbEntity
  8
TEXT
100
AcDbPolyline
 90
        2
 70
     0
 43
0.0001332181640625
 10
-0.6971256197734728
 20
-0.2157561491006978
 10
-0.6238556295390967
 20
-0.2057647867960091
  0
LWPOLYLINE
  5
2EB
330
18
100
AcDbEntity
  8
TEXT
100
AcDbPolyline
 90
        3
 70
     0
 43
0.0006660908203125
 10
-0.6504992623515978
 20
-0.2057647867960091
 10
-0.6504992623515978
 20
-0.1191729801553825
 10
-0.7370910689922226
 20
-0.1191729801553825
  0
LWPOLYLINE
  5
2EC
330
18
100
AcDbEntity
  8
TEXT
100
AcDbPolyline
 90
        3
 70
     0
 43
0.0006660908203125
 10
-0.6238556295390967
 20
-0.2057647867960091
 10
-0.6238556295390967
 20
-0.0925293473428815
 10
-0.7370910689922226
 20
-0.0925293473428815
  0
LWPOLYLINE
  5
2ED
330
18
100
AcDbEntity
  8
TEXT
100
AcDbPolyline
 90
        2
 70
     0
 43
0.0001332181640625
 10
-0.7370910689922226
 20
-0.0925293473428815
 10
-0.7470824312969114
 20
-0.1657993375772611
  0
LWPOLYLINE
  5
2EE
330
18
100
AcDbEntity
  8
TEXT
100
AcDbPolyline
 90
        2
 70
     0
 43
0.0001332181640625
 10
-0.7370910689922226
 20
-0.1191729801553825
 10
-0.7470824312969114
 20
-0.179121153983508
  0
LWPOLYLINE
  5
2EF
330
18
100
AcDbEntity
  8
TEXT
100
AcDbPolyline
 90
        2
 70
     0
 43
0.0006660908203125
 10
-0.7370910689922226
 20
-0.1191729801553825
 10
-0.7370910689922226
 20
-0.0925293473428815
  0
LWPOLYLINE
  5
2F0
330
18
100
AcDbEntity
  8
TEXT
100
AcDbPolyline
 90
        5
 70
     0
 43
0.0001332181640625
 10
-0.7470824312969114
 20
-0.1657993375772611
 10
-0.7470824312969114
 20
-0.179121153983508
 10
-0.7104474361797215
 20
-0.179121153983508
 10
-0.7104474361797215
 20
-0.2157561491006978
 10
-0.6971256197734728
 20
-0.2157561491006978
  0
LWPOLYLINE
  5
2F1
330
18
100
AcDbEntity
  8
TEXT
100
AcDbPolyline
 90
        2
 70
     0
 43
0.0001332181640625
 10
-0.7770565182109741
 20
-0.1191729801553825
 10
-0.7670651559062836
 20
-0.179121153983508
  0
LWPOLYLINE
  5
2F2
330
18
100
AcDbEntity
  8
TEXT
100
AcDbPolyline
 90
        2
 70
     0
 43
0.0001332181640625
 10
-0.7670651559062836
 20
-0.1657993375772611
 10
-0.7770565182109741
 20
-0.0925293473428815
  0
LWPOLYLINE
  5
2F3
330
18
100
AcDbEntity
  8
TEXT
100
AcDbPolyline
 90
        2
 70
     0
 43
0.0006660908203125
 10
-0.7770565182109741
 20
-0.1191729801553825
 10
-0.7770565182109741
 20
-0.0925293473428815
  0
LWPOLYLINE
  5
2F4
330
18
100
AcDbEntity
  8
TEXT
100
AcDbPolyline
 90
        2
 70
     0
 43
0.0006660908203125
 10
-0.6504992623515978
 20
-0.2057647867960091
 10
-0.6238556295390967
 20
-0.2057647867960091
  0
LWPOLYLINE
  5
2F5
330
18
100
AcDbEntity
  8
TEXT
100
AcDbPolyline
 90
        2
 70
     0
 43
0.0
 10
0.0949242912095336
 20
-0.3074510381164677
 42
0.3318488747599744
 10
0.1640435837748466
 20
-0.359002380331396
 42
-6.868794160588311
  0
LINE
  5
2F6
330
18
100
AcDbEntity
  8
TEXT
100
AcDbLine
 10
0.162904010278651
 20
-0.0245178696040744
 30
0.0
 11
0.096095297712286
 21
-0.0245178696040744
 31
0.0
  0
LINE
  5
2F7
330
18
100
AcDbEntity
  8
TEXT
100
AcDbLine
 10
-0.183247069906808
 20
-0.092529347342885
 30
0.0
 11
-0.3589788228053194
 21
-0.092529347342885
 31
0.0
  0
ARC
  5
2F8
330
18
100
AcDbEntity
  8
TEXT
100
AcDbCircle
 10
-0.2881413564467699
 20
-0.2758065719708389
 30
0.0
 40
0.0831958083605586
100
AcDbArc
 50
270.0
 51
90.0
  0
LINE
  5
2F9
330
18
100
AcDbEntity
  8
TEXT
100
AcDbLine
 10
-0.3537414926910714
 20
-0.1568060419996504
 30
0.0
 11
-0.1868358386621009
 21
-0.1568060419996504
 31
0.0
  0
LINE
  5
2FA
330
18
100
AcDbEntity
  8
TEXT
100
AcDbLine
 10
-0.2832009825404906
 20
-0.2906453739979566
 30
0.0
 11
-0.4410662822518248
 21
-0.2906453739979566
 31
0.0
  0
LINE
  5
2FB
330
18
100
AcDbEntity
  8
TEXT
100
AcDbLine
 10
-0.441066282251823
 20
-0.359002380331396
 30
0.0
 11
-0.2881413564467703
 21
-0.359002380331396
 31
0.0
  0
ARC
  5
2FC
330
18
100
AcDbEntity
  8
TEXT
100
AcDbCircle
 10
-0.358978822805319
 20
-0.1746168067893867
 30
0.0
 40
0.0820874594465043
100
AcDbArc
 50
90.0
 51
270.0
  0
LINE
  5
2FD
330
18
100
AcDbEntity
  8
TEXT
100
AcDbLine
 10
-0.4410662822518248
 20
-0.2906453739979566
 30
0.0
 11
-0.441066282251823
 21
-0.359002380331396
 31
0.0
  0
LINE
  5
2FE
330
18
100
AcDbEntity
  8
TEXT
100
AcDbLine
 10
-0.3589788228053194
 20
-0.256704266235892
 30
0.0
 11
-0.2832009825404906
 21
-0.256704266235892
 31
0.0
  0
ARC
  5
2FF
330
18
100
AcDbEntity
  8
TEXT
100
AcDbCircle
 10
-0.2832009825404902
 20
-0.2736748201169226
 30
0.0
 40
0.0169705538810321
100
AcDbArc
 50
270.0
 51
90.0
  0
LINE
  5
300
330
18
100
AcDbEntity
  8
TEXT
100
AcDbLine
 10
-0.2881413564467703
 20
-0.1926107636102783
 30
0.0
 11
-0.3537414926910714
 21
-0.1926107636102783
 31
0.0
  0
ARC
  5
301
330
18
100
AcDbEntity
  8
TEXT
100
AcDbCircle
 10
-0.3537414926910709
 20
-0.1747084028049626
 30
0.0
 40
0.017902360805315
100
AcDbArc
 50
90.0
 51
270.0
  0
LINE
  5
302
330
18
100
AcDbEntity
  8
TEXT
100
AcDbLine
 10
0.0072248221130442
 20
-0.1934013434560056
 30
0.0
 11
-0.0514054989188937
 21
-0.092529347342885
 31
0.0
  0
LINE
  5
303
330
18
100
AcDbEntity
  8
TEXT
100
AcDbLine
 10
-0.1329492311819953
 20
-0.359002380331396
 30
0.0
 11
-0.0363089801070009
 21
-0.3587317412331137
 31
0.0
  0
LWPOLYLINE
  5
304
330
18
100
AcDbEntity
  8
TEXT
100
AcDbPolyline
 90
        6
 70
     1
 43
0.0
 10
-0.0904254276068453
 20
-0.1568060419996504
 10
-0.1207420218270534
 20
-0.1568060419996504
 10
-0.1207420218270534
 20
-0.2799170400545448
 42
0.407328721240804
 10
-0.109198370665577
 20
-0.2917359547309308
 10
-0.0485766716208462
 20
-0.2917359547309308
 10
-0.0311113312135283
 20
-0.2589237256874517
  0
LINE
  5
305
330
18
100
AcDbEntity
  8
TEXT
100
AcDbLine
 10
-0.1868358386621009
 20
-0.1568060419996504
 30
0.0
 11
-0.1868358386621009
 21
-0.2992099889933462
 31
0.0
  0
ARC
  5
306
330
18
100
AcDbEntity
  8
TEXT
100
AcDbCircle
 10
-0.1267198206883484
 20
-0.2992099889933462
 30
0.0
 40
0.0601160179737537
100
AcDbArc
 50
180.0000000000003
 51
264.0521544866073
  0
LINE
  5
307
330
18
100
AcDbEntity
  8
TEXT
100
AcDbLine
 10
-0.123204465062801
 20
-0.0581414297487468
 30
0.0
 11
-0.183247069906808
 21
-0.0581414297487468
 31
0.0
  0
LINE
  5
308
330
18
100
AcDbEntity
  8
TEXT
100
AcDbLine
 10
-0.183247069906808
 20
-0.0581414297487468
 30
0.0
 11
-0.183247069906808
 21
-0.092529347342885
 31
0.0
  0
LINE
  5
309
330
18
100
AcDbEntity
  8
TEXT
100
AcDbLine
 10
-0.123204465062801
 20
-0.092529347342885
 30
0.0
 11
-0.123204465062801
 21
-0.0581414297487468
 31
0.0
  0
LINE
  5
30A
330
18
100
AcDbEntity
  8
TEXT
100
AcDbLine
 10
-0.0514054989188937
 20
-0.092529347342885
 30
0.0
 11
-0.123204465062801
 21
-0.092529347342885
 31
0.0
  0
LINE
  5
30B
330
18
100
AcDbEntity
  8
TEXT
100
AcDbLine
 10
-0.0023754148839101
 20
-0.339043874226383
 30
0.0
 11
0.0949242912095345
 21
-0.1746936632911149
 31
0.0
  0
LINE
  5
30C
330
18
100
AcDbEntity
  8
TEXT
100
AcDbLine
 10
0.0949242912095345
 20
-0.1746936632911149
 30
0.0
 11
0.0949242912095345
 21
-0.3074510381164712
 31
0.0
  0
ARC
  5
30D
330
18
100
AcDbEntity
  8
TEXT
100
AcDbCircle
 10
-0.0364189747961237
 20
-0.3194546580577002
 30
0.0
 40
0.0392772371940762
100
AcDbArc
 50
270.1604552698595
 51
330.0831797321295
  0
LINE
  5
30E
330
18
100
AcDbEntity
  8
TEXT
100
AcDbLine
 10
0.0659733849189097
 20
-0.092529347342885
 30
0.0
 11
0.0072248221130442
 21
-0.1934013434560056
 31
0.0
  0
LINE
  5
30F
330
18
100
AcDbEntity
  8
TEXT
100
AcDbLine
 10
0.096095297712286
 20
-0.0245178696040744
 30
0.0
 11
0.096095297712286
 21
-0.092529347342885
 31
0.0
  0
LINE
  5
310
330
18
100
AcDbEntity
  8
TEXT
100
AcDbLine
 10
0.096095297712286
 20
-0.092529347342885
 30
0.0
 11
0.0659733849189097
 21
-0.092529347342885
 31
0.0
  0
LWPOLYLINE
  5
311
330
18
100
AcDbEntity
  8
TEXT
100
AcDbPolyline
 90
        4
 70
     0
 43
0.0
 10
0.4481814193324443
 20
-0.1643598311657604
 10
0.4481814193324443
 20
-0.359002380331396
 10
0.5166597026203022
 20
-0.359002380331396
 10
0.5166597026203022
 20
-0.3155114353809578
 42
-1.714843617202739
  0
LWPOLYLINE
  5
312
330
18
100
AcDbEntity
  8
TEXT
100
AcDbPolyline
 90
        2
 70
     0
 43
0.0
 10
0.4833157698766542
 20
-0.0925293473428815
 42
-0.3277054968067132
 10
0.5190974605898191
 20
-0.1208518931125253
 42
6.667889725900311
  0
LWPOLYLINE
  5
313
330
18
100
AcDbEntity
  8
TEXT
100
AcDbPolyline
 90
        2
 70
     0
 43
0.0
 10
0.311882197297427
 20
-0.1568060419996504
 42
-0.4142135623731017
 10
0.3194359864635405
 20
-0.1643598311657604
 42
-0.9999999999999998
  0
LINE
  5
314
330
18
100
AcDbEntity
  8
TEXT
100
AcDbLine
 10
0.3292339203474475
 20
-0.092529347342885
 30
0.0
 11
0.1952158644163111
 21
-0.092529347342885
 31
0.0
  0
LINE
  5
315
330
18
100
AcDbEntity
  8
TEXT
100
AcDbLine
 10
0.2620469174742803
 20
-0.359002380331396
 30
0.0
 11
0.2620469174742803
 21
-0.1568060419996504
 31
0.0
  0
LINE
  5
316
330
18
100
AcDbEntity
  8
TEXT
100
AcDbLine
 10
0.1952158644163111
 20
-0.092529347342885
 30
0.0
 11
0.1952158644163111
 21
-0.2933935540752932
 31
0.0
  0
LINE
  5
317
330
18
100
AcDbEntity
  8
TEXT
100
AcDbLine
 10
0.162904010278651
 20
-0.2766145422283968
 30
0.0
 11
0.162904010278651
 21
-0.0245178696040744
 31
0.0
  0
LINE
  5
318
330
18
100
AcDbEntity
  8
TEXT
100
AcDbLine
 10
0.1640435837748457
 20
-0.359002380331396
 30
0.0
 11
0.2620469174742803
 21
-0.359002380331396
 31
0.0
  0
LINE
  5
319
330
18
100
AcDbEntity
  8
TEXT
100
AcDbLine
 10
0.1952158644163111
 20
-0.2933935540752932
 30
0.0
 11
0.1782222275317098
 21
-0.2933935540752932
 31
0.0
  0
ARC
  5
31A
330
18
100
AcDbEntity
  8
TEXT
100
AcDbCircle
 10
0.1782222275317089
 20
-0.2780117478318678
 30
0.0
 40
0.0153818062434269
100
AcDbArc
 50
174.7883570302258
 51
270.0
  0
LINE
  5
31B
330
18
100
AcDbEntity
  8
TEXT
100
AcDbLine
 10
0.2620469174742803
 20
-0.1568060419996504
 30
0.0
 11
0.3118821972974279
 21
-0.1568060419996504
 31
0.0
  0
LINE
  5
31C
330
18
100
AcDbEntity
  8
TEXT
100
AcDbLine
 10
0.3194359864635414
 20
-0.1643598311657604
 30
0.0
 11
0.3194359864635414
 21
-0.359002380331396
 31
0.0
  0
LINE
  5
31D
330
18
100
AcDbEntity
  8
TEXT
100
AcDbLine
 10
0.3864940332453814
 20
-0.359002380331396
 30
0.0
 11
0.3864940332453814
 21
-0.1568060419996504
 31
0.0
  0
LINE
  5
31E
330
18
100
AcDbEntity
  8
TEXT
100
AcDbLine
 10
0.3194359864635414
 20
-0.359002380331396
 30
0.0
 11
0.3864940332453814
 21
-0.359002380331396
 31
0.0
  0
LWPOLYLINE
  5
31F
330
18
100
AcDbEntity
  8
TEXT
100
AcDbPolyline
 90
        3
 70
     0
 43
0.0
 10
0.4833157698766542
 20
-0.0925293473428815
 10
0.3650156110606098
 20
-0.0925293473428815
 10
0.3650156110606098
 20
-0.1196968441037773
 42
-1.960274751411753
  0
LINE
  5
320
330
18
100
AcDbEntity
  8
TEXT
100
AcDbLine
 10
0.3864940332453814
 20
-0.1568060419996504
 30
0.0
 11
0.4406276301663317
 21
-0.1568060419996504
 31
0.0
  0
LWPOLYLINE
  5
321
330
18
100
AcDbEntity
  8
TEXT
100
AcDbPolyline
 90
        2
 70
     0
 43
0.0
 10
0.3292339203474484
 20
-0.0925293473428815
 42
-0.3328679258950098
 10
0.3650156110606098
 20
-0.1196968441037773
 42
6.772930709997214
  0
LWPOLYLINE
  5
322
330
18
100
AcDbEntity
  8
TEXT
100
AcDbPolyline
 90
        2
 70
     0
 43
0.0
 10
0.4406276301663308
 20
-0.1568060419996504
 42
-0.4142135623731017
 10
0.4481814193324443
 20
-0.1643598311657604
 42
-0.9999999999999998
  0
ARC
  5
323
330
18
100
AcDbEntity
  8
TEXT
100
AcDbCircle
 10
0.6519024300298107
 20
-0.1341129144637874
 30
0.0
 40
0.0416329381542859
100
AcDbArc
 50
26.56974201007528
 51
87.20939649401342
  0
LWPOLYLINE
  5
324
330
18
100
AcDbEntity
  8
TEXT
100
AcDbPolyline
 90
        2
 70
     0
 43
0.0
 10
0.5597356354879377
 20
-0.359002380331396
 10
0.6937530531193144
 20
-0.359002380331396
 42
0.9999999999999998
  0
LWPOLYLINE
  5
325
330
18
100
AcDbEntity
  8
TEXT
100
AcDbPolyline
 90
        4
 70
     1
 43
0.0
 10
0.6736305880494218
 20
-0.2560384023473707
 10
0.5849702693895634
 20
-0.2560384023473707
 42
0.9999999999999998
 10
0.5849702693895634
 20
-0.2984369428512314
 10
0.6736305880494218
 20
-0.2984369428512314
 42
1.0
  0
LWPOLYLINE
  5
326
330
18
100
AcDbEntity
  8
TEXT
100
AcDbPolyline
 90
        2
 70
     0
 43
0.0
 10
0.5166597026203022
 20
-0.3155114353809578
 42
0.2901071551932823
 10
0.5597356354879377
 20
-0.359002380331396
 42
5.328517124445801
  0
LINE
  5
327
330
18
100
AcDbEntity
  8
TEXT
100
AcDbLine
 10
0.6539293698068791
 20
-0.092529347342885
 30
0.0
 11
0.51909746058982
 21
-0.092529347342885
 31
0.0
  0
LINE
  5
328
330
18
100
AcDbEntity
  8
TEXT
100
AcDbLine
 10
0.5784115569831388
 20
-0.1940810154617827
 30
0.0
 11
0.660699546766522
 21
-0.1940810154617827
 31
0.0
  0
LINE
  5
329
330
18
100
AcDbEntity
  8
TEXT
100
AcDbLine
 10
0.6248984714624007
 20
-0.1568060419996504
 30
0.0
 11
0.5176921980751113
 21
-0.1568060419996504
 31
0.0
  0
LINE
  5
32A
330
18
100
AcDbEntity
  8
TEXT
100
AcDbLine
 10
0.51909746058982
 20
-0.092529347342885
 30
0.0
 11
0.51909746058982
 21
-0.1208518931125289
 31
0.0
  0
ARC
  5
32B
330
18
100
AcDbEntity
  8
TEXT
100
AcDbCircle
 10
0.5784115569831379
 20
-0.2617665966059013
 30
0.0
 40
0.0676855811441166
100
AcDbArc
 50
90.0
 51
153.7768192527749
  0
LINE
  5
32C
330
18
100
AcDbEntity
  8
TEXT
100
AcDbLine
 10
0.5176921980751113
 20
-0.1568060419996504
 30
0.0
 11
0.5176921980751113
 21
-0.231858448073857
 31
0.0
  0
LINE
  5
32D
330
18
100
AcDbEntity
  8
TEXT
100
AcDbLine
 10
0.660699546766522
 20
-0.1940810154617827
 30
0.0
 11
0.6504347863529576
 21
-0.1728304758890884
 31
0.0
  0
ARC
  5
32E
330
18
100
AcDbEntity
  8
TEXT
100
AcDbCircle
 10
0.6248984714623998
 20
-0.1851654169996477
 30
0.0
 40
0.028359375
100
AcDbArc
 50
25.78218179591245
 51
90.0
  0
LINE
  5
32F
330
18
100
AcDbEntity
  8
TEXT
100
AcDbLine
 10
0.7951841998222938
 20
-0.359002380331396
 30
0.0
 11
0.7951841998222884
 21
-0.1817118748999276
 31
0.0
  0
LWPOLYLINE
  5
330
330
18
100
AcDbEntity
  8
TEXT
100
AcDbPolyline
 90
        2
 70
     0
 43
0.0
 10
0.7368289859869588
 20
-0.359002380331396
 10
0.7951841998222929
 20
-0.359002380331396
  0
LWPOLYLINE
  5
331
330
18
100
AcDbEntity
  8
TEXT
100
AcDbPolyline
 90
        2
 70
     0
 43
0.0
 10
0.7368289859869588
 20
-0.3155114353809578
 42
-0.2901071551932486
 10
0.6937530531193144
 20
-0.359002380331396
 42
-5.328517124445184
  0
LWPOLYLINE
  5
332
330
18
100
AcDbEntity
  8
TEXT
100
AcDbPolyline
 90
        2
 70
     0
 43
0.0
 10
0.7368289859869588
 20
-0.3155114353809578
 10
0.7368289859869588
 20
-0.359002380331396
  0
LINE
  5
333
330
18
100
AcDbEntity
  8
TEXT
100
AcDbLine
 10
0.7967862149814211
 20
-0.092529347342885
 30
0.0
 11
0.7328893086819202
 21
-0.092529347342885
 31
0.0
  0
LINE
  5
334
330
18
100
AcDbEntity
  8
TEXT
100
AcDbLine
 10
0.7328893086819202
 20
-0.092529347342885
 30
0.0
 11
0.7328893086819202
 21
-0.1977413258963123
 31
0.0
  0
LINE
  5
335
330
18
100
AcDbEntity
  8
TEXT
100
AcDbLine
 10
0.7328893086819202
 20
-0.1977413258963123
 30
0.0
 11
0.6891385375000186
 21
-0.1154910499001671
 31
0.0
  0
ARC
  5
336
330
18
100
AcDbEntity
  8
TEXT
100
AcDbCircle
 10
0.820090075104952
 20
-0.1817119172823132
 30
0.0
 40
0.0249058752826653
100
AcDbArc
 50
89.99971217465335
 51
179.9999999999985
  0
ARC
  5
337
330
18
100
AcDbEntity
  8
TEXT
100
AcDbCircle
 10
0.8279790320445297
 20
-0.1237750746251498
 30
0.0
 40
0.0314112657011332
100
AcDbArc
 50
95.88484768694724
 51
173.2388340632136
  0
LINE
  5
338
330
18
100
AcDbEntity
  8
TEXT
100
AcDbLine
 10
0.7967862149814211
 20
-0.1200769972037596
 30
0.0
 11
0.7967862149814211
 21
-0.092529347342885
 31
0.0
  0
TEXT
  5
339
330
18
100
AcDbEntity
  8
TEXT
100
AcDbText
 10
1.265661734403211
 20
-0.2661165716858997
 30
0.0
 40
0.0522247191011236
  1
Minneapolis, MN 55432-0008
 41
1.11444212721585
 72
     5
 11
2.594594318672875
 21
-0.2661165716858997
 31
0.0
100
AcDbText
  0
TEXT
  5
33A
330
18
100
AcDbEntity
  8
TEXT
100
AcDbText
 10
1.265661734403211
 20
-0.1728581447196076
 30
0.0
 40
0.0522247191011236
  1
6536 Main St. N.E. * P.O. Box 32008
 41
0.8388932496075369
 72
     5
 11
2.594594318672875
 21
-0.1728581447196076
 31
0.0
100
AcDbText
  0
TEXT
  5
33B
330
18
100
AcDbEntity
  8
TEXT
100
AcDbText
 10
1.265661734403211
 20
-0.0795997177533154
 30
0.0
 40
0.0522247191011236
  1
Stylmark  Incorporated
 41
1.221428571428571
 72
     5
 11
2.594594318672875
 21
-0.0795997177533154
 31
0.0
100
AcDbText
  0
TEXT
  5
33C
330
18
100
AcDbEntity
  8
TEXT
100
AcDbText
 10
1.265661734403211
 20
-0.3593749986521919
 30
0.0
 40
0.0522247191011236
  1
Phone  1-800-328-2495
 41
1.272321428571429
 72
     5
 11
2.594594318672875
 21
-0.3593749986521919
 31
0.0
100
AcDbText
  0
LINE
  5
33D
330
18
100
AcDbEntity
  8
TEXT
100
AcDbLine
 10
1.018105922940196
 20
-0.2024225902838586
 30
0.0
 11
1.082663038905901
 21
-0.092529347342885
 31
0.0
  0
LINE
  5
33E
330
18
100
AcDbEntity
  8
TEXT
100
AcDbLine
 10
1.082663038905901
 20
-0.092529347342885
 30
0.0
 11
1.007671206176275
 21
-0.092529347342885
 31
0.0
  0
LINE
  5
33F
330
18
100
AcDbEntity
  8
TEXT
100
AcDbLine
 10
1.037019773927601
 20
-0.359002380331396
 30
0.0
 11
1.113598146303806
 21
-0.359002380331396
 31
0.0
  0
LINE
  5
340
330
18
100
AcDbEntity
  8
TEXT
100
AcDbLine
 10
1.113598146303806
 20
-0.359002380331396
 30
0.0
 11
1.018105922940196
 21
-0.2024225902838586
 31
0.0
  0
LINE
  5
341
330
18
100
AcDbEntity
  8
TEXT
100
AcDbLine
 10
0.9611162407161364
 20
-0.359002380331396
 30
0.0
 11
0.9611162407161364
 21
-0.2274228118552157
 31
0.0
  0
LINE
  5
342
330
18
100
AcDbEntity
  8
TEXT
100
AcDbLine
 10
0.9611162407161364
 20
-0.2274228118552157
 30
0.0
 11
1.037019773927601
 21
-0.359002380331396
 31
0.0
  0
LINE
  5
343
330
18
100
AcDbEntity
  8
TEXT
100
AcDbLine
 10
0.8967380563975106
 20
-0.1568060419996504
 30
0.0
 11
0.896738056397516
 21
-0.359002380331396
 31
0.0
  0
LINE
  5
344
330
18
100
AcDbEntity
  8
TEXT
100
AcDbLine
 10
0.896738056397516
 20
-0.359002380331396
 30
0.0
 11
0.9611162407161364
 21
-0.359002380331396
 31
0.0
  0
LINE
  5
345
330
18
100
AcDbEntity
  8
TEXT
100
AcDbLine
 10
0.9605730476202891
 20
-0.0270651415752843
 30
0.0
 11
0.8922581690710158
 21
-0.0270651415752843
 31
0.0
  0
LINE
  5
346
330
18
100
AcDbEntity
  8
TEXT
100
AcDbLine
 10
0.8922581690710158
 20
-0.0270651415752843
 30
0.0
 11
0.8922581690710105
 21
-0.092529347342885
 31
0.0
  0
LINE
  5
347
330
18
100
AcDbEntity
  8
TEXT
100
AcDbLine
 10
1.007671206176273
 20
-0.092529347342885
 30
0.0
 11
0.9605730476202891
 21
-0.1683946737544231
 31
0.0
  0
LINE
  5
348
330
18
100
AcDbEntity
  8
TEXT
100
AcDbLine
 10
0.9605730476202891
 20
-0.1683946737544231
 30
0.0
 11
0.9605730476202891
 21
-0.0270651415752843
 31
0.0
  0
ENDSEC
  0
SECTION
  2
OBJECTS
  0
DICTIONARY
  5
C
330
0
100
AcDbDictionary
  3
ACAD_GROUP
350
D
  3
ACAD_LAYOUT
350
34D
  3
ACAD_MLINESTYLE
350
E
  3
ACAD_PLOTSETTINGS
350
34E
  3
ACAD_PLOTSTYLENAME
350
34B
  3
ACDBHEADERROUNDTRIPXREC
350
359
  3
ACDBVARIABLEDICTIONARY
350
356
  0
DICTIONARY
  5
37B
330
18
100
AcDbDictionary
280
     1
  3
ACAD_LAYOUTSELFREF
360
37C
  0
DICTIONARY
  5
379
330
15
100
AcDbDictionary
280
     1
  3
ACAD_LAYOUTSELFREF
360
37A
  0
DICTIONARY
  5
D
102
{ACAD_REACTORS
330
C
102
}
330
C
100
AcDbDictionary
  0
DICTIONARY
  5
34D
102
{ACAD_REACTORS
330
C
102
}
330
C
100
AcDbDictionary
  0
DICTIONARY
  5
E
102
{ACAD_REACTORS
330
C
102
}
330
C
100
AcDbDictionary
  3
STANDARD
350
1B
  0
DICTIONARY
  5
34E
102
{ACAD_REACTORS
330
C
102
}
330
C
100
AcDbDictionary
  0
ACDBDICTIONARYWDFLT
  5
34B
102
{ACAD_REACTORS
330
C
102
}
330
C
100
AcDbDictionary
281
     1
  3
Normal
350
34C
100
AcDbDictionaryWithDefault
340
34C
  0
DICTIONARY
  5
359
102
{ACAD_REACTORS
330
C
102
}
330
C
100
AcDbDictionary
  3
CEPSNTYPE
350
363
  3
FINGERPRINTGUID
350
364
  3
HYPERLINKBASE
350
35C
  3
INSUNITS
350
362
  3
LAYOUTDICT
350
35E
  3
LWETCUNION
350
361
  3
PLOTSETDICT
350
35F
  3
PLOTSTYLNAMDICT
350
360
  3
PSVPSCALE
350
366
  3
PUCSBASE
350
369
  3
PUCSORGBACK
350
36F
  3
PUCSORGBOTTOM
350
36B
  3
PUCSORGFRONT
350
36E
  3
PUCSORGLEFT
350
36C
  3
PUCSORGRIGHT
350
36D
  3
PUCSORGTOP
350
36A
  3
PUCSORTHOREF
350
367
  3
PUCSORTHOVIEW
350
368
  3
STYLESHEET
350
35D
  3
TSTACKALIGN
350
35A
  3
TSTACKSIZE
350
35B
  3
UCSBASE
350
372
  3
UCSORGBACK
350
378
  3
UCSORGBOTTOM
350
374
  3
UCSORGFRONT
350
377
  3
UCSORGLEFT
350
375
  3
UCSORGRIGHT
350
376
  3
UCSORGTOP
350
373
  3
UCSORTHOREF
350
370
  3
UCSORTHOVIEW
350
371
  3
VERSIONGUID
350
365
  0
DICTIONARY
  5
356
102
{ACAD_REACTORS
330
C
102
}
330
C
100
AcDbDictionary
  3
DIMASSOC
350
357
  0
XRECORD
  5
37C
102
{ACAD_REACTORS
330
37B
102
}
330
37B
100
AcDbXrecord
340
18
  0
XRECORD
  5
37A
102
{ACAD_REACTORS
330
379
102
}
330
379
100
AcDbXrecord
340
15
  0
MLINESTYLE
  5
1B
102
{ACAD_REACTORS
330
E
102
}
330
E
100
AcDbMlineStyle
  2
STANDARD
 70
     0
  3

 62
     0
 51
90.0
 52
90.0
 71
     2
 49
0.5
 62
   256
  6
BYLAYER
 49
-0.5
 62
   256
  6
BYLAYER
  0
ACDBPLACEHOLDER
  5
34C
102
{ACAD_REACTORS
330
34B
102
}
330
34B
100
AcDbPlaceHolder
280
     0
  0
XRECORD
  5
363
102
{ACAD_REACTORS
330
359
102
}
330
359
100
AcDbXrecord
 90
        0
  0
XRECORD
  5
364
102
{ACAD_REACTORS
330
359
102
}
330
359
100
AcDbXrecord
  1
{8643F000-8DB6-11D6-88E6-0090279574E7}
  0
XRECORD
  5
35C
102
{ACAD_REACTORS
330
359
102
}
330
359
100
AcDbXrecord
  1

  0
XRECORD
  5
362
102
{ACAD_REACTORS
330
359
102
}
330
359
100
AcDbXrecord
 90
        0
  0
XRECORD
  5
35E
102
{ACAD_REACTORS
330
359
102
}
330
359
100
AcDbXrecord
340
34D
  0
XRECORD
  5
361
102
{ACAD_REACTORS
330
359
102
}
330
359
100
AcDbXrecord
 90
    14877
  0
XRECORD
  5
35F
102
{ACAD_REACTORS
330
359
102
}
330
359
100
AcDbXrecord
340
34E
  0
XRECORD
  5
360
102
{ACAD_REACTORS
330
359
102
}
330
359
100
AcDbXrecord
340
34B
  0
XRECORD
  5
366
102
{ACAD_REACTORS
330
359
102
}
330
359
100
AcDbXrecord
 40
0.0
  0
XRECORD
  5
369
102
{ACAD_REACTORS
330
359
102
}
330
359
100
AcDbXrecord
340
0
  0
XRECORD
  5
36F
102
{ACAD_REACTORS
330
359
102
}
330
359
100
AcDbXrecord
 10
0.0
 20
0.0
 30
0.0
  0
XRECORD
  5
36B
102
{ACAD_REACTORS
330
359
102
}
330
359
100
AcDbXrecord
 10
0.0
 20
0.0
 30
0.0
  0
XRECORD
  5
36E
102
{ACAD_REACTORS
330
359
102
}
330
359
100
AcDbXrecord
 10
0.0
 20
0.0
 30
0.0
  0
XRECORD
  5
36C
102
{ACAD_REACTORS
330
359
102
}
330
359
100
AcDbXrecord
 10
0.0
 20
0.0
 30
0.0
  0
XRECORD
  5
36D
102
{ACAD_REACTORS
330
359
102
}
330
359
100
AcDbXrecord
 10
0.0
 20
0.0
 30
0.0
  0
XRECORD
  5
36A
102
{ACAD_REACTORS
330
359
102
}
330
359
100
AcDbXrecord
 10
0.0
 20
0.0
 30
0.0
  0
XRECORD
  5
367
102
{ACAD_REACTORS
330
359
102
}
330
359
100
AcDbXrecord
340
0
  0
XRECORD
  5
368
102
{ACAD_REACTORS
330
359
102
}
330
359
100
AcDbXrecord
 70
     0
  0
XRECORD
  5
35D
102
{ACAD_REACTORS
330
359
102
}
330
359
100
AcDbXrecord
  1

  0
XRECORD
  5
35A
102
{ACAD_REACTORS
330
359
102
}
330
359
100
AcDbXrecord
 90
        1
  0
XRECORD
  5
35B
102
{ACAD_REACTORS
330
359
102
}
330
359
100
AcDbXrecord
 90
       70
  0
XRECORD
  5
372
102
{ACAD_REACTORS
330
359
102
}
330
359
100
AcDbXrecord
340
0
  0
XRECORD
  5
378
102
{ACAD_REACTORS
330
359
102
}
330
359
100
AcDbXrecord
 10
0.0
 20
0.0
 30
0.0
  0
XRECORD
  5
374
102
{ACAD_REACTORS
330
359
102
}
330
359
100
AcDbXrecord
 10
0.0
 20
0.0
 30
0.0
  0
XRECORD
  5
377
102
{ACAD_REACTORS
330
359
102
}
330
359
100
AcDbXrecord
 10
0.0
 20
0.0
 30
0.0
  0
XRECORD
  5
375
102
{ACAD_REACTORS
330
359
102
}
330
359
100
AcDbXrecord
 10
0.0
 20
0.0
 30
0.0
  0
XRECORD
  5
376
102
{ACAD_REACTORS
330
359
102
}
330
359
100
AcDbXrecord
 10
0.0
 20
0.0
 30
0.0
  0
XRECORD
  5
373
102
{ACAD_REACTORS
330
359
102
}
330
359
100
AcDbXrecord
 10
0.0
 20
0.0
 30
0.0
  0
XRECORD
  5
370
102
{ACAD_REACTORS
330
359
102
}
330
359
100
AcDbXrecord
340
0
  0
XRECORD
  5
371
102
{ACAD_REACTORS
330
359
102
}
330
359
100
AcDbXrecord
 70
     0
  0
XRECORD
  5
365
102
{ACAD_REACTORS
330
359
102
}
330
359
100
AcDbXrecord
  1
{8643F002-8DB6-11D6-88E6-0090279574E7}
  0
DICTIONARYVAR
  5
357
102
{ACAD_REACTORS
330
356
102
}
330
356
100
DictionaryVariables
280
     0
  1
1
  0
ENDSEC
  0
EOF
