  0
SECTION
  2
HEADER
  9
$ACADVER
  1
AC1014
  9
$ACADMAINTVER
 70
     9
  9
$DWGCODEPAGE
  3
ANSI_1252
  9
$INSBASE
 10
2.686959439708239
 20
1.473579408150033
 30
0.0
  9
$EXTMIN
 10
0.9319778604810966
 20
-0.1534468056414428
 30
0.0
  9
$EXTMAX
 10
4.417197182228226
 20
2.475909193925825
 30
0.0
  9
$LIMMIN
 10
0.0
 20
0.0
  9
$LIMMAX
 10
18.0
 20
12.0
  9
$ORTHOMODE
 70
     1
  9
$REGENMODE
 70
     1
  9
$FILLMODE
 70
     1
  9
$QTEXTMODE
 70
     0
  9
$MIRRTEXT
 70
     0
  9
$DRAGMODE
 70
     2
  9
$LTSCALE
 40
1.0
  9
$OSMODE
 70
    39
  9
$ATTMODE
 70
     1
  9
$TEXTSIZE
 40
0.125
  9
$TRACEWID
 40
0.05
  9
$TEXTSTYLE
  7
ROMANS
  9
$CLAYER
  8
0
  9
$CELTYPE
  6
BYLAYER
  9
$CECOLOR
 62
   256
  9
$CELTSCALE
 40
1.0
  9
$DELOBJ
 70
     1
  9
$DISPSILH
 70
     1
  9
$DIMSCALE
 40
1.0
  9
$DIMASZ
 40
0.125
  9
$DIMEXO
 40
0.125
  9
$DIMDLI
 40
0.375
  9
$DIMRND
 40
0.0
  9
$DIMDLE
 40
0.0
  9
$DIMEXE
 40
0.125
  9
$DIMTP
 40
0.0
  9
$DIMTM
 40
0.0
  9
$DIMTXT
 40
0.125
  9
$DIMCEN
 40
-0.125
  9
$DIMTSZ
 40
0.0
  9
$DIMTOL
 70
     0
  9
$DIMLIM
 70
     0
  9
$DIMTIH
 70
     1
  9
$DIMTOH
 70
     1
  9
$DIMSE1
 70
     0
  9
$DIMSE2
 70
     0
  9
$DIMTAD
 70
     0
  9
$DIMZIN
 70
     4
  9
$DIMBLK
  1

  9
$DIMASO
 70
     1
  9
$DIMSHO
 70
     1
  9
$DIMPOST
  1

  9
$DIMAPOST
  1

  9
$DIMALT
 70
     0
  9
$DIMALTD
 70
     2
  9
$DIMALTF
 40
25.4
  9
$DIMLFAC
 40
1.0
  9
$DIMTOFL
 70
     0
  9
$DIMTVP
 40
0.0
  9
$DIMTIX
 70
     1
  9
$DIMSOXD
 70
     0
  9
$DIMSAH
 70
     0
  9
$DIMBLK1
  1

  9
$DIMBLK2
  1

  9
$DIMSTYLE
  2
STANDARD
  9
$DIMCLRD
 70
     0
  9
$DIMCLRE
 70
     0
  9
$DIMCLRT
 70
     0
  9
$DIMTFAC
 40
1.0
  9
$DIMGAP
 40
0.09
  9
$DIMJUST
 70
     0
  9
$DIMSD1
 70
     0
  9
$DIMSD2
 70
     0
  9
$DIMTOLJ
 70
     1
  9
$DIMTZIN
 70
     4
  9
$DIMALTZ
 70
     0
  9
$DIMALTTZ
 70
     0
  9
$DIMFIT
 70
     3
  9
$DIMUPT
 70
     0
  9
$DIMUNIT
 70
     2
  9
$DIMDEC
 70
     3
  9
$DIMTDEC
 70
     3
  9
$DIMALTU
 70
     2
  9
$DIMALTTD
 70
     2
  9
$DIMTXSTY
  7
ROMANS
  9
$DIMAUNIT
 70
     0
  9
$LUNITS
 70
     2
  9
$LUPREC
 70
     3
  9
$SKETCHINC
 40
0.1
  9
$FILLETRAD
 40
0.03125
  9
$AUNITS
 70
     0
  9
$AUPREC
 70
     0
  9
$MENU
  1
ACAD
  9
$ELEVATION
 40
0.0
  9
$PELEVATION
 40
0.0
  9
$THICKNESS
 40
0.0
  9
$LIMCHECK
 70
     0
  9
$BLIPMODE
 70
     0
  9
$CHAMFERA
 40
0.0
  9
$CHAMFERB
 40
0.0
  9
$CHAMFERC
 40
0.0
  9
$CHAMFERD
 40
0.0
  9
$SKPOLY
 70
     0
  9
$TDCREATE
 40
2448994.588340972
  9
$TDUPDATE
 40
2452458.307965949
  9
$TDINDWG
 40
0.0005135069
  9
$TDUSRTIMER
 40
0.0005135069
  9
$USRTIMER
 70
     1
  9
$ANGBASE
 50
0.0
  9
$ANGDIR
 70
     0
  9
$PDMODE
 70
     0
  9
$PDSIZE
 40
0.0
  9
$PLINEWID
 40
0.0
  9
$COORDS
 70
     2
  9
$SPLFRAME
 70
     0
  9
$SPLINETYPE
 70
     6
  9
$SPLINESEGS
 70
     8
  9
$ATTDIA
 70
     0
  9
$ATTREQ
 70
     1
  9
$HANDLING
 70
 22529
  9
$HANDSEED
  5
7DE1B343D9E0100
  9
$SURFTAB1
 70
     6
  9
$SURFTAB2
 70
     6
  9
$SURFTYPE
 70
     6
  9
$SURFU
 70
     6
  9
$SURFV
 70
     6
  9
$UCSNAME
  2

  9
$UCSORG
 10
0.0
 20
0.0
 30
0.0
  9
$UCSXDIR
 10
1.0
 20
0.0
 30
0.0
  9
$UCSYDIR
 10
0.0
 20
1.0
 30
0.0
  9
$PUCSNAME
  2

  9
$PUCSORG
 10
0.0
 20
0.0
 30
0.0
  9
$PUCSXDIR
 10
1.0
 20
0.0
 30
0.0
  9
$PUCSYDIR
 10
0.0
 20
1.0
 30
0.0
  9
$USERI1
 70
     0
  9
$USERI2
 70
     0
  9
$USERI3
 70
     0
  9
$USERI4
 70
     0
  9
$USERI5
 70
     0
  9
$USERR1
 40
0.0
  9
$USERR2
 40
0.0
  9
$USERR3
 40
0.0
  9
$USERR4
 40
0.0
  9
$USERR5
 40
0.0
  9
$WORLDVIEW
 70
     1
  9
$SHADEDGE
 70
     3
  9
$SHADEDIF
 70
    70
  9
$TILEMODE
 70
     1
  9
$MAXACTVP
 70
    16
  9
$PINSBASE
 10
1.130334651108952
 20
50.00000000000001
 30
2.5396341670434
  9
$PLIMCHECK
 70
     0
  9
$PEXTMIN
 10
1.000000000000000E+20
 20
1.000000000000000E+20
 30
1.000000000000000E+20
  9
$PEXTMAX
 10
-1.000000000000000E+20
 20
-1.000000000000000E+20
 30
-1.000000000000000E+20
  9
$PLIMMIN
 10
0.0
 20
0.0
  9
$PLIMMAX
 10
12.0
 20
9.0
  9
$UNITMODE
 70
     0
  9
$VISRETAIN
 70
     0
  9
$PLINEGEN
 70
     1
  9
$PSLTSCALE
 70
     0
  9
$TREEDEPTH
 70
  3020
  9
$PICKSTYLE
 70
     1
  9
$CMLSTYLE
  2
STANDARD
  9
$CMLJUST
 70
     0
  9
$CMLSCALE
 40
1.0
  9
$PROXYGRAPHICS
 70
     1
  9
$MEASUREMENT
 70
     0
  0
ENDSEC
  0
SECTION
  2
CLASSES
  0
CLASS
  1
LWPOLYLINE
  2
AcDbPolyline
  3
AutoCAD 2000
 90
        0
280
     0
281
     1
  0
CLASS
  1
ACDBDICTIONARYWDFLT
  2
AcDbDictionaryWithDefault
  3
AutoCAD 2000
 90
        0
280
     0
281
     0
  0
CLASS
  1
ACDBPLACEHOLDER
  2
AcDbPlaceHolder
  3
AutoCAD 2000
 90
        0
280
     0
281
     0
  0
CLASS
  1
LAYOUT
  2
AcDbLayout
  3
AutoCAD 2000
 90
        0
280
     0
281
     0
  0
CLASS
  1
DICTIONARYVAR
  2
AcDbDictionaryVar
  3
AutoCAD 2000
 90
        0
280
     0
281
     0
  0
CLASS
  1
LONG_TRANSACTION
  2
AcDbLongTransaction
  3
AutoCAD 2000
 90
        0
280
     0
281
     0
  0
CLASS
  1
LWPOLYLINE
  2
AcDbPolyline
  3
AutoCAD 2000
 90
        0
280
     0
281
     1
  0
CLASS
  1
HATCH
  2
AcDbHatch
  3
AutoCAD 2000
 90
        0
280
     0
281
     1
  0
CLASS
  1
XRECORD
  2
AcDbXrecord
  3
AutoCAD 2000
 90
        0
280
     0
281
     0
  0
ENDSEC
  0
SECTION
  2
TABLES
  0
TABLE
  2
VPORT
  5
7DE1B343D9E00A7
330
0
100
AcDbSymbolTable
 70
     2
  0
VPORT
  5
7DE1B343D9E00DB
330
7DE1B343D9E00A7
100
AcDbSymbolTableRecord
100
AcDbViewportTableRecord
  2
*ACTIVE
 70
     0
 10
0.0
 20
0.0
 11
1.0
 21
1.0
 12
6.546855318505688
 22
1.161464328186863
 13
0.0
 23
0.0
 14
0.015625
 24
0.015625
 15
0.0
 25
0.0
 16
0.0
 26
0.0
 36
1.0
 17
0.0
 27
0.0
 37
0.0
 40
2.969739511181136
 41
4.320930232558139
 42
50.0
 43
0.0
 44
0.0
 50
0.0
 51
0.0
 71
     0
 72
  2000
 73
     1
 74
     0
 75
     0
 76
     0
 77
     0
 78
     0
  0
ENDTAB
  0
TABLE
  2
LTYPE
  5
7DE1B343D9E00A4
330
0
100
AcDbSymbolTable
 70
     1
  0
LTYPE
  5
7DE1B343D9E00B1
330
7DE1B343D9E00A4
100
AcDbSymbolTableRecord
100
AcDbLinetypeTableRecord
  2
BYBLOCK
 70
     0
  3

 72
    65
 73
     0
 40
0.0
  0
LTYPE
  5
7DE1B343D9E00B2
330
7DE1B343D9E00A4
100
AcDbSymbolTableRecord
100
AcDbLinetypeTableRecord
  2
BYLAYER
 70
     0
  3

 72
    65
 73
     0
 40
0.0
  0
LTYPE
  5
7DE1B343D9E00B3
330
7DE1B343D9E00A4
100
AcDbSymbolTableRecord
100
AcDbLinetypeTableRecord
  2
CONTINUOUS
 70
     0
  3
Solid line
 72
    65
 73
     0
 40
0.0
  0
ENDTAB
  0
TABLE
  2
LAYER
  5
7DE1B343D9E00A1
330
0
100
AcDbSymbolTable
 70
     2
  0
LAYER
  5
7DE1B343D9E00AE
330
7DE1B343D9E00A1
100
AcDbSymbolTableRecord
100
AcDbLayerTableRecord
  2
0
 70
     0
 62
     7
  6
CONTINUOUS
  0
LAYER
  5
7DE1B343D9E00BE
330
7DE1B343D9E00A1
100
AcDbSymbolTableRecord
100
AcDbLayerTableRecord
  2
TEXT
 70
     0
 62
     3
  6
CONTINUOUS
  0
ENDTAB
  0
TABLE
  2
STYLE
  5
7DE1B343D9E00A2
330
0
100
AcDbSymbolTable
 70
     3
  0
STYLE
  5
7DE1B343D9E00AF
330
7DE1B343D9E00A2
100
AcDbSymbolTableRecord
100
AcDbTextStyleTableRecord
  2
STANDARD
 70
     0
 40
0.0
 41
1.0
 50
0.0
 71
     0
 42
0.3125
  3
txt
  4

  0
STYLE
  5
7DE1B343D9E00BB
330
7DE1B343D9E00A2
100
AcDbSymbolTableRecord
100
AcDbTextStyleTableRecord
  2
ITALICC
 70
     0
 40
0.0
 41
1.0
 50
0.0
 71
     0
 42
0.125
  3
italicc
  4

  0
STYLE
  5
7DE1B343D9E00CB
330
7DE1B343D9E00A2
100
AcDbSymbolTableRecord
100
AcDbTextStyleTableRecord
  2
ROMANS
 70
     0
 40
0.0
 41
1.0
 50
0.0
 71
     0
 42
0.125
  3
romans.shx
  4

  0
ENDTAB
  0
TABLE
  2
VIEW
  5
7DE1B343D9E00A5
330
0
100
AcDbSymbolTable
 70
     0
  0
ENDTAB
  0
TABLE
  2
UCS
  5
7DE1B343D9E00A6
330
0
100
AcDbSymbolTable
 70
     0
  0
ENDTAB
  0
TABLE
  2
APPID
  5
7DE1B343D9E00A8
330
0
100
AcDbSymbolTable
 70
     1
  0
APPID
  5
7DE1B343D9E00B0
330
7DE1B343D9E00A8
100
AcDbSymbolTableRecord
100
AcDbRegAppTableRecord
  2
ACAD
 70
     0
  0
ENDTAB
  0
TABLE
  2
DIMSTYLE
  5
7DE1B343D9E00A9
330
0
100
AcDbSymbolTable
 70
     1
  0
DIMSTYLE
105
7DE1B343D9E00C3
330
7DE1B343D9E00A9
100
AcDbSymbolTableRecord
100
AcDbDimStyleTableRecord
  2
STANDARD
 70
     0
  3

  4

  5

  6

  7

 40
1.0
 41
0.125
 42
0.125
 43
0.375
 44
0.125
 45
0.0
 46
0.0
 47
0.0
 48
0.0
140
0.125
141
-0.125
142
0.0
143
25.4
144
1.0
145
0.0
146
1.0
147
0.09
 71
     0
 72
     0
 73
     1
 74
     1
 75
     0
 76
     0
 77
     0
 78
     4
170
     0
171
     2
172
     0
173
     0
174
     1
175
     0
176
     0
177
     0
178
     0
270
     2
271
     3
272
     3
273
     2
274
     2
340
7DE1B343D9E00CB
275
     0
280
     0
281
     0
282
     0
283
     1
284
     4
285
     0
286
     0
287
     3
288
     0
  0
ENDTAB
  0
TABLE
  2
BLOCK_RECORD
  5
7DE1B343D9E00A0
330
0
100
AcDbSymbolTable
 70
     0
  0
BLOCK_RECORD
  5
7DE1B343D9E00B7
102
{ACAD_XDICTIONARY
360
7DE1B343D9E00FE
102
}
330
7DE1B343D9E00A0
100
AcDbSymbolTableRecord
100
AcDbBlockTableRecord
  2
*MODEL_SPACE
  0
BLOCK_RECORD
  5
7DE1B343D9E00B4
102
{ACAD_XDICTIONARY
360
7DE1B343D9E00FC
102
}
330
7DE1B343D9E00A0
100
AcDbSymbolTableRecord
100
AcDbBlockTableRecord
  2
*PAPER_SPACE
  0
ENDTAB
  0
ENDSEC
  0
SECTION
  2
BLOCKS
  0
BLOCK
  5
7DE1B343D9E00C1
330
7DE1B343D9E00B7
100
AcDbEntity
  8
0
100
AcDbBlockBegin
  2
*MODEL_SPACE
 70
     0
 10
0.0
 20
0.0
 30
0.0
  3
*MODEL_SPACE
  1

  0
ENDBLK
  5
7DE1B343D9E00C2
330
7DE1B343D9E00B7
100
AcDbEntity
  8
0
100
AcDbBlockEnd
  0
BLOCK
  5
7DE1B343D9E00BF
330
7DE1B343D9E00B4
100
AcDbEntity
 67
     1
  8
0
100
AcDbBlockBegin
  2
*PAPER_SPACE
 70
     0
 10
0.0
 20
0.0
 30
0.0
  3
*PAPER_SPACE
  1

  0
ENDBLK
  5
7DE1B343D9E00C0
330
7DE1B343D9E00B4
100
AcDbEntity
 67
     1
  8
0
100
AcDbBlockEnd
  0
ENDSEC
  0
SECTION
  2
ENTITIES
  0
LWPOLYLINE
  5
7DE1B343D9DEAC0
330
7DE1B343D9E00B7
100
AcDbEntity
  8
0
100
AcDbPolyline
 90
        7
 70
     0
 43
0.0
 10
2.686959439708239
 20
1.473579408150033
 10
2.536959439708239
 20
1.473579408150033
 10
2.536959439708239
 20
2.090579408150034
 10
2.674959439708239
 20
2.090579408150033
 10
2.812959439708239
 20
2.090579408150033
 10
2.812959439708239
 20
1.473579408150033
 10
2.662959439708239
 20
1.473579408150033
  0
LWPOLYLINE
  5
7DE1B343D9DEAAF
330
7DE1B343D9E00B7
100
AcDbEntity
  8
0
100
AcDbPolyline
 90
       15
 70
     1
 43
0.0
 10
2.812959439708239
 20
0.8405794081500339
 10
2.812959439708239
 20
0.6365794081500339
 42
0.9890048809328163
 10
2.88495063947624
 20
0.6357834563552533
 42
0.0110558319810768
 10
2.884952107257029
 20
2.446242652680861
 42
0.989005572083883
 10
2.82495943970824
 20
2.445579414865896
 10
2.824959439708239
 20
2.160579408150033
 10
2.524959439708239
 20
2.160579408150033
 10
2.524959439708239
 20
2.445579421670258
 42
0.9890054599178268
 10
2.464966772159451
 20
2.446242652680857
 42
0.0110558319810768
 10
2.464968239940235
 20
0.6357834563552572
 42
0.9890048831900061
 10
2.536959439708239
 20
0.636579408314348
 10
2.536959439708239
 20
1.413579408150033
 10
2.812959439708239
 20
1.413579408150033
 10
2.812959439708239
 20
0.8605794081500338
 10
2.822959439708239
 20
0.8505794081500337
  0
TEXT
  5
7DE1B343D9DFF62
330
7DE1B343D9E00B7
100
AcDbEntity
  8
TEXT
100
AcDbText
 10
1.921983249232049
 20
0.3045717984411387
 30
0.0
 40
0.125
  1
PART #110350
  7
ITALICC
 72
     1
 11
2.674959439708239
 21
0.3045717984411387
 31
0.0
100
AcDbText
  0
TEXT
  5
7DE1B343D9DFF63
330
7DE1B343D9E00B7
100
AcDbEntity
  8
TEXT
100
AcDbText
 10
3.08826459795856
 20
-0.1423508442312364
 30
0.0
 40
0.0522247191011236
  1
Phone  1-800-328-2495
 41
1.272321428571429
 72
     5
 11
4.417197182228224
 21
-0.1423508442312364
 31
0.0
100
AcDbText
  0
TEXT
  5
7DE1B343D9DFF64
330
7DE1B343D9E00B7
100
AcDbEntity
  8
TEXT
100
AcDbText
 10
3.08826459795856
 20
0.13742443666764
 30
0.0
 40
0.0522247191011236
  1
Stylmark  Incorporated
 41
1.221428571428573
 72
     5
 11
4.417197182228224
 21
0.13742443666764
 31
0.0
100
AcDbText
  0
TEXT
  5
7DE1B343D9DFF65
330
7DE1B343D9E00B7
100
AcDbEntity
  8
TEXT
100
AcDbText
 10
3.08826459795856
 20
0.0441660097013479
 30
0.0
 40
0.0522247191011236
  1
6536 Main St. N.E. * P.O. Box 32008
 41
0.8388932496075366
 72
     5
 11
4.417197182228224
 21
0.0441660097013479
 31
0.0
100
AcDbText
  0
TEXT
  5
7DE1B343D9DFF66
330
7DE1B343D9E00B7
100
AcDbEntity
  8
TEXT
100
AcDbText
 10
3.08826459795856
 20
-0.0490924172649443
 30
0.0
 40
0.0522247191011236
  1
Minneapolis, MN 55432-0008
 41
1.11444212721585
 72
     5
 11
4.417197182228224
 21
-0.0490924172649443
 31
0.0
100
AcDbText
  0
LWPOLYLINE
  5
7DE1B343D9DFF67
330
7DE1B343D9E00B7
100
AcDbEntity
  8
TEXT
100
AcDbPolyline
 90
        3
 70
     0
 43
0.0006660908203125
 10
0.9323109058912528
 20
-0.0287060815938016
 10
0.9323109058912528
 20
-0.1419415210469292
 10
1.045546345344375
 20
-0.1419415210469292
  0
LWPOLYLINE
  5
7DE1B343D9DFF6C
330
7DE1B343D9E00B7
100
AcDbEntity
  8
TEXT
100
AcDbPolyline
 90
        3
 70
     0
 43
0.0006660908203125
 10
0.9589545387037503
 20
-0.0287060815938016
 10
0.9589545387037503
 20
-0.1152978882344282
 10
1.045546345344375
 20
-0.1152978882344282
  0
LWPOLYLINE
  5
7DE1B343D9DFF71
330
7DE1B343D9E00B7
100
AcDbEntity
  8
TEXT
100
AcDbPolyline
 90
        2
 70
     0
 43
0.0001332181640625
 10
1.005580896125627
 20
-0.0187147192891164
 10
0.9323109058912528
 20
-0.0287060815938016
  0
LWPOLYLINE
  5
7DE1B343D9DFF75
330
7DE1B343D9E00B7
100
AcDbEntity
  8
TEXT
100
AcDbPolyline
 90
        2
 70
     0
 43
0.0001332181640625
 10
0.9589545387037503
 20
-0.0287060815938016
 10
1.018902712531877
 20
-0.0187147192891164
  0
LWPOLYLINE
  5
7DE1B343D9DFF79
330
7DE1B343D9E00B7
100
AcDbEntity
  8
TEXT
100
AcDbPolyline
 90
        2
 70
     0
 43
0.0001332181640625
 10
0.9589545387037503
 20
-0.1152978882344282
 10
1.018902712531877
 20
-0.0553497144063027
  0
LWPOLYLINE
  5
7DE1B343D9DFF7D
330
7DE1B343D9E00B7
100
AcDbEntity
  8
TEXT
100
AcDbPolyline
 90
        3
 70
     0
 43
0.0006660908203125
 10
1.045546345344375
 20
0.124494807078074
 10
0.9323109058912528
 20
0.124494807078074
 10
0.9323109058912528
 20
0.0112593676249464
  0
LWPOLYLINE
  5
7DE1B343D9DFF82
330
7DE1B343D9E00B7
100
AcDbEntity
  8
TEXT
100
AcDbPolyline
 90
        3
 70
     0
 43
0.0006660908203125
 10
1.045546345344375
 20
0.097851174265573
 10
0.9589545387037503
 20
0.097851174265573
 10
0.9589545387037503
 20
0.0112593676249464
  0
LWPOLYLINE
  5
7DE1B343D9DFF87
330
7DE1B343D9E00B7
100
AcDbEntity
  8
TEXT
100
AcDbPolyline
 90
        2
 70
     0
 43
0.0001332181640625
 10
0.9589545387037503
 20
0.097851174265573
 10
1.018902712531875
 20
0.0379030004374474
  0
LWPOLYLINE
  5
7DE1B343D9DFF8B
330
7DE1B343D9E00B7
100
AcDbEntity
  8
TEXT
100
AcDbPolyline
 90
        2
 70
     0
 43
0.0001332181640625
 10
0.9589545387037503
 20
0.0112593676249464
 10
1.018902712531875
 20
0.0012680053202576
  0
LWPOLYLINE
  5
7DE1B343D9DFF8F
330
7DE1B343D9E00B7
100
AcDbEntity
  8
TEXT
100
AcDbPolyline
 90
        2
 70
     0
 43
0.0001332181640625
 10
0.9323109058912528
 20
0.0112593676249464
 10
1.005580896125627
 20
0.0012680053202576
  0
LWPOLYLINE
  5
7DE1B343D9DFF93
330
7DE1B343D9E00B7
100
AcDbEntity
  8
TEXT
100
AcDbPolyline
 90
        2
 70
     0
 43
0.0006660908203125
 10
0.9589545387037503
 20
-0.0287060815938016
 10
0.9323109058912528
 20
-0.0287060815938016
  0
LWPOLYLINE
  5
7DE1B343D9DFF97
330
7DE1B343D9E00B7
100
AcDbEntity
  8
TEXT
100
AcDbPolyline
 90
        2
 70
     0
 43
0.0006660908203125
 10
0.9589545387037503
 20
0.0112593676249464
 10
0.9323109058912528
 20
0.0112593676249464
  0
LINE
  5
7DE1B343D9DFF9B
330
7DE1B343D9E00B7
100
AcDbEntity
  8
TEXT
100
AcDbLine
 10
2.44750133501775
 20
0.060218112421305
 30
0.0
 11
2.34029506163046
 21
0.060218112421305
 31
0.0
  0
LINE
  5
7DE1B343D9DFF9C
330
7DE1B343D9E00B7
100
AcDbEntity
  8
TEXT
100
AcDbLine
 10
2.476532233362228
 20
0.1244948070780705
 30
0.0
 11
2.341700324145169
 21
0.1244948070780705
 31
0.0
  0
ARC
  5
7DE1B343D9DFF9D
330
7DE1B343D9E00B7
100
AcDbEntity
  8
TEXT
100
AcDbCircle
 10
2.401014420538486
 20
-0.0447424421849458
 30
0.0
 40
0.0676855811441166
100
AcDbArc
 50
90.0
 51
153.7768192527749
  0
LWPOLYLINE
  5
7DE1B343D9DFF9E
330
7DE1B343D9E00B7
100
AcDbEntity
  8
TEXT
100
AcDbPolyline
 90
        2
 70
     0
 43
0.0
 10
2.33926256617565
 20
-0.0984872809600024
 42
0.2901071551932823
 10
2.382338499043286
 20
-0.1419782259104405
 42
5.328517124445801
  0
ARC
  5
7DE1B343D9DFFA2
330
7DE1B343D9E00B7
100
AcDbEntity
  8
TEXT
100
AcDbCircle
 10
1.695883042867
 20
-0.0821858345723907
 30
0.0
 40
0.0601160179737537
100
AcDbArc
 50
180.0000000000003
 51
264.0521544866073
  0
LINE
  5
7DE1B343D9DFFA3
330
7DE1B343D9E00B7
100
AcDbEntity
  8
TEXT
100
AcDbLine
 10
1.699398398492548
 20
0.1588827246722086
 30
0.0
 11
1.639355793648541
 21
0.1588827246722086
 31
0.0
  0
ARC
  5
7DE1B343D9DFFA4
330
7DE1B343D9E00B7
100
AcDbEntity
  8
TEXT
100
AcDbCircle
 10
1.46362404075003
 20
0.0424073476315687
 30
0.0
 40
0.0820874594465043
100
AcDbArc
 50
90.0
 51
270.0
  0
LWPOLYLINE
  5
7DE1B343D9DFFA5
330
7DE1B343D9E00B7
100
AcDbEntity
  8
TEXT
100
AcDbPolyline
 90
        2
 70
     0
 43
0.0001332181640625
 10
1.055537707649065
 20
0.0512248168436944
 10
1.045546345344375
 20
0.124494807078074
  0
LWPOLYLINE
  5
7DE1B343D9DFFA9
330
7DE1B343D9E00B7
100
AcDbEntity
  8
TEXT
100
AcDbPolyline
 90
        2
 70
     0
 43
0.0001332181640625
 10
1.045546345344375
 20
0.097851174265573
 10
1.055537707649065
 20
0.0379030004374474
  0
LWPOLYLINE
  5
7DE1B343D9DFFAD
330
7DE1B343D9E00B7
100
AcDbEntity
  8
TEXT
100
AcDbPolyline
 90
        3
 70
     0
 43
0.0006660908203125
 10
1.198747234016252
 20
0.0112593676249464
 10
1.198747234016252
 20
0.124494807078074
 10
1.085511794563126
 20
0.124494807078074
  0
LWPOLYLINE
  5
7DE1B343D9DFFB2
330
7DE1B343D9E00B7
100
AcDbEntity
  8
TEXT
100
AcDbPolyline
 90
        3
 70
     0
 43
0.0006660908203125
 10
1.172103601203751
 20
0.0112593676249464
 10
1.172103601203751
 20
0.097851174265573
 10
1.085511794563126
 20
0.097851174265573
  0
LWPOLYLINE
  5
7DE1B343D9DFFB7
330
7DE1B343D9E00B7
100
AcDbEntity
  8
TEXT
100
AcDbPolyline
 90
        2
 70
     0
 43
0.0001332181640625
 10
1.172103601203751
 20
0.097851174265573
 10
1.112155427375627
 20
0.0379030004374474
  0
LWPOLYLINE
  5
7DE1B343D9DFFBB
330
7DE1B343D9E00B7
100
AcDbEntity
  8
TEXT
100
AcDbPolyline
 90
        2
 70
     0
 43
0.0001332181640625
 10
1.085511794563126
 20
0.097851174265573
 10
1.075520432258437
 20
0.0379030004374474
  0
LWPOLYLINE
  5
7DE1B343D9DFFBF
330
7DE1B343D9E00B7
100
AcDbEntity
  8
TEXT
100
AcDbPolyline
 90
        2
 70
     0
 43
0.0001332181640625
 10
1.085511794563126
 20
0.124494807078074
 10
1.075520432258437
 20
0.0512248168436944
  0
LWPOLYLINE
  5
7DE1B343D9DFFC3
330
7DE1B343D9E00B7
100
AcDbEntity
  8
TEXT
100
AcDbPolyline
 90
        2
 70
     0
 43
0.0001332181640625
 10
1.125477243781876
 20
0.0012680053202576
 10
1.198747234016252
 20
0.0112593676249464
  0
LWPOLYLINE
  5
7DE1B343D9DFFC7
330
7DE1B343D9E00B7
100
AcDbEntity
  8
TEXT
100
AcDbPolyline
 90
        2
 70
     0
 43
0.0001332181640625
 10
1.172103601203751
 20
0.0112593676249464
 10
1.112155427375627
 20
0.0012680053202576
  0
LWPOLYLINE
  5
7DE1B343D9DFFCB
330
7DE1B343D9E00B7
100
AcDbEntity
  8
TEXT
100
AcDbPolyline
 90
        2
 70
     0
 43
0.0001332181640625
 10
1.198747234016252
 20
-0.0287060815938016
 10
1.125477243781876
 20
-0.0187147192891164
  0
LWPOLYLINE
  5
7DE1B343D9DFFCF
330
7DE1B343D9E00B7
100
AcDbEntity
  8
TEXT
100
AcDbPolyline
 90
        2
 70
     0
 43
0.0001332181640625
 10
1.172103601203751
 20
-0.0287060815938016
 10
1.112155427375627
 20
-0.0187147192891164
  0
LWPOLYLINE
  5
7DE1B343D9DFFD3
330
7DE1B343D9E00B7
100
AcDbEntity
  8
TEXT
100
AcDbPolyline
 90
        2
 70
     0
 43
0.0001332181640625
 10
1.172103601203751
 20
-0.1152978882344282
 10
1.112155427375627
 20
-0.0553497144063027
  0
LWPOLYLINE
  5
7DE1B343D9DFFD7
330
7DE1B343D9E00B7
100
AcDbEntity
  8
TEXT
100
AcDbPolyline
 90
        3
 70
     0
 43
0.0006660908203125
 10
1.085511794563126
 20
-0.1152978882344282
 10
1.172103601203751
 20
-0.1152978882344282
 10
1.172103601203751
 20
-0.0287060815938016
  0
LWPOLYLINE
  5
7DE1B343D9DFFDC
330
7DE1B343D9E00B7
100
AcDbEntity
  8
TEXT
100
AcDbPolyline
 90
        3
 70
     0
 43
0.0006660908203125
 10
1.085511794563126
 20
-0.1419415210469292
 10
1.198747234016252
 20
-0.1419415210469292
 10
1.198747234016252
 20
-0.0287060815938016
  0
LWPOLYLINE
  5
7DE1B343D9DFFE1
330
7DE1B343D9E00B7
100
AcDbEntity
  8
TEXT
100
AcDbPolyline
 90
        5
 70
     0
 43
0.0001332181640625
 10
1.055537707649065
 20
-0.0686715308125532
 10
1.055537707649065
 20
-0.0553497144063027
 10
1.018902712531877
 20
-0.0553497144063027
 10
1.018902712531877
 20
-0.0187147192891164
 10
1.005580896125627
 20
-0.0187147192891164
  0
LWPOLYLINE
  5
7DE1B343D9DFFE8
330
7DE1B343D9E00B7
100
AcDbEntity
  8
TEXT
100
AcDbPolyline
 90
        2
 70
     0
 43
0.0006660908203125
 10
1.045546345344375
 20
-0.1152978882344282
 10
1.045546345344375
 20
-0.1419415210469292
  0
LWPOLYLINE
  5
7DE1B343D9DFFEC
330
7DE1B343D9E00B7
100
AcDbEntity
  8
TEXT
100
AcDbPolyline
 90
        2
 70
     0
 43
0.0001332181640625
 10
1.045546345344375
 20
-0.1152978882344282
 10
1.055537707649065
 20
-0.0553497144063027
  0
LWPOLYLINE
  5
7DE1B343D9DFFF0
330
7DE1B343D9E00B7
100
AcDbEntity
  8
TEXT
100
AcDbPolyline
 90
        2
 70
     0
 43
0.0001332181640625
 10
1.045546345344375
 20
-0.1419415210469292
 10
1.055537707649065
 20
-0.0686715308125532
  0
LWPOLYLINE
  5
7DE1B343D9DFFF4
330
7DE1B343D9E00B7
100
AcDbEntity
  8
TEXT
100
AcDbPolyline
 90
        5
 70
     0
 43
0.0001332181640625
 10
1.005580896125627
 20
0.0012680053202576
 10
1.018902712531875
 20
0.0012680053202576
 10
1.018902712531875
 20
0.0379030004374474
 10
1.055537707649065
 20
0.0379030004374474
 10
1.055537707649065
 20
0.0512248168436944
  0
LWPOLYLINE
  5
7DE1B343D9DFFFB
330
7DE1B343D9E00B7
100
AcDbEntity
  8
TEXT
100
AcDbPolyline
 90
        5
 70
     0
 43
0.0001332181640625
 10
1.075520432258437
 20
0.0512248168436944
 10
1.075520432258437
 20
0.0379030004374474
 10
1.112155427375627
 20
0.0379030004374474
 10
1.112155427375627
 20
0.0012680053202576
 10
1.125477243781876
 20
0.0012680053202576
  0
LWPOLYLINE
  5
7DE1B343D9E0002
330
7DE1B343D9E00B7
100
AcDbEntity
  8
TEXT
100
AcDbPolyline
 90
        2
 70
     0
 43
0.0001332181640625
 10
1.085511794563126
 20
-0.1152978882344282
 10
1.075520432258437
 20
-0.0553497144063027
  0
LWPOLYLINE
  5
7DE1B343D9E0006
330
7DE1B343D9E00B7
100
AcDbEntity
  8
TEXT
100
AcDbPolyline
 90
        2
 70
     0
 43
0.0001332181640625
 10
1.075520432258437
 20
-0.0686715308125532
 10
1.085511794563126
 20
-0.1419415210469292
  0
LWPOLYLINE
  5
7DE1B343D9E000A
330
7DE1B343D9E00B7
100
AcDbEntity
  8
TEXT
100
AcDbPolyline
 90
        2
 70
     0
 43
0.0006660908203125
 10
1.085511794563126
 20
-0.1152978882344282
 10
1.085511794563126
 20
-0.1419415210469292
  0
LWPOLYLINE
  5
7DE1B343D9E000E
330
7DE1B343D9E00B7
100
AcDbEntity
  8
TEXT
100
AcDbPolyline
 90
        5
 70
     0
 43
0.0001332181640625
 10
1.125477243781876
 20
-0.0187147192891164
 10
1.112155427375627
 20
-0.0187147192891164
 10
1.112155427375627
 20
-0.0553497144063027
 10
1.075520432258437
 20
-0.0553497144063027
 10
1.075520432258437
 20
-0.0686715308125532
  0
LWPOLYLINE
  5
7DE1B343D9E0015
330
7DE1B343D9E00B7
100
AcDbEntity
  8
TEXT
100
AcDbPolyline
 90
        2
 70
     0
 43
0.0006660908203125
 10
1.172103601203751
 20
0.0112593676249464
 10
1.198747234016252
 20
0.0112593676249464
  0
LWPOLYLINE
  5
7DE1B343D9E0019
330
7DE1B343D9E00B7
100
AcDbEntity
  8
TEXT
100
AcDbPolyline
 90
        2
 70
     0
 43
0.0006660908203125
 10
1.172103601203751
 20
-0.0287060815938016
 10
1.198747234016252
 20
-0.0287060815938016
  0
LINE
  5
7DE1B343D9E001D
330
7DE1B343D9E00B7
100
AcDbEntity
  8
TEXT
100
AcDbLine
 10
1.468861370864277
 20
0.060218112421305
 30
0.0
 11
1.635767024893248
 21
0.060218112421305
 31
0.0
  0
LINE
  5
7DE1B343D9E001E
330
7DE1B343D9E00B7
100
AcDbEntity
  8
TEXT
100
AcDbLine
 10
1.534461507108578
 20
0.0244133908106772
 30
0.0
 11
1.468861370864277
 21
0.0244133908106772
 31
0.0
  0
LINE
  5
7DE1B343D9E001F
330
7DE1B343D9E00B7
100
AcDbEntity
  8
TEXT
100
AcDbLine
 10
1.381536581303525
 20
-0.1419782259104405
 30
0.0
 11
1.534461507108578
 21
-0.1419782259104405
 31
0.0
  0
LINE
  5
7DE1B343D9E0020
330
7DE1B343D9E00B7
100
AcDbEntity
  8
TEXT
100
AcDbLine
 10
1.539401881014858
 20
-0.0736212195770012
 30
0.0
 11
1.381536581303524
 21
-0.0736212195770012
 31
0.0
  0
LINE
  5
7DE1B343D9E0021
330
7DE1B343D9E00B7
100
AcDbEntity
  8
TEXT
100
AcDbLine
 10
1.463624040750029
 20
-0.0396801118149366
 30
0.0
 11
1.539401881014858
 21
-0.0396801118149366
 31
0.0
  0
ARC
  5
7DE1B343D9E0022
330
7DE1B343D9E00B7
100
AcDbEntity
  8
TEXT
100
AcDbCircle
 10
1.468861370864278
 20
0.0423157516159929
 30
0.0
 40
0.017902360805315
100
AcDbArc
 50
90.0
 51
270.0
  0
LINE
  5
7DE1B343D9E0023
330
7DE1B343D9E00B7
100
AcDbEntity
  8
TEXT
100
AcDbLine
 10
1.381536581303524
 20
-0.0736212195770012
 30
0.0
 11
1.381536581303525
 21
-0.1419782259104405
 31
0.0
  0
LINE
  5
7DE1B343D9E0024
330
7DE1B343D9E00B7
100
AcDbEntity
  8
TEXT
100
AcDbLine
 10
1.635767024893248
 20
0.060218112421305
 30
0.0
 11
1.635767024893248
 21
-0.0821858345723907
 31
0.0
  0
ARC
  5
7DE1B343D9E0025
330
7DE1B343D9E00B7
100
AcDbEntity
  8
TEXT
100
AcDbCircle
 10
1.534461507108579
 20
-0.0587824175498835
 30
0.0
 40
0.0831958083605586
100
AcDbArc
 50
270.0
 51
90.0
  0
ARC
  5
7DE1B343D9E0026
330
7DE1B343D9E00B7
100
AcDbEntity
  8
TEXT
100
AcDbCircle
 10
1.539401881014859
 20
-0.0566506656959671
 30
0.0
 40
0.0169705538810321
100
AcDbArc
 50
270.0
 51
90.0
  0
LWPOLYLINE
  5
7DE1B343D9E0027
330
7DE1B343D9E00B7
100
AcDbEntity
  8
TEXT
100
AcDbPolyline
 90
        2
 70
     0
 43
0.0006660908203125
 10
1.045546345344375
 20
0.097851174265573
 10
1.045546345344375
 20
0.124494807078074
  0
LWPOLYLINE
  5
7DE1B343D9E002B
330
7DE1B343D9E00B7
100
AcDbEntity
  8
TEXT
100
AcDbPolyline
 90
        2
 70
     0
 43
0.0006660908203125
 10
1.085511794563126
 20
0.097851174265573
 10
1.085511794563126
 20
0.124494807078074
  0
LINE
  5
7DE1B343D9E002F
330
7DE1B343D9E00B7
100
AcDbEntity
  8
TEXT
100
AcDbLine
 10
1.639355793648541
 20
0.1244948070780705
 30
0.0
 11
1.463624040750029
 21
0.1244948070780705
 31
0.0
  0
LINE
  5
7DE1B343D9E0030
330
7DE1B343D9E00B7
100
AcDbEntity
  8
TEXT
100
AcDbLine
 10
1.639355793648541
 20
0.1588827246722086
 30
0.0
 11
1.639355793648541
 21
0.1244948070780705
 31
0.0
  0
LINE
  5
7DE1B343D9E0031
330
7DE1B343D9E00B7
100
AcDbEntity
  8
TEXT
100
AcDbLine
 10
1.829827685668393
 20
0.0236228109649499
 30
0.0
 11
1.771197364636456
 21
0.1244948070780705
 31
0.0
  0
LINE
  5
7DE1B343D9E0032
330
7DE1B343D9E00B7
100
AcDbEntity
  8
TEXT
100
AcDbLine
 10
1.888576248474259
 20
0.1244948070780705
 30
0.0
 11
1.829827685668393
 21
0.0236228109649499
 31
0.0
  0
LINE
  5
7DE1B343D9E0033
330
7DE1B343D9E00B7
100
AcDbEntity
  8
TEXT
100
AcDbLine
 10
1.985506873834
 20
-0.0595903878074413
 30
0.0
 11
1.985506873834
 21
0.192506284816881
 31
0.0
  0
LINE
  5
7DE1B343D9E0034
330
7DE1B343D9E00B7
100
AcDbEntity
  8
TEXT
100
AcDbLine
 10
2.01781872797166
 20
0.1244948070780705
 30
0.0
 11
2.01781872797166
 21
-0.0763693996543378
 31
0.0
  0
LINE
  5
7DE1B343D9E0035
330
7DE1B343D9E00B7
100
AcDbEntity
  8
TEXT
100
AcDbLine
 10
2.01781872797166
 20
-0.0763693996543378
 30
0.0
 11
2.000825091087059
 21
-0.0763693996543378
 31
0.0
  0
LINE
  5
7DE1B343D9E0036
330
7DE1B343D9E00B7
100
AcDbEntity
  8
TEXT
100
AcDbLine
 10
1.986646447330195
 20
-0.1419782259104405
 30
0.0
 11
2.08464978102963
 21
-0.1419782259104405
 31
0.0
  0
LINE
  5
7DE1B343D9E0037
330
7DE1B343D9E00B7
100
AcDbEntity
  8
TEXT
100
AcDbLine
 10
1.820227448671439
 20
-0.1220197198054276
 30
0.0
 11
1.917527154764884
 21
0.0423304911298406
 31
0.0
  0
ARC
  5
7DE1B343D9E0038
330
7DE1B343D9E00B7
100
AcDbEntity
  8
TEXT
100
AcDbCircle
 10
1.786183888759225
 20
-0.1024305036367448
 30
0.0
 40
0.0392772371940762
100
AcDbArc
 50
270.1604552698595
 51
330.0831797321295
  0
LINE
  5
7DE1B343D9E0039
330
7DE1B343D9E00B7
100
AcDbEntity
  8
TEXT
100
AcDbLine
 10
1.689653632373354
 20
-0.1419782259104405
 30
0.0
 11
1.786293883448348
 21
-0.1417075868121582
 31
0.0
  0
LWPOLYLINE
  5
7DE1B343D9E003A
330
7DE1B343D9E00B7
100
AcDbEntity
  8
TEXT
100
AcDbPolyline
 90
        6
 70
     1
 43
0.0
 10
1.732177435948504
 20
0.060218112421305
 10
1.701860841728295
 20
0.060218112421305
 10
1.701860841728295
 20
-0.0628928856335893
 42
0.407328721240804
 10
1.713404492889772
 20
-0.0747118003099754
 10
1.774026191934503
 20
-0.0747118003099754
 10
1.791491532341821
 20
-0.0418995712664963
  0
LINE
  5
7DE1B343D9E0042
330
7DE1B343D9E00B7
100
AcDbEntity
  8
TEXT
100
AcDbLine
 10
1.917527154764884
 20
0.0423304911298406
 30
0.0
 11
1.917527154764884
 21
-0.0904268836955158
 31
0.0
  0
ARC
  5
7DE1B343D9E0043
330
7DE1B343D9E00B7
100
AcDbEntity
  8
TEXT
100
AcDbCircle
 10
2.000825091087057
 20
-0.0609875934109123
 30
0.0
 40
0.0153818062434269
100
AcDbArc
 50
174.7883570302258
 51
270.0
  0
LWPOLYLINE
  5
7DE1B343D9E0044
330
7DE1B343D9E00B7
100
AcDbEntity
  8
TEXT
100
AcDbPolyline
 90
        2
 70
     0
 43
0.0
 10
1.917527154764882
 20
-0.0904268836955122
 42
0.3318488747599744
 10
1.986646447330195
 20
-0.1419782259104405
 42
-6.868794160588311
  0
LINE
  5
7DE1B343D9E0048
330
7DE1B343D9E00B7
100
AcDbEntity
  8
TEXT
100
AcDbLine
 10
2.142038850018891
 20
-0.1419782259104405
 30
0.0
 11
2.209096896800731
 21
-0.1419782259104405
 31
0.0
  0
LINE
  5
7DE1B343D9E0049
330
7DE1B343D9E00B7
100
AcDbEntity
  8
TEXT
100
AcDbLine
 10
2.142038850018891
 20
0.0526643232551951
 30
0.0
 11
2.142038850018891
 21
-0.1419782259104405
 31
0.0
  0
LINE
  5
7DE1B343D9E004A
330
7DE1B343D9E00B7
100
AcDbEntity
  8
TEXT
100
AcDbLine
 10
2.08464978102963
 20
0.060218112421305
 30
0.0
 11
2.134485060852777
 21
0.060218112421305
 31
0.0
  0
LINE
  5
7DE1B343D9E004B
330
7DE1B343D9E00B7
100
AcDbEntity
  8
TEXT
100
AcDbLine
 10
2.08464978102963
 20
-0.1419782259104405
 30
0.0
 11
2.08464978102963
 21
0.060218112421305
 31
0.0
  0
LWPOLYLINE
  5
7DE1B343D9E004C
330
7DE1B343D9E00B7
100
AcDbEntity
  8
TEXT
100
AcDbPolyline
 90
        2
 70
     0
 43
0.0
 10
2.134485060852775
 20
0.060218112421305
 42
-0.4142135623731017
 10
2.142038850018889
 20
0.0526643232551951
 42
-0.9999999999999998
  0
LINE
  5
7DE1B343D9E0050
330
7DE1B343D9E00B7
100
AcDbEntity
  8
TEXT
100
AcDbLine
 10
2.34029506163046
 20
0.060218112421305
 30
0.0
 11
2.34029506163046
 21
-0.0148342936529016
 31
0.0
  0
LINE
  5
7DE1B343D9E0051
330
7DE1B343D9E00B7
100
AcDbEntity
  8
TEXT
100
AcDbLine
 10
2.209096896800731
 20
0.060218112421305
 30
0.0
 11
2.263230493721681
 21
0.060218112421305
 31
0.0
  0
LINE
  5
7DE1B343D9E0052
330
7DE1B343D9E00B7
100
AcDbEntity
  8
TEXT
100
AcDbLine
 10
2.209096896800731
 20
-0.1419782259104405
 30
0.0
 11
2.209096896800731
 21
0.060218112421305
 31
0.0
  0
LWPOLYLINE
  5
7DE1B343D9E0053
330
7DE1B343D9E00B7
100
AcDbEntity
  8
TEXT
100
AcDbPolyline
 90
        2
 70
     0
 43
0.0
 10
2.263230493721679
 20
0.060218112421305
 42
-0.4142135623731017
 10
2.270784282887793
 20
0.0526643232551951
 42
-0.9999999999999998
  0
LWPOLYLINE
  5
7DE1B343D9E0057
330
7DE1B343D9E00B7
100
AcDbEntity
  8
TEXT
100
AcDbPolyline
 90
        4
 70
     0
 43
0.0
 10
2.270784282887793
 20
0.0526643232551951
 10
2.270784282887793
 20
-0.1419782259104405
 10
2.33926256617565
 20
-0.1419782259104405
 10
2.33926256617565
 20
-0.0984872809600024
 42
-1.714843617202739
  0
LINE
  5
7DE1B343D9E005D
330
7DE1B343D9E00B7
100
AcDbEntity
  8
TEXT
100
AcDbLine
 10
1.699398398492548
 20
0.1244948070780705
 30
0.0
 11
1.699398398492548
 21
0.1588827246722086
 31
0.0
  0
LINE
  5
7DE1B343D9E005E
330
7DE1B343D9E00B7
100
AcDbEntity
  8
TEXT
100
AcDbLine
 10
1.771197364636456
 20
0.1244948070780705
 30
0.0
 11
1.699398398492548
 21
0.1244948070780705
 31
0.0
  0
LINE
  5
7DE1B343D9E005F
330
7DE1B343D9E00B7
100
AcDbEntity
  8
TEXT
100
AcDbLine
 10
1.918698161267635
 20
0.1244948070780705
 30
0.0
 11
1.888576248474259
 21
0.1244948070780705
 31
0.0
  0
LINE
  5
7DE1B343D9E0060
330
7DE1B343D9E00B7
100
AcDbEntity
  8
TEXT
100
AcDbLine
 10
1.918698161267635
 20
0.192506284816881
 30
0.0
 11
1.918698161267635
 21
0.1244948070780705
 31
0.0
  0
LINE
  5
7DE1B343D9E0061
330
7DE1B343D9E00B7
100
AcDbEntity
  8
TEXT
100
AcDbLine
 10
1.985506873834
 20
0.192506284816881
 30
0.0
 11
1.918698161267635
 21
0.192506284816881
 31
0.0
  0
LWPOLYLINE
  5
7DE1B343D9E0062
330
7DE1B343D9E00B7
100
AcDbEntity
  8
TEXT
100
AcDbPolyline
 90
        3
 70
     0
 43
0.0
 10
2.305918633432002
 20
0.124494807078074
 10
2.187618474615958
 20
0.124494807078074
 10
2.187618474615958
 20
0.0973273103171781
 42
-1.960274751411753
  0
LINE
  5
7DE1B343D9E0067
330
7DE1B343D9E00B7
100
AcDbEntity
  8
TEXT
100
AcDbLine
 10
2.151836783902797
 20
0.1244948070780705
 30
0.0
 11
2.01781872797166
 21
0.1244948070780705
 31
0.0
  0
LWPOLYLINE
  5
7DE1B343D9E0068
330
7DE1B343D9E00B7
100
AcDbEntity
  8
TEXT
100
AcDbPolyline
 90
        2
 70
     0
 43
0.0
 10
2.151836783902797
 20
0.124494807078074
 42
-0.3328679258950098
 10
2.187618474615958
 20
0.0973273103171781
 42
6.772930709997214
  0
LINE
  5
7DE1B343D9E006C
330
7DE1B343D9E00B7
100
AcDbEntity
  8
TEXT
100
AcDbLine
 10
2.341700324145169
 20
0.1244948070780705
 30
0.0
 11
2.341700324145169
 21
0.0961722613084266
 31
0.0
  0
LWPOLYLINE
  5
7DE1B343D9E006D
330
7DE1B343D9E00B7
100
AcDbEntity
  8
TEXT
100
AcDbPolyline
 90
        2
 70
     0
 43
0.0
 10
2.305918633432002
 20
0.124494807078074
 42
-0.3277054968067132
 10
2.341700324145167
 20
0.0961722613084302
 42
6.667889725900311
  0
LINE
  5
7DE1B343D9E0071
330
7DE1B343D9E00B7
100
AcDbEntity
  8
TEXT
100
AcDbLine
 10
2.555492172237269
 20
0.0192828285246432
 30
0.0
 11
2.511741401055368
 21
0.1015331045207883
 31
0.0
  0
LINE
  5
7DE1B343D9E0072
330
7DE1B343D9E00B7
100
AcDbEntity
  8
TEXT
100
AcDbLine
 10
2.555492172237269
 20
0.1244948070780705
 30
0.0
 11
2.555492172237269
 21
0.0192828285246432
 31
0.0
  0
LINE
  5
7DE1B343D9E0073
330
7DE1B343D9E00B7
100
AcDbEntity
  8
TEXT
100
AcDbLine
 10
2.783175911175638
 20
0.0486294806665324
 30
0.0
 11
2.783175911175638
 21
0.1899590128456712
 31
0.0
  0
LINE
  5
7DE1B343D9E0074
330
7DE1B343D9E00B7
100
AcDbEntity
  8
TEXT
100
AcDbLine
 10
2.830274069731623
 20
0.1244948070780705
 30
0.0
 11
2.783175911175638
 21
0.0486294806665324
 31
0.0
  0
LINE
  5
7DE1B343D9E0075
330
7DE1B343D9E00B7
100
AcDbEntity
  8
TEXT
100
AcDbLine
 10
2.840708786495546
 20
0.0146015641370969
 30
0.0
 11
2.905265902461251
 21
0.1244948070780705
 31
0.0
  0
LINE
  5
7DE1B343D9E0076
330
7DE1B343D9E00B7
100
AcDbEntity
  8
TEXT
100
AcDbLine
 10
2.719340919952865
 20
-0.1419782259104405
 30
0.0
 11
2.783719104271486
 21
-0.1419782259104405
 31
0.0
  0
LWPOLYLINE
  5
7DE1B343D9E0077
330
7DE1B343D9E00B7
100
AcDbEntity
  8
TEXT
100
AcDbPolyline
 90
        2
 70
     0
 43
0.0
 10
2.559431849542307
 20
-0.0984872809600024
 42
-0.2901071551932486
 10
2.516355916674663
 20
-0.1419782259104405
 42
-5.328517124445184
  0
ARC
  5
7DE1B343D9E007B
330
7DE1B343D9E00B7
100
AcDbEntity
  8
TEXT
100
AcDbCircle
 10
2.447501335017748
 20
0.0318587374213077
 30
0.0
 40
0.028359375
100
AcDbArc
 50
25.78218179591245
 51
90.0
  0
LINE
  5
7DE1B343D9E007C
330
7DE1B343D9E00B7
100
AcDbEntity
  8
TEXT
100
AcDbLine
 10
2.483302410321871
 20
0.0229431389591728
 30
0.0
 11
2.473037649908307
 21
0.0441936785318671
 31
0.0
  0
LINE
  5
7DE1B343D9E007D
330
7DE1B343D9E00B7
100
AcDbEntity
  8
TEXT
100
AcDbLine
 10
2.401014420538488
 20
0.0229431389591728
 30
0.0
 11
2.483302410321871
 21
0.0229431389591728
 31
0.0
  0
LWPOLYLINE
  5
7DE1B343D9E007E
330
7DE1B343D9E00B7
100
AcDbEntity
  8
TEXT
100
AcDbPolyline
 90
        4
 70
     1
 43
0.0
 10
2.49623345160477
 20
-0.0390142479264153
 10
2.407573132944912
 20
-0.0390142479264153
 42
0.9999999999999998
 10
2.407573132944912
 20
-0.081412788430276
 10
2.49623345160477
 20
-0.081412788430276
 42
1.0
  0
LWPOLYLINE
  5
7DE1B343D9E0084
330
7DE1B343D9E00B7
100
AcDbEntity
  8
TEXT
100
AcDbPolyline
 90
        2
 70
     0
 43
0.0
 10
2.382338499043286
 20
-0.1419782259104405
 10
2.516355916674663
 20
-0.1419782259104405
 42
0.9999999999999998
  0
LINE
  5
7DE1B343D9E0088
330
7DE1B343D9E00B7
100
AcDbEntity
  8
TEXT
100
AcDbLine
 10
2.642692938660302
 20
0.060218112421305
 30
0.0
 11
2.71934091995286
 21
0.060218112421305
 31
0.0
  0
LINE
  5
7DE1B343D9E0089
330
7DE1B343D9E00B7
100
AcDbEntity
  8
TEXT
100
AcDbLine
 10
2.71934091995286
 20
0.060218112421305
 30
0.0
 11
2.719340919952865
 21
-0.1419782259104405
 31
0.0
  0
ARC
  5
7DE1B343D9E008A
330
7DE1B343D9E00B7
100
AcDbEntity
  8
TEXT
100
AcDbCircle
 10
2.6426929386603
 20
0.0353122371386423
 30
0.0
 40
0.0249058752826653
100
AcDbArc
 50
89.99971217465335
 51
179.9999999999985
  0
LINE
  5
7DE1B343D9E008B
330
7DE1B343D9E00B7
100
AcDbEntity
  8
TEXT
100
AcDbLine
 10
2.617787063377643
 20
-0.1419782259104405
 30
0.0
 11
2.617787063377638
 21
0.0353122795210279
 31
0.0
  0
LWPOLYLINE
  5
7DE1B343D9E008C
330
7DE1B343D9E00B7
100
AcDbEntity
  8
TEXT
100
AcDbPolyline
 90
        2
 70
     0
 43
0.0
 10
2.559431849542307
 20
-0.1419782259104405
 10
2.617787063377641
 20
-0.1419782259104405
  0
LWPOLYLINE
  5
7DE1B343D9E0090
330
7DE1B343D9E00B7
100
AcDbEntity
  8
TEXT
100
AcDbPolyline
 90
        2
 70
     0
 43
0.0
 10
2.559431849542307
 20
-0.0984872809600024
 10
2.559431849542307
 20
-0.1419782259104405
  0
LINE
  5
7DE1B343D9E0094
330
7DE1B343D9E00B7
100
AcDbEntity
  8
TEXT
100
AcDbLine
 10
2.936201009859156
 20
-0.1419782259104405
 30
0.0
 11
2.840708786495546
 21
0.0146015641370969
 31
0.0
  0
LINE
  5
7DE1B343D9E0095
330
7DE1B343D9E00B7
100
AcDbEntity
  8
TEXT
100
AcDbLine
 10
2.85962263748295
 20
-0.1419782259104405
 30
0.0
 11
2.936201009859156
 21
-0.1419782259104405
 31
0.0
  0
LINE
  5
7DE1B343D9E0096
330
7DE1B343D9E00B7
100
AcDbEntity
  8
TEXT
100
AcDbLine
 10
2.783719104271486
 20
-0.0103986574342603
 30
0.0
 11
2.85962263748295
 21
-0.1419782259104405
 31
0.0
  0
LINE
  5
7DE1B343D9E0097
330
7DE1B343D9E00B7
100
AcDbEntity
  8
TEXT
100
AcDbLine
 10
2.783719104271486
 20
-0.1419782259104405
 30
0.0
 11
2.783719104271486
 21
-0.0103986574342603
 31
0.0
  0
LINE
  5
7DE1B343D9E0098
330
7DE1B343D9E00B7
100
AcDbEntity
  8
TEXT
100
AcDbLine
 10
2.783175911175638
 20
0.1899590128456712
 30
0.0
 11
2.714861032626365
 21
0.1899590128456712
 31
0.0
  0
ARC
  5
7DE1B343D9E0099
330
7DE1B343D9E00B7
100
AcDbEntity
  8
TEXT
100
AcDbCircle
 10
2.474505293585159
 20
0.0829112399571681
 30
0.0
 40
0.0416329381542859
100
AcDbArc
 50
26.56974201007528
 51
87.20939649401342
  0
LINE
  5
7DE1B343D9E009A
330
7DE1B343D9E00B7
100
AcDbEntity
  8
TEXT
100
AcDbLine
 10
2.61938907853677
 20
0.1244948070780705
 30
0.0
 11
2.555492172237269
 21
0.1244948070780705
 31
0.0
  0
LINE
  5
7DE1B343D9E009B
330
7DE1B343D9E00B7
100
AcDbEntity
  8
TEXT
100
AcDbLine
 10
2.61938907853677
 20
0.0969471572171958
 30
0.0
 11
2.61938907853677
 21
0.1244948070780705
 31
0.0
  0
ARC
  5
7DE1B343D9E009C
330
7DE1B343D9E00B7
100
AcDbEntity
  8
TEXT
100
AcDbCircle
 10
2.650581895599878
 20
0.0932490797958057
 30
0.0
 40
0.0314112657011332
100
AcDbArc
 50
95.88484768694724
 51
173.2388340632136
  0
LINE
  5
7DE1B343D9E009D
330
7DE1B343D9E00B7
100
AcDbEntity
  8
TEXT
100
AcDbLine
 10
2.71486103262636
 20
0.1244948070780705
 30
0.0
 11
2.647361314976843
 21
0.1244948070780705
 31
0.0
  0
LINE
  5
7DE1B343D9E009E
330
7DE1B343D9E00B7
100
AcDbEntity
  8
TEXT
100
AcDbLine
 10
2.714861032626365
 20
0.1899590128456712
 30
0.0
 11
2.71486103262636
 21
0.1244948070780705
 31
0.0
  0
LINE
  5
7DE1B343D9E009F
330
7DE1B343D9E00B7
100
AcDbEntity
  8
TEXT
100
AcDbLine
 10
2.905265902461251
 20
0.1244948070780705
 30
0.0
 11
2.830274069731625
 21
0.1244948070780705
 31
0.0
  0
ENDSEC
  0
SECTION
  2
OBJECTS
  0
DICTIONARY
  5
7DE1B343D9E00AB
330
0
100
AcDbDictionary
  3
ACAD_GROUP
350
7DE1B343D9E00AC
  3
ACAD_LAYOUT
350
7DE1B343D9E00D1
  3
ACAD_MLINESTYLE
350
7DE1B343D9E00AD
  3
ACAD_PLOTSETTINGS
350
7DE1B343D9E00D2
  3
ACAD_PLOTSTYLENAME
350
7DE1B343D9E00CF
  3
ACDBHEADERROUNDTRIPXREC
350
7DE1B343D9E00DC
  3
ACDBVARIABLEDICTIONARY
350
7DE1B343D9E00D9
  0
DICTIONARY
  5
7DE1B343D9E00FE
330
7DE1B343D9E00B7
100
AcDbDictionary
280
     1
  3
ACAD_LAYOUTSELFREF
360
7DE1B343D9E00FF
  0
DICTIONARY
  5
7DE1B343D9E00FC
330
7DE1B343D9E00B4
100
AcDbDictionary
280
     1
  3
ACAD_LAYOUTSELFREF
360
7DE1B343D9E00FD
  0
DICTIONARY
  5
7DE1B343D9E00AC
102
{ACAD_REACTORS
330
7DE1B343D9E00AB
102
}
330
7DE1B343D9E00AB
100
AcDbDictionary
  0
DICTIONARY
  5
7DE1B343D9E00D1
102
{ACAD_REACTORS
330
7DE1B343D9E00AB
102
}
330
7DE1B343D9E00AB
100
AcDbDictionary
  0
DICTIONARY
  5
7DE1B343D9E00AD
102
{ACAD_REACTORS
330
7DE1B343D9E00AB
102
}
330
7DE1B343D9E00AB
100
AcDbDictionary
  3
STANDARD
350
7DE1B343D9E00BA
  0
DICTIONARY
  5
7DE1B343D9E00D2
102
{ACAD_REACTORS
330
7DE1B343D9E00AB
102
}
330
7DE1B343D9E00AB
100
AcDbDictionary
  0
ACDBDICTIONARYWDFLT
  5
7DE1B343D9E00CF
102
{ACAD_REACTORS
330
7DE1B343D9E00AB
102
}
330
7DE1B343D9E00AB
100
AcDbDictionary
281
     1
  3
Normal
350
7DE1B343D9E00D0
100
AcDbDictionaryWithDefault
340
7DE1B343D9E00D0
  0
DICTIONARY
  5
7DE1B343D9E00DC
102
{ACAD_REACTORS
330
7DE1B343D9E00AB
102
}
330
7DE1B343D9E00AB
100
AcDbDictionary
  3
CEPSNTYPE
350
7DE1B343D9E00E6
  3
FINGERPRINTGUID
350
7DE1B343D9E00E7
  3
HYPERLINKBASE
350
7DE1B343D9E00DF
  3
INSUNITS
350
7DE1B343D9E00E5
  3
LAYOUTDICT
350
7DE1B343D9E00E1
  3
LWETCUNION
350
7DE1B343D9E00E4
  3
PLOTSETDICT
350
7DE1B343D9E00E2
  3
PLOTSTYLNAMDICT
350
7DE1B343D9E00E3
  3
PSVPSCALE
350
7DE1B343D9E00E9
  3
PUCSBASE
350
7DE1B343D9E00EC
  3
PUCSORGBACK
350
7DE1B343D9E00F2
  3
PUCSORGBOTTOM
350
7DE1B343D9E00EE
  3
PUCSORGFRONT
350
7DE1B343D9E00F1
  3
PUCSORGLEFT
350
7DE1B343D9E00EF
  3
PUCSORGRIGHT
350
7DE1B343D9E00F0
  3
PUCSORGTOP
350
7DE1B343D9E00ED
  3
PUCSORTHOREF
350
7DE1B343D9E00EA
  3
PUCSORTHOVIEW
350
7DE1B343D9E00EB
  3
STYLESHEET
350
7DE1B343D9E00E0
  3
TSTACKALIGN
350
7DE1B343D9E00DD
  3
TSTACKSIZE
350
7DE1B343D9E00DE
  3
UCSBASE
350
7DE1B343D9E00F5
  3
UCSORGBACK
350
7DE1B343D9E00FB
  3
UCSORGBOTTOM
350
7DE1B343D9E00F7
  3
UCSORGFRONT
350
7DE1B343D9E00FA
  3
UCSORGLEFT
350
7DE1B343D9E00F8
  3
UCSORGRIGHT
350
7DE1B343D9E00F9
  3
UCSORGTOP
350
7DE1B343D9E00F6
  3
UCSORTHOREF
350
7DE1B343D9E00F3
  3
UCSORTHOVIEW
350
7DE1B343D9E00F4
  3
VERSIONGUID
350
7DE1B343D9E00E8
  0
DICTIONARY
  5
7DE1B343D9E00D9
102
{ACAD_REACTORS
330
7DE1B343D9E00AB
102
}
330
7DE1B343D9E00AB
100
AcDbDictionary
  3
DIMASSOC
350
7DE1B343D9E00DA
  0
XRECORD
  5
7DE1B343D9E00FF
102
{ACAD_REACTORS
330
7DE1B343D9E00FE
102
}
330
7DE1B343D9E00FE
100
AcDbXrecord
340
7DE1B343D9E00B7
  0
XRECORD
  5
7DE1B343D9E00FD
102
{ACAD_REACTORS
330
7DE1B343D9E00FC
102
}
330
7DE1B343D9E00FC
100
AcDbXrecord
340
7DE1B343D9E00B4
  0
MLINESTYLE
  5
7DE1B343D9E00BA
102
{ACAD_REACTORS
330
7DE1B343D9E00AD
102
}
330
7DE1B343D9E00AD
100
AcDbMlineStyle
  2
STANDARD
 70
     0
  3

 62
     0
 51
90.0
 52
90.0
 71
     2
 49
0.5
 62
   256
  6
BYLAYER
 49
-0.5
 62
   256
  6
BYLAYER
  0
ACDBPLACEHOLDER
  5
7DE1B343D9E00D0
102
{ACAD_REACTORS
330
7DE1B343D9E00CF
102
}
330
7DE1B343D9E00CF
100
AcDbPlaceHolder
280
     0
  0
XRECORD
  5
7DE1B343D9E00E6
102
{ACAD_REACTORS
330
7DE1B343D9E00DC
102
}
330
7DE1B343D9E00DC
100
AcDbXrecord
 90
        0
  0
XRECORD
  5
7DE1B343D9E00E7
102
{ACAD_REACTORS
330
7DE1B343D9E00DC
102
}
330
7DE1B343D9E00DC
100
AcDbXrecord
  1
{81D30C80-8DB6-11D6-88E6-0090279574E7}
  0
XRECORD
  5
7DE1B343D9E00DF
102
{ACAD_REACTORS
330
7DE1B343D9E00DC
102
}
330
7DE1B343D9E00DC
100
AcDbXrecord
  1

  0
XRECORD
  5
7DE1B343D9E00E5
102
{ACAD_REACTORS
330
7DE1B343D9E00DC
102
}
330
7DE1B343D9E00DC
100
AcDbXrecord
 90
        0
  0
XRECORD
  5
7DE1B343D9E00E1
102
{ACAD_REACTORS
330
7DE1B343D9E00DC
102
}
330
7DE1B343D9E00DC
100
AcDbXrecord
340
7DE1B343D9E00D1
  0
XRECORD
  5
7DE1B343D9E00E4
102
{ACAD_REACTORS
330
7DE1B343D9E00DC
102
}
330
7DE1B343D9E00DC
100
AcDbXrecord
 90
    14877
  0
XRECORD
  5
7DE1B343D9E00E2
102
{ACAD_REACTORS
330
7DE1B343D9E00DC
102
}
330
7DE1B343D9E00DC
100
AcDbXrecord
340
7DE1B343D9E00D2
  0
XRECORD
  5
7DE1B343D9E00E3
102
{ACAD_REACTORS
330
7DE1B343D9E00DC
102
}
330
7DE1B343D9E00DC
100
AcDbXrecord
340
7DE1B343D9E00CF
  0
XRECORD
  5
7DE1B343D9E00E9
102
{ACAD_REACTORS
330
7DE1B343D9E00DC
102
}
330
7DE1B343D9E00DC
100
AcDbXrecord
 40
0.0
  0
XRECORD
  5
7DE1B343D9E00EC
102
{ACAD_REACTORS
330
7DE1B343D9E00DC
102
}
330
7DE1B343D9E00DC
100
AcDbXrecord
340
0
  0
XRECORD
  5
7DE1B343D9E00F2
102
{ACAD_REACTORS
330
7DE1B343D9E00DC
102
}
330
7DE1B343D9E00DC
100
AcDbXrecord
 10
0.0
 20
0.0
 30
0.0
  0
XRECORD
  5
7DE1B343D9E00EE
102
{ACAD_REACTORS
330
7DE1B343D9E00DC
102
}
330
7DE1B343D9E00DC
100
AcDbXrecord
 10
0.0
 20
0.0
 30
0.0
  0
XRECORD
  5
7DE1B343D9E00F1
102
{ACAD_REACTORS
330
7DE1B343D9E00DC
102
}
330
7DE1B343D9E00DC
100
AcDbXrecord
 10
0.0
 20
0.0
 30
0.0
  0
XRECORD
  5
7DE1B343D9E00EF
102
{ACAD_REACTORS
330
7DE1B343D9E00DC
102
}
330
7DE1B343D9E00DC
100
AcDbXrecord
 10
0.0
 20
0.0
 30
0.0
  0
XRECORD
  5
7DE1B343D9E00F0
102
{ACAD_REACTORS
330
7DE1B343D9E00DC
102
}
330
7DE1B343D9E00DC
100
AcDbXrecord
 10
0.0
 20
0.0
 30
0.0
  0
XRECORD
  5
7DE1B343D9E00ED
102
{ACAD_REACTORS
330
7DE1B343D9E00DC
102
}
330
7DE1B343D9E00DC
100
AcDbXrecord
 10
0.0
 20
0.0
 30
0.0
  0
XRECORD
  5
7DE1B343D9E00EA
102
{ACAD_REACTORS
330
7DE1B343D9E00DC
102
}
330
7DE1B343D9E00DC
100
AcDbXrecord
340
0
  0
XRECORD
  5
7DE1B343D9E00EB
102
{ACAD_REACTORS
330
7DE1B343D9E00DC
102
}
330
7DE1B343D9E00DC
100
AcDbXrecord
 70
     0
  0
XRECORD
  5
7DE1B343D9E00E0
102
{ACAD_REACTORS
330
7DE1B343D9E00DC
102
}
330
7DE1B343D9E00DC
100
AcDbXrecord
  1

  0
XRECORD
  5
7DE1B343D9E00DD
102
{ACAD_REACTORS
330
7DE1B343D9E00DC
102
}
330
7DE1B343D9E00DC
100
AcDbXrecord
 90
        1
  0
XRECORD
  5
7DE1B343D9E00DE
102
{ACAD_REACTORS
330
7DE1B343D9E00DC
102
}
330
7DE1B343D9E00DC
100
AcDbXrecord
 90
       70
  0
XRECORD
  5
7DE1B343D9E00F5
102
{ACAD_REACTORS
330
7DE1B343D9E00DC
102
}
330
7DE1B343D9E00DC
100
AcDbXrecord
340
0
  0
XRECORD
  5
7DE1B343D9E00FB
102
{ACAD_REACTORS
330
7DE1B343D9E00DC
102
}
330
7DE1B343D9E00DC
100
AcDbXrecord
 10
0.0
 20
0.0
 30
0.0
  0
XRECORD
  5
7DE1B343D9E00F7
102
{ACAD_REACTORS
330
7DE1B343D9E00DC
102
}
330
7DE1B343D9E00DC
100
AcDbXrecord
 10
0.0
 20
0.0
 30
0.0
  0
XRECORD
  5
7DE1B343D9E00FA
102
{ACAD_REACTORS
330
7DE1B343D9E00DC
102
}
330
7DE1B343D9E00DC
100
AcDbXrecord
 10
0.0
 20
0.0
 30
0.0
  0
XRECORD
  5
7DE1B343D9E00F8
102
{ACAD_REACTORS
330
7DE1B343D9E00DC
102
}
330
7DE1B343D9E00DC
100
AcDbXrecord
 10
0.0
 20
0.0
 30
0.0
  0
XRECORD
  5
7DE1B343D9E00F9
102
{ACAD_REACTORS
330
7DE1B343D9E00DC
102
}
330
7DE1B343D9E00DC
100
AcDbXrecord
 10
0.0
 20
0.0
 30
0.0
  0
XRECORD
  5
7DE1B343D9E00F6
102
{ACAD_REACTORS
330
7DE1B343D9E00DC
102
}
330
7DE1B343D9E00DC
100
AcDbXrecord
 10
0.0
 20
0.0
 30
0.0
  0
XRECORD
  5
7DE1B343D9E00F3
102
{ACAD_REACTORS
330
7DE1B343D9E00DC
102
}
330
7DE1B343D9E00DC
100
AcDbXrecord
340
0
  0
XRECORD
  5
7DE1B343D9E00F4
102
{ACAD_REACTORS
330
7DE1B343D9E00DC
102
}
330
7DE1B343D9E00DC
100
AcDbXrecord
 70
     0
  0
XRECORD
  5
7DE1B343D9E00E8
102
{ACAD_REACTORS
330
7DE1B343D9E00DC
102
}
330
7DE1B343D9E00DC
100
AcDbXrecord
  1
{81D30C82-8DB6-11D6-88E6-0090279574E7}
  0
DICTIONARYVAR
  5
7DE1B343D9E00DA
102
{ACAD_REACTORS
330
7DE1B343D9E00D9
102
}
330
7DE1B343D9E00D9
100
DictionaryVariables
280
     0
  1
1
  0
ENDSEC
  0
EOF
