  0
SECTION
  2
HEADER
  9
$ACADVER
  1
AC1014
  9
$ACADMAINTVER
 70
     9
  9
$DWGCODEPAGE
  3
ANSI_1252
  9
$INSBASE
 10
3.324095220213976
 20
3.313416138274103
 30
0.0
  9
$EXTMIN
 10
1.581113640986832
 20
2.094704096926669
 30
0.0
  9
$EXTMAX
 10
5.066332962733965
 20
3.769916138274103
 30
0.0
  9
$LIMMIN
 10
0.0
 20
0.0
  9
$LIMMAX
 10
18.0
 20
12.0
  9
$ORTHOMODE
 70
     1
  9
$REGENMODE
 70
     1
  9
$FILLMODE
 70
     1
  9
$QTEXTMODE
 70
     0
  9
$MIRRTEXT
 70
     0
  9
$DRAGMODE
 70
     2
  9
$LTSCALE
 40
1.0
  9
$OSMODE
 70
    39
  9
$ATTMODE
 70
     1
  9
$TEXTSIZE
 40
0.125
  9
$TRACEWID
 40
0.05
  9
$TEXTSTYLE
  7
ROMANS
  9
$CLAYER
  8
0
  9
$CELTYPE
  6
BYLAYER
  9
$CECOLOR
 62
   256
  9
$CELTSCALE
 40
1.0
  9
$DELOBJ
 70
     1
  9
$DISPSILH
 70
     1
  9
$DIMSCALE
 40
1.0
  9
$DIMASZ
 40
0.125
  9
$DIMEXO
 40
0.125
  9
$DIMDLI
 40
0.375
  9
$DIMRND
 40
0.0
  9
$DIMDLE
 40
0.0
  9
$DIMEXE
 40
0.125
  9
$DIMTP
 40
0.0
  9
$DIMTM
 40
0.0
  9
$DIMTXT
 40
0.125
  9
$DIMCEN
 40
-0.125
  9
$DIMTSZ
 40
0.0
  9
$DIMTOL
 70
     0
  9
$DIMLIM
 70
     0
  9
$DIMTIH
 70
     1
  9
$DIMTOH
 70
     1
  9
$DIMSE1
 70
     0
  9
$DIMSE2
 70
     0
  9
$DIMTAD
 70
     0
  9
$DIMZIN
 70
     4
  9
$DIMBLK
  1

  9
$DIMASO
 70
     1
  9
$DIMSHO
 70
     1
  9
$DIMPOST
  1

  9
$DIMAPOST
  1

  9
$DIMALT
 70
     0
  9
$DIMALTD
 70
     2
  9
$DIMALTF
 40
25.4
  9
$DIMLFAC
 40
1.0
  9
$DIMTOFL
 70
     0
  9
$DIMTVP
 40
0.0
  9
$DIMTIX
 70
     1
  9
$DIMSOXD
 70
     0
  9
$DIMSAH
 70
     0
  9
$DIMBLK1
  1

  9
$DIMBLK2
  1

  9
$DIMSTYLE
  2
STANDARD
  9
$DIMCLRD
 70
     0
  9
$DIMCLRE
 70
     0
  9
$DIMCLRT
 70
     0
  9
$DIMTFAC
 40
1.0
  9
$DIMGAP
 40
0.09
  9
$DIMJUST
 70
     0
  9
$DIMSD1
 70
     0
  9
$DIMSD2
 70
     0
  9
$DIMTOLJ
 70
     1
  9
$DIMTZIN
 70
     4
  9
$DIMALTZ
 70
     0
  9
$DIMALTTZ
 70
     0
  9
$DIMFIT
 70
     3
  9
$DIMUPT
 70
     0
  9
$DIMUNIT
 70
     2
  9
$DIMDEC
 70
     3
  9
$DIMTDEC
 70
     3
  9
$DIMALTU
 70
     2
  9
$DIMALTTD
 70
     2
  9
$DIMTXSTY
  7
ROMANS
  9
$DIMAUNIT
 70
     0
  9
$LUNITS
 70
     2
  9
$LUPREC
 70
     3
  9
$SKETCHINC
 40
0.1
  9
$FILLETRAD
 40
0.03125
  9
$AUNITS
 70
     0
  9
$AUPREC
 70
     0
  9
$MENU
  1
ACAD
  9
$ELEVATION
 40
0.0
  9
$PELEVATION
 40
0.0
  9
$THICKNESS
 40
0.0
  9
$LIMCHECK
 70
     0
  9
$BLIPMODE
 70
     0
  9
$CHAMFERA
 40
0.0
  9
$CHAMFERB
 40
0.0
  9
$CHAMFERC
 40
0.0
  9
$CHAMFERD
 40
0.0
  9
$SKPOLY
 70
     0
  9
$TDCREATE
 40
2448994.586334027
  9
$TDUPDATE
 40
2452458.307881111
  9
$TDINDWG
 40
0.0006843634
  9
$TDUSRTIMER
 40
0.0006843634
  9
$USRTIMER
 70
     1
  9
$ANGBASE
 50
0.0
  9
$ANGDIR
 70
     0
  9
$PDMODE
 70
     0
  9
$PDSIZE
 40
0.0
  9
$PLINEWID
 40
0.0
  9
$COORDS
 70
     2
  9
$SPLFRAME
 70
     0
  9
$SPLINETYPE
 70
     6
  9
$SPLINESEGS
 70
     8
  9
$ATTDIA
 70
     0
  9
$ATTREQ
 70
     1
  9
$HANDLING
 70
 22529
  9
$HANDSEED
  5
7DE1B343D9DF7BA
  9
$SURFTAB1
 70
     6
  9
$SURFTAB2
 70
     6
  9
$SURFTYPE
 70
     6
  9
$SURFU
 70
     6
  9
$SURFV
 70
     6
  9
$UCSNAME
  2

  9
$UCSORG
 10
0.0
 20
0.0
 30
0.0
  9
$UCSXDIR
 10
1.0
 20
0.0
 30
0.0
  9
$UCSYDIR
 10
0.0
 20
1.0
 30
0.0
  9
$PUCSNAME
  2

  9
$PUCSORG
 10
0.0
 20
0.0
 30
0.0
  9
$PUCSXDIR
 10
1.0
 20
0.0
 30
0.0
  9
$PUCSYDIR
 10
0.0
 20
1.0
 30
0.0
  9
$USERI1
 70
     0
  9
$USERI2
 70
     0
  9
$USERI3
 70
     0
  9
$USERI4
 70
     0
  9
$USERI5
 70
     0
  9
$USERR1
 40
0.0
  9
$USERR2
 40
0.0
  9
$USERR3
 40
0.0
  9
$USERR4
 40
0.0
  9
$USERR5
 40
0.0
  9
$WORLDVIEW
 70
     1
  9
$SHADEDGE
 70
     3
  9
$SHADEDIF
 70
    70
  9
$TILEMODE
 70
     1
  9
$MAXACTVP
 70
    16
  9
$PINSBASE
 10
3.88800473118922
 20
50.00000000000001
 30
5.634914238126219
  9
$PLIMCHECK
 70
     0
  9
$PEXTMIN
 10
1.000000000000000E+20
 20
1.000000000000000E+20
 30
1.000000000000000E+20
  9
$PEXTMAX
 10
-1.000000000000000E+20
 20
-1.000000000000000E+20
 30
-1.000000000000000E+20
  9
$PLIMMIN
 10
0.0
 20
0.0
  9
$PLIMMAX
 10
12.0
 20
9.0
  9
$UNITMODE
 70
     0
  9
$VISRETAIN
 70
     0
  9
$PLINEGEN
 70
     1
  9
$PSLTSCALE
 70
     0
  9
$TREEDEPTH
 70
  3020
  9
$PICKSTYLE
 70
     1
  9
$CMLSTYLE
  2
STANDARD
  9
$CMLJUST
 70
     0
  9
$CMLSCALE
 40
1.0
  9
$PROXYGRAPHICS
 70
     1
  9
$MEASUREMENT
 70
     0
  0
ENDSEC
  0
SECTION
  2
CLASSES
  0
CLASS
  1
LWPOLYLINE
  2
AcDbPolyline
  3
AutoCAD 2000
 90
        0
280
     0
281
     1
  0
CLASS
  1
ACDBDICTIONARYWDFLT
  2
AcDbDictionaryWithDefault
  3
AutoCAD 2000
 90
        0
280
     0
281
     0
  0
CLASS
  1
ACDBPLACEHOLDER
  2
AcDbPlaceHolder
  3
AutoCAD 2000
 90
        0
280
     0
281
     0
  0
CLASS
  1
LAYOUT
  2
AcDbLayout
  3
AutoCAD 2000
 90
        0
280
     0
281
     0
  0
CLASS
  1
DICTIONARYVAR
  2
AcDbDictionaryVar
  3
AutoCAD 2000
 90
        0
280
     0
281
     0
  0
CLASS
  1
LONG_TRANSACTION
  2
AcDbLongTransaction
  3
AutoCAD 2000
 90
        0
280
     0
281
     0
  0
CLASS
  1
LWPOLYLINE
  2
AcDbPolyline
  3
AutoCAD 2000
 90
        0
280
     0
281
     1
  0
CLASS
  1
HATCH
  2
AcDbHatch
  3
AutoCAD 2000
 90
        0
280
     0
281
     1
  0
CLASS
  1
XRECORD
  2
AcDbXrecord
  3
AutoCAD 2000
 90
        0
280
     0
281
     0
  0
ENDSEC
  0
SECTION
  2
TABLES
  0
TABLE
  2
VPORT
  5
7DE1B343D9DF761
330
0
100
AcDbSymbolTable
 70
     2
  0
VPORT
  5
7DE1B343D9DF795
330
7DE1B343D9DF761
100
AcDbSymbolTableRecord
100
AcDbViewportTableRecord
  2
*ACTIVE
 70
     0
 10
0.0
 20
0.0
 11
1.0
 21
1.0
 12
6.299837911253871
 22
2.932525659134292
 13
0.0
 23
0.0
 14
0.015625
 24
0.015625
 15
0.0
 25
0.0
 16
0.0
 26
0.0
 36
1.0
 17
0.0
 27
0.0
 37
0.0
 40
2.282647215150728
 41
4.320930232558139
 42
50.0
 43
0.0
 44
0.0
 50
0.0
 51
0.0
 71
     0
 72
  2000
 73
     1
 74
     0
 75
     0
 76
     0
 77
     0
 78
     0
  0
ENDTAB
  0
TABLE
  2
LTYPE
  5
7DE1B343D9DF75E
330
0
100
AcDbSymbolTable
 70
     1
  0
LTYPE
  5
7DE1B343D9DF76B
330
7DE1B343D9DF75E
100
AcDbSymbolTableRecord
100
AcDbLinetypeTableRecord
  2
BYBLOCK
 70
     0
  3

 72
    65
 73
     0
 40
0.0
  0
LTYPE
  5
7DE1B343D9DF76C
330
7DE1B343D9DF75E
100
AcDbSymbolTableRecord
100
AcDbLinetypeTableRecord
  2
BYLAYER
 70
     0
  3

 72
    65
 73
     0
 40
0.0
  0
LTYPE
  5
7DE1B343D9DF76D
330
7DE1B343D9DF75E
100
AcDbSymbolTableRecord
100
AcDbLinetypeTableRecord
  2
CONTINUOUS
 70
     0
  3
Solid line
 72
    65
 73
     0
 40
0.0
  0
ENDTAB
  0
TABLE
  2
LAYER
  5
7DE1B343D9DF75B
330
0
100
AcDbSymbolTable
 70
     2
  0
LAYER
  5
7DE1B343D9DF768
330
7DE1B343D9DF75B
100
AcDbSymbolTableRecord
100
AcDbLayerTableRecord
  2
0
 70
     0
 62
     7
  6
CONTINUOUS
  0
LAYER
  5
7DE1B343D9DF778
330
7DE1B343D9DF75B
100
AcDbSymbolTableRecord
100
AcDbLayerTableRecord
  2
TEXT
 70
     0
 62
     3
  6
CONTINUOUS
  0
ENDTAB
  0
TABLE
  2
STYLE
  5
7DE1B343D9DF75C
330
0
100
AcDbSymbolTable
 70
     3
  0
STYLE
  5
7DE1B343D9DF769
330
7DE1B343D9DF75C
100
AcDbSymbolTableRecord
100
AcDbTextStyleTableRecord
  2
STANDARD
 70
     0
 40
0.0
 41
1.0
 50
0.0
 71
     0
 42
0.3125
  3
txt
  4

  0
STYLE
  5
7DE1B343D9DF775
330
7DE1B343D9DF75C
100
AcDbSymbolTableRecord
100
AcDbTextStyleTableRecord
  2
ITALICC
 70
     0
 40
0.0
 41
1.0
 50
0.0
 71
     0
 42
0.125
  3
italicc
  4

  0
STYLE
  5
7DE1B343D9DF785
330
7DE1B343D9DF75C
100
AcDbSymbolTableRecord
100
AcDbTextStyleTableRecord
  2
ROMANS
 70
     0
 40
0.0
 41
1.0
 50
0.0
 71
     0
 42
0.125
  3
romans.shx
  4

  0
ENDTAB
  0
TABLE
  2
VIEW
  5
7DE1B343D9DF75F
330
0
100
AcDbSymbolTable
 70
     0
  0
ENDTAB
  0
TABLE
  2
UCS
  5
7DE1B343D9DF760
330
0
100
AcDbSymbolTable
 70
     0
  0
ENDTAB
  0
TABLE
  2
APPID
  5
7DE1B343D9DF762
330
0
100
AcDbSymbolTable
 70
     1
  0
APPID
  5
7DE1B343D9DF76A
330
7DE1B343D9DF762
100
AcDbSymbolTableRecord
100
AcDbRegAppTableRecord
  2
ACAD
 70
     0
  0
ENDTAB
  0
TABLE
  2
DIMSTYLE
  5
7DE1B343D9DF763
330
0
100
AcDbSymbolTable
 70
     1
  0
DIMSTYLE
105
7DE1B343D9DF77D
330
7DE1B343D9DF763
100
AcDbSymbolTableRecord
100
AcDbDimStyleTableRecord
  2
STANDARD
 70
     0
  3

  4

  5

  6

  7

 40
1.0
 41
0.125
 42
0.125
 43
0.375
 44
0.125
 45
0.0
 46
0.0
 47
0.0
 48
0.0
140
0.125
141
-0.125
142
0.0
143
25.4
144
1.0
145
0.0
146
1.0
147
0.09
 71
     0
 72
     0
 73
     1
 74
     1
 75
     0
 76
     0
 77
     0
 78
     4
170
     0
171
     2
172
     0
173
     0
174
     1
175
     0
176
     0
177
     0
178
     0
270
     2
271
     3
272
     3
273
     2
274
     2
340
7DE1B343D9DF785
275
     0
280
     0
281
     0
282
     0
283
     1
284
     4
285
     0
286
     0
287
     3
288
     0
  0
ENDTAB
  0
TABLE
  2
BLOCK_RECORD
  5
7DE1B343D9DF75A
330
0
100
AcDbSymbolTable
 70
     0
  0
BLOCK_RECORD
  5
7DE1B343D9DF771
102
{ACAD_XDICTIONARY
360
7DE1B343D9DF7B8
102
}
330
7DE1B343D9DF75A
100
AcDbSymbolTableRecord
100
AcDbBlockTableRecord
  2
*MODEL_SPACE
  0
BLOCK_RECORD
  5
7DE1B343D9DF76E
102
{ACAD_XDICTIONARY
360
7DE1B343D9DF7B6
102
}
330
7DE1B343D9DF75A
100
AcDbSymbolTableRecord
100
AcDbBlockTableRecord
  2
*PAPER_SPACE
  0
ENDTAB
  0
ENDSEC
  0
SECTION
  2
BLOCKS
  0
BLOCK
  5
7DE1B343D9DF77B
330
7DE1B343D9DF771
100
AcDbEntity
  8
0
100
AcDbBlockBegin
  2
*MODEL_SPACE
 70
     0
 10
0.0
 20
0.0
 30
0.0
  3
*MODEL_SPACE
  1

  0
ENDBLK
  5
7DE1B343D9DF77C
330
7DE1B343D9DF771
100
AcDbEntity
  8
0
100
AcDbBlockEnd
  0
BLOCK
  5
7DE1B343D9DF779
330
7DE1B343D9DF76E
100
AcDbEntity
 67
     1
  8
0
100
AcDbBlockBegin
  2
*PAPER_SPACE
 70
     0
 10
0.0
 20
0.0
 30
0.0
  3
*PAPER_SPACE
  1

  0
ENDBLK
  5
7DE1B343D9DF77A
330
7DE1B343D9DF76E
100
AcDbEntity
 67
     1
  8
0
100
AcDbBlockEnd
  0
ENDSEC
  0
SECTION
  2
ENTITIES
  0
CIRCLE
  5
7DE1B343D9DE399
330
7DE1B343D9DF771
100
AcDbEntity
  8
0
100
AcDbCircle
 10
3.324095220213976
 20
3.313416138274103
 30
0.0
 40
0.4565
  0
CIRCLE
  5
7DE1B343D9DE398
330
7DE1B343D9DF771
100
AcDbEntity
  8
0
100
AcDbCircle
 10
3.324095220213976
 20
3.313416138274103
 30
0.0
 40
0.4065
  0
TEXT
  5
7DE1B343D9DF61C
330
7DE1B343D9DF771
100
AcDbEntity
  8
TEXT
100
AcDbText
 10
2.571119029737785
 20
2.552722701009251
 30
0.0
 40
0.125
  1
PART #110348
  7
ITALICC
 72
     1
 11
3.324095220213976
 21
2.552722701009251
 31
0.0
100
AcDbText
  0
TEXT
  5
7DE1B343D9DF61D
330
7DE1B343D9DF771
100
AcDbEntity
  8
TEXT
100
AcDbText
 10
3.737400378464296
 20
2.105800058336876
 30
0.0
 40
0.0522247191011236
  1
Phone  1-800-328-2495
 41
1.27232142857143
 72
     5
 11
5.066332962733961
 21
2.105800058336876
 31
0.0
100
AcDbText
  0
TEXT
  5
7DE1B343D9DF61E
330
7DE1B343D9DF771
100
AcDbEntity
  8
TEXT
100
AcDbText
 10
3.737400378464296
 20
2.385575339235752
 30
0.0
 40
0.0522247191011236
  1
Stylmark  Incorporated
 41
1.221428571428573
 72
     5
 11
5.066332962733961
 21
2.385575339235752
 31
0.0
100
AcDbText
  0
TEXT
  5
7DE1B343D9DF61F
330
7DE1B343D9DF771
100
AcDbEntity
  8
TEXT
100
AcDbText
 10
3.737400378464296
 20
2.29231691226946
 30
0.0
 40
0.0522247191011236
  1
6536 Main St. N.E. * P.O. Box 32008
 41
0.8388932496075367
 72
     5
 11
5.066332962733961
 21
2.29231691226946
 31
0.0
100
AcDbText
  0
TEXT
  5
7DE1B343D9DF620
330
7DE1B343D9DF771
100
AcDbEntity
  8
TEXT
100
AcDbText
 10
3.737400378464296
 20
2.199058485303168
 30
0.0
 40
0.0522247191011236
  1
Minneapolis, MN 55432-0008
 41
1.11444212721585
 72
     5
 11
5.066332962733961
 21
2.199058485303168
 31
0.0
100
AcDbText
  0
LWPOLYLINE
  5
7DE1B343D9DF621
330
7DE1B343D9DF771
100
AcDbEntity
  8
TEXT
100
AcDbPolyline
 90
        3
 70
     0
 43
0.0006660908203125
 10
1.581446686396989
 20
2.21944482097431
 10
1.581446686396989
 20
2.106209381521183
 10
1.694682125850111
 20
2.106209381521183
  0
LWPOLYLINE
  5
7DE1B343D9DF626
330
7DE1B343D9DF771
100
AcDbEntity
  8
TEXT
100
AcDbPolyline
 90
        3
 70
     0
 43
0.0006660908203125
 10
1.608090319209486
 20
2.21944482097431
 10
1.608090319209486
 20
2.132853014333684
 10
1.694682125850111
 20
2.132853014333684
  0
LWPOLYLINE
  5
7DE1B343D9DF62B
330
7DE1B343D9DF771
100
AcDbEntity
  8
TEXT
100
AcDbPolyline
 90
        2
 70
     0
 43
0.0001332181640625
 10
1.654716676631363
 20
2.229436183278996
 10
1.581446686396989
 20
2.21944482097431
  0
LWPOLYLINE
  5
7DE1B343D9DF62F
330
7DE1B343D9DF771
100
AcDbEntity
  8
TEXT
100
AcDbPolyline
 90
        2
 70
     0
 43
0.0001332181640625
 10
1.608090319209486
 20
2.21944482097431
 10
1.668038493037613
 20
2.229436183278996
  0
LWPOLYLINE
  5
7DE1B343D9DF633
330
7DE1B343D9DF771
100
AcDbEntity
  8
TEXT
100
AcDbPolyline
 90
        2
 70
     0
 43
0.0001332181640625
 10
1.608090319209486
 20
2.132853014333684
 10
1.668038493037613
 20
2.192801188161809
  0
LWPOLYLINE
  5
7DE1B343D9DF637
330
7DE1B343D9DF771
100
AcDbEntity
  8
TEXT
100
AcDbPolyline
 90
        3
 70
     0
 43
0.0006660908203125
 10
1.694682125850111
 20
2.372645709646186
 10
1.581446686396989
 20
2.372645709646186
 10
1.581446686396989
 20
2.259410270193058
  0
LWPOLYLINE
  5
7DE1B343D9DF63C
330
7DE1B343D9DF771
100
AcDbEntity
  8
TEXT
100
AcDbPolyline
 90
        3
 70
     0
 43
0.0006660908203125
 10
1.694682125850111
 20
2.346002076833685
 10
1.608090319209486
 20
2.346002076833685
 10
1.608090319209486
 20
2.259410270193058
  0
LWPOLYLINE
  5
7DE1B343D9DF641
330
7DE1B343D9DF771
100
AcDbEntity
  8
TEXT
100
AcDbPolyline
 90
        2
 70
     0
 43
0.0001332181640625
 10
1.608090319209486
 20
2.346002076833685
 10
1.668038493037612
 20
2.286053903005559
  0
LWPOLYLINE
  5
7DE1B343D9DF645
330
7DE1B343D9DF771
100
AcDbEntity
  8
TEXT
100
AcDbPolyline
 90
        2
 70
     0
 43
0.0001332181640625
 10
1.608090319209486
 20
2.259410270193058
 10
1.668038493037612
 20
2.24941890788837
  0
LWPOLYLINE
  5
7DE1B343D9DF649
330
7DE1B343D9DF771
100
AcDbEntity
  8
TEXT
100
AcDbPolyline
 90
        2
 70
     0
 43
0.0001332181640625
 10
1.581446686396989
 20
2.259410270193058
 10
1.654716676631363
 20
2.24941890788837
  0
LWPOLYLINE
  5
7DE1B343D9DF64D
330
7DE1B343D9DF771
100
AcDbEntity
  8
TEXT
100
AcDbPolyline
 90
        2
 70
     0
 43
0.0006660908203125
 10
1.608090319209486
 20
2.21944482097431
 10
1.581446686396989
 20
2.21944482097431
  0
LWPOLYLINE
  5
7DE1B343D9DF651
330
7DE1B343D9DF771
100
AcDbEntity
  8
TEXT
100
AcDbPolyline
 90
        2
 70
     0
 43
0.0006660908203125
 10
1.608090319209486
 20
2.259410270193058
 10
1.581446686396989
 20
2.259410270193058
  0
LINE
  5
7DE1B343D9DF655
330
7DE1B343D9DF771
100
AcDbEntity
  8
TEXT
100
AcDbLine
 10
3.096637115523486
 20
2.308369014989417
 30
0.0
 11
2.989430842136197
 21
2.308369014989417
 31
0.0
  0
LINE
  5
7DE1B343D9DF656
330
7DE1B343D9DF771
100
AcDbEntity
  8
TEXT
100
AcDbLine
 10
3.125668013867965
 20
2.372645709646183
 30
0.0
 11
2.990836104650906
 21
2.372645709646183
 31
0.0
  0
ARC
  5
7DE1B343D9DF657
330
7DE1B343D9DF771
100
AcDbEntity
  8
TEXT
100
AcDbCircle
 10
3.050150201044222
 20
2.203408460383166
 30
0.0
 40
0.0676855811441166
100
AcDbArc
 50
90.0
 51
153.7768192527749
  0
LWPOLYLINE
  5
7DE1B343D9DF658
330
7DE1B343D9DF771
100
AcDbEntity
  8
TEXT
100
AcDbPolyline
 90
        2
 70
     0
 43
0.0
 10
2.988398346681387
 20
2.14966362160811
 42
0.2901071551932823
 10
3.031474279549022
 20
2.106172676657672
 42
5.328517124445801
  0
ARC
  5
7DE1B343D9DF65C
330
7DE1B343D9DF771
100
AcDbEntity
  8
TEXT
100
AcDbCircle
 10
2.345018823372737
 20
2.165965067995721
 30
0.0
 40
0.0601160179737537
100
AcDbArc
 50
180.0000000000003
 51
264.0521544866073
  0
LINE
  5
7DE1B343D9DF65D
330
7DE1B343D9DF771
100
AcDbEntity
  8
TEXT
100
AcDbLine
 10
2.348534178998284
 20
2.407033627240321
 30
0.0
 11
2.288491574154277
 21
2.407033627240321
 31
0.0
  0
ARC
  5
7DE1B343D9DF65E
330
7DE1B343D9DF771
100
AcDbEntity
  8
TEXT
100
AcDbCircle
 10
2.112759821255766
 20
2.290558250199681
 30
0.0
 40
0.0820874594465043
100
AcDbArc
 50
90.0
 51
270.0
  0
LWPOLYLINE
  5
7DE1B343D9DF65F
330
7DE1B343D9DF771
100
AcDbEntity
  8
TEXT
100
AcDbPolyline
 90
        2
 70
     0
 43
0.0001332181640625
 10
1.704673488154802
 20
2.299375719411806
 10
1.694682125850111
 20
2.372645709646186
  0
LWPOLYLINE
  5
7DE1B343D9DF663
330
7DE1B343D9DF771
100
AcDbEntity
  8
TEXT
100
AcDbPolyline
 90
        2
 70
     0
 43
0.0001332181640625
 10
1.694682125850111
 20
2.346002076833685
 10
1.704673488154802
 20
2.286053903005559
  0
LWPOLYLINE
  5
7DE1B343D9DF667
330
7DE1B343D9DF771
100
AcDbEntity
  8
TEXT
100
AcDbPolyline
 90
        3
 70
     0
 43
0.0006660908203125
 10
1.847883014521988
 20
2.259410270193058
 10
1.847883014521988
 20
2.372645709646186
 10
1.734647575068863
 20
2.372645709646186
  0
LWPOLYLINE
  5
7DE1B343D9DF66C
330
7DE1B343D9DF771
100
AcDbEntity
  8
TEXT
100
AcDbPolyline
 90
        3
 70
     0
 43
0.0006660908203125
 10
1.821239381709487
 20
2.259410270193058
 10
1.821239381709487
 20
2.346002076833685
 10
1.734647575068863
 20
2.346002076833685
  0
LWPOLYLINE
  5
7DE1B343D9DF671
330
7DE1B343D9DF771
100
AcDbEntity
  8
TEXT
100
AcDbPolyline
 90
        2
 70
     0
 43
0.0001332181640625
 10
1.821239381709487
 20
2.346002076833685
 10
1.761291207881364
 20
2.286053903005559
  0
LWPOLYLINE
  5
7DE1B343D9DF675
330
7DE1B343D9DF771
100
AcDbEntity
  8
TEXT
100
AcDbPolyline
 90
        2
 70
     0
 43
0.0001332181640625
 10
1.734647575068863
 20
2.346002076833685
 10
1.724656212764174
 20
2.286053903005559
  0
LWPOLYLINE
  5
7DE1B343D9DF679
330
7DE1B343D9DF771
100
AcDbEntity
  8
TEXT
100
AcDbPolyline
 90
        2
 70
     0
 43
0.0001332181640625
 10
1.734647575068863
 20
2.372645709646186
 10
1.724656212764174
 20
2.299375719411806
  0
LWPOLYLINE
  5
7DE1B343D9DF67D
330
7DE1B343D9DF771
100
AcDbEntity
  8
TEXT
100
AcDbPolyline
 90
        2
 70
     0
 43
0.0001332181640625
 10
1.774613024287612
 20
2.24941890788837
 10
1.847883014521988
 20
2.259410270193058
  0
LWPOLYLINE
  5
7DE1B343D9DF681
330
7DE1B343D9DF771
100
AcDbEntity
  8
TEXT
100
AcDbPolyline
 90
        2
 70
     0
 43
0.0001332181640625
 10
1.821239381709487
 20
2.259410270193058
 10
1.761291207881364
 20
2.24941890788837
  0
LWPOLYLINE
  5
7DE1B343D9DF685
330
7DE1B343D9DF771
100
AcDbEntity
  8
TEXT
100
AcDbPolyline
 90
        2
 70
     0
 43
0.0001332181640625
 10
1.847883014521988
 20
2.21944482097431
 10
1.774613024287612
 20
2.229436183278996
  0
LWPOLYLINE
  5
7DE1B343D9DF689
330
7DE1B343D9DF771
100
AcDbEntity
  8
TEXT
100
AcDbPolyline
 90
        2
 70
     0
 43
0.0001332181640625
 10
1.821239381709487
 20
2.21944482097431
 10
1.761291207881364
 20
2.229436183278996
  0
LWPOLYLINE
  5
7DE1B343D9DF68D
330
7DE1B343D9DF771
100
AcDbEntity
  8
TEXT
100
AcDbPolyline
 90
        2
 70
     0
 43
0.0001332181640625
 10
1.821239381709487
 20
2.132853014333684
 10
1.761291207881364
 20
2.192801188161809
  0
LWPOLYLINE
  5
7DE1B343D9DF691
330
7DE1B343D9DF771
100
AcDbEntity
  8
TEXT
100
AcDbPolyline
 90
        3
 70
     0
 43
0.0006660908203125
 10
1.734647575068863
 20
2.132853014333684
 10
1.821239381709487
 20
2.132853014333684
 10
1.821239381709487
 20
2.21944482097431
  0
LWPOLYLINE
  5
7DE1B343D9DF696
330
7DE1B343D9DF771
100
AcDbEntity
  8
TEXT
100
AcDbPolyline
 90
        3
 70
     0
 43
0.0006660908203125
 10
1.734647575068863
 20
2.106209381521183
 10
1.847883014521988
 20
2.106209381521183
 10
1.847883014521988
 20
2.21944482097431
  0
LWPOLYLINE
  5
7DE1B343D9DF69B
330
7DE1B343D9DF771
100
AcDbEntity
  8
TEXT
100
AcDbPolyline
 90
        5
 70
     0
 43
0.0001332181640625
 10
1.704673488154802
 20
2.179479371755559
 10
1.704673488154802
 20
2.192801188161809
 10
1.668038493037613
 20
2.192801188161809
 10
1.668038493037613
 20
2.229436183278996
 10
1.654716676631363
 20
2.229436183278996
  0
LWPOLYLINE
  5
7DE1B343D9DF6A2
330
7DE1B343D9DF771
100
AcDbEntity
  8
TEXT
100
AcDbPolyline
 90
        2
 70
     0
 43
0.0006660908203125
 10
1.694682125850111
 20
2.132853014333684
 10
1.694682125850111
 20
2.106209381521183
  0
LWPOLYLINE
  5
7DE1B343D9DF6A6
330
7DE1B343D9DF771
100
AcDbEntity
  8
TEXT
100
AcDbPolyline
 90
        2
 70
     0
 43
0.0001332181640625
 10
1.694682125850111
 20
2.132853014333684
 10
1.704673488154802
 20
2.192801188161809
  0
LWPOLYLINE
  5
7DE1B343D9DF6AA
330
7DE1B343D9DF771
100
AcDbEntity
  8
TEXT
100
AcDbPolyline
 90
        2
 70
     0
 43
0.0001332181640625
 10
1.694682125850111
 20
2.106209381521183
 10
1.704673488154802
 20
2.179479371755559
  0
LWPOLYLINE
  5
7DE1B343D9DF6AE
330
7DE1B343D9DF771
100
AcDbEntity
  8
TEXT
100
AcDbPolyline
 90
        5
 70
     0
 43
0.0001332181640625
 10
1.654716676631363
 20
2.24941890788837
 10
1.668038493037612
 20
2.24941890788837
 10
1.668038493037612
 20
2.286053903005559
 10
1.704673488154802
 20
2.286053903005559
 10
1.704673488154802
 20
2.299375719411806
  0
LWPOLYLINE
  5
7DE1B343D9DF6B5
330
7DE1B343D9DF771
100
AcDbEntity
  8
TEXT
100
AcDbPolyline
 90
        5
 70
     0
 43
0.0001332181640625
 10
1.724656212764174
 20
2.299375719411806
 10
1.724656212764174
 20
2.286053903005559
 10
1.761291207881364
 20
2.286053903005559
 10
1.761291207881364
 20
2.24941890788837
 10
1.774613024287612
 20
2.24941890788837
  0
LWPOLYLINE
  5
7DE1B343D9DF6BC
330
7DE1B343D9DF771
100
AcDbEntity
  8
TEXT
100
AcDbPolyline
 90
        2
 70
     0
 43
0.0001332181640625
 10
1.734647575068863
 20
2.132853014333684
 10
1.724656212764174
 20
2.192801188161809
  0
LWPOLYLINE
  5
7DE1B343D9DF6C0
330
7DE1B343D9DF771
100
AcDbEntity
  8
TEXT
100
AcDbPolyline
 90
        2
 70
     0
 43
0.0001332181640625
 10
1.724656212764174
 20
2.179479371755559
 10
1.734647575068863
 20
2.106209381521183
  0
LWPOLYLINE
  5
7DE1B343D9DF6C4
330
7DE1B343D9DF771
100
AcDbEntity
  8
TEXT
100
AcDbPolyline
 90
        2
 70
     0
 43
0.0006660908203125
 10
1.734647575068863
 20
2.132853014333684
 10
1.734647575068863
 20
2.106209381521183
  0
LWPOLYLINE
  5
7DE1B343D9DF6C8
330
7DE1B343D9DF771
100
AcDbEntity
  8
TEXT
100
AcDbPolyline
 90
        5
 70
     0
 43
0.0001332181640625
 10
1.774613024287612
 20
2.229436183278996
 10
1.761291207881364
 20
2.229436183278996
 10
1.761291207881364
 20
2.192801188161809
 10
1.724656212764174
 20
2.192801188161809
 10
1.724656212764174
 20
2.179479371755559
  0
LWPOLYLINE
  5
7DE1B343D9DF6CF
330
7DE1B343D9DF771
100
AcDbEntity
  8
TEXT
100
AcDbPolyline
 90
        2
 70
     0
 43
0.0006660908203125
 10
1.821239381709487
 20
2.259410270193058
 10
1.847883014521988
 20
2.259410270193058
  0
LWPOLYLINE
  5
7DE1B343D9DF6D3
330
7DE1B343D9DF771
100
AcDbEntity
  8
TEXT
100
AcDbPolyline
 90
        2
 70
     0
 43
0.0006660908203125
 10
1.821239381709487
 20
2.21944482097431
 10
1.847883014521988
 20
2.21944482097431
  0
LINE
  5
7DE1B343D9DF6D7
330
7DE1B343D9DF771
100
AcDbEntity
  8
TEXT
100
AcDbLine
 10
2.117997151370013
 20
2.308369014989417
 30
0.0
 11
2.284902805398985
 21
2.308369014989417
 31
0.0
  0
LINE
  5
7DE1B343D9DF6D8
330
7DE1B343D9DF771
100
AcDbEntity
  8
TEXT
100
AcDbLine
 10
2.183597287614314
 20
2.272564293378789
 30
0.0
 11
2.117997151370013
 21
2.272564293378789
 31
0.0
  0
LINE
  5
7DE1B343D9DF6D9
330
7DE1B343D9DF771
100
AcDbEntity
  8
TEXT
100
AcDbLine
 10
2.030672361809262
 20
2.106172676657672
 30
0.0
 11
2.183597287614314
 21
2.106172676657672
 31
0.0
  0
LINE
  5
7DE1B343D9DF6DA
330
7DE1B343D9DF771
100
AcDbEntity
  8
TEXT
100
AcDbLine
 10
2.188537661520594
 20
2.174529682991111
 30
0.0
 11
2.03067236180926
 21
2.174529682991111
 31
0.0
  0
LINE
  5
7DE1B343D9DF6DB
330
7DE1B343D9DF771
100
AcDbEntity
  8
TEXT
100
AcDbLine
 10
2.112759821255765
 20
2.208470790753175
 30
0.0
 11
2.188537661520594
 21
2.208470790753175
 31
0.0
  0
ARC
  5
7DE1B343D9DF6DC
330
7DE1B343D9DF771
100
AcDbEntity
  8
TEXT
100
AcDbCircle
 10
2.117997151370014
 20
2.290466654184105
 30
0.0
 40
0.017902360805315
100
AcDbArc
 50
90.0
 51
270.0
  0
LINE
  5
7DE1B343D9DF6DD
330
7DE1B343D9DF771
100
AcDbEntity
  8
TEXT
100
AcDbLine
 10
2.03067236180926
 20
2.174529682991111
 30
0.0
 11
2.030672361809262
 21
2.106172676657672
 31
0.0
  0
LINE
  5
7DE1B343D9DF6DE
330
7DE1B343D9DF771
100
AcDbEntity
  8
TEXT
100
AcDbLine
 10
2.284902805398985
 20
2.308369014989417
 30
0.0
 11
2.284902805398985
 21
2.165965067995721
 31
0.0
  0
ARC
  5
7DE1B343D9DF6DF
330
7DE1B343D9DF771
100
AcDbEntity
  8
TEXT
100
AcDbCircle
 10
2.183597287614315
 20
2.189368485018229
 30
0.0
 40
0.0831958083605586
100
AcDbArc
 50
270.0
 51
90.0
  0
ARC
  5
7DE1B343D9DF6E0
330
7DE1B343D9DF771
100
AcDbEntity
  8
TEXT
100
AcDbCircle
 10
2.188537661520595
 20
2.191500236872145
 30
0.0
 40
0.0169705538810321
100
AcDbArc
 50
270.0
 51
90.0
  0
LWPOLYLINE
  5
7DE1B343D9DF6E1
330
7DE1B343D9DF771
100
AcDbEntity
  8
TEXT
100
AcDbPolyline
 90
        2
 70
     0
 43
0.0006660908203125
 10
1.694682125850111
 20
2.346002076833685
 10
1.694682125850111
 20
2.372645709646186
  0
LWPOLYLINE
  5
7DE1B343D9DF6E5
330
7DE1B343D9DF771
100
AcDbEntity
  8
TEXT
100
AcDbPolyline
 90
        2
 70
     0
 43
0.0006660908203125
 10
1.734647575068863
 20
2.346002076833685
 10
1.734647575068863
 20
2.372645709646186
  0
LINE
  5
7DE1B343D9DF6E9
330
7DE1B343D9DF771
100
AcDbEntity
  8
TEXT
100
AcDbLine
 10
2.288491574154277
 20
2.372645709646183
 30
0.0
 11
2.112759821255765
 21
2.372645709646183
 31
0.0
  0
LINE
  5
7DE1B343D9DF6EA
330
7DE1B343D9DF771
100
AcDbEntity
  8
TEXT
100
AcDbLine
 10
2.288491574154277
 20
2.407033627240321
 30
0.0
 11
2.288491574154277
 21
2.372645709646183
 31
0.0
  0
LINE
  5
7DE1B343D9DF6EB
330
7DE1B343D9DF771
100
AcDbEntity
  8
TEXT
100
AcDbLine
 10
2.47896346617413
 20
2.271773713533062
 30
0.0
 11
2.420333145142192
 21
2.372645709646183
 31
0.0
  0
LINE
  5
7DE1B343D9DF6EC
330
7DE1B343D9DF771
100
AcDbEntity
  8
TEXT
100
AcDbLine
 10
2.537712028979995
 20
2.372645709646183
 30
0.0
 11
2.47896346617413
 21
2.271773713533062
 31
0.0
  0
LINE
  5
7DE1B343D9DF6ED
330
7DE1B343D9DF771
100
AcDbEntity
  8
TEXT
100
AcDbLine
 10
2.634642654339736
 20
2.188560514760671
 30
0.0
 11
2.634642654339736
 21
2.440657187384993
 31
0.0
  0
LINE
  5
7DE1B343D9DF6EE
330
7DE1B343D9DF771
100
AcDbEntity
  8
TEXT
100
AcDbLine
 10
2.666954508477397
 20
2.372645709646183
 30
0.0
 11
2.666954508477397
 21
2.171781502913774
 31
0.0
  0
LINE
  5
7DE1B343D9DF6EF
330
7DE1B343D9DF771
100
AcDbEntity
  8
TEXT
100
AcDbLine
 10
2.666954508477397
 20
2.171781502913774
 30
0.0
 11
2.649960871592795
 21
2.171781502913774
 31
0.0
  0
LINE
  5
7DE1B343D9DF6F0
330
7DE1B343D9DF771
100
AcDbEntity
  8
TEXT
100
AcDbLine
 10
2.635782227835931
 20
2.106172676657672
 30
0.0
 11
2.733785561535366
 21
2.106172676657672
 31
0.0
  0
LINE
  5
7DE1B343D9DF6F1
330
7DE1B343D9DF771
100
AcDbEntity
  8
TEXT
100
AcDbLine
 10
2.469363229177175
 20
2.126131182762684
 30
0.0
 11
2.56666293527062
 21
2.290481393697953
 31
0.0
  0
ARC
  5
7DE1B343D9DF6F2
330
7DE1B343D9DF771
100
AcDbEntity
  8
TEXT
100
AcDbCircle
 10
2.435319669264961
 20
2.145720398931367
 30
0.0
 40
0.0392772371940762
100
AcDbArc
 50
270.1604552698595
 51
330.0831797321295
  0
LINE
  5
7DE1B343D9DF6F3
330
7DE1B343D9DF771
100
AcDbEntity
  8
TEXT
100
AcDbLine
 10
2.33878941287909
 20
2.106172676657672
 30
0.0
 11
2.435429663954085
 21
2.106443315755954
 31
0.0
  0
LWPOLYLINE
  5
7DE1B343D9DF6F4
330
7DE1B343D9DF771
100
AcDbEntity
  8
TEXT
100
AcDbPolyline
 90
        6
 70
     1
 43
0.0
 10
2.38131321645424
 20
2.308369014989417
 10
2.350996622234032
 20
2.308369014989417
 10
2.350996622234032
 20
2.185258016934523
 42
0.407328721240804
 10
2.362540273395508
 20
2.173439102258137
 10
2.423161972440239
 20
2.173439102258137
 10
2.440627312847557
 20
2.206251331301616
  0
LINE
  5
7DE1B343D9DF6FC
330
7DE1B343D9DF771
100
AcDbEntity
  8
TEXT
100
AcDbLine
 10
2.56666293527062
 20
2.290481393697953
 30
0.0
 11
2.56666293527062
 21
2.157724018872596
 31
0.0
  0
ARC
  5
7DE1B343D9DF6FD
330
7DE1B343D9DF771
100
AcDbEntity
  8
TEXT
100
AcDbCircle
 10
2.649960871592794
 20
2.1871633091572
 30
0.0
 40
0.0153818062434269
100
AcDbArc
 50
174.7883570302258
 51
270.0
  0
LWPOLYLINE
  5
7DE1B343D9DF6FE
330
7DE1B343D9DF771
100
AcDbEntity
  8
TEXT
100
AcDbPolyline
 90
        2
 70
     0
 43
0.0
 10
2.566662935270618
 20
2.1577240188726
 42
0.3318488747599744
 10
2.635782227835931
 20
2.106172676657672
 42
-6.868794160588311
  0
LINE
  5
7DE1B343D9DF702
330
7DE1B343D9DF771
100
AcDbEntity
  8
TEXT
100
AcDbLine
 10
2.791174630524627
 20
2.106172676657672
 30
0.0
 11
2.858232677306467
 21
2.106172676657672
 31
0.0
  0
LINE
  5
7DE1B343D9DF703
330
7DE1B343D9DF771
100
AcDbEntity
  8
TEXT
100
AcDbLine
 10
2.791174630524627
 20
2.300815225823307
 30
0.0
 11
2.791174630524627
 21
2.106172676657672
 31
0.0
  0
LINE
  5
7DE1B343D9DF704
330
7DE1B343D9DF771
100
AcDbEntity
  8
TEXT
100
AcDbLine
 10
2.733785561535366
 20
2.308369014989417
 30
0.0
 11
2.783620841358513
 21
2.308369014989417
 31
0.0
  0
LINE
  5
7DE1B343D9DF705
330
7DE1B343D9DF771
100
AcDbEntity
  8
TEXT
100
AcDbLine
 10
2.733785561535366
 20
2.106172676657672
 30
0.0
 11
2.733785561535366
 21
2.308369014989417
 31
0.0
  0
LWPOLYLINE
  5
7DE1B343D9DF706
330
7DE1B343D9DF771
100
AcDbEntity
  8
TEXT
100
AcDbPolyline
 90
        2
 70
     0
 43
0.0
 10
2.783620841358512
 20
2.308369014989417
 42
-0.4142135623731017
 10
2.791174630524625
 20
2.300815225823307
 42
-0.9999999999999998
  0
LINE
  5
7DE1B343D9DF70A
330
7DE1B343D9DF771
100
AcDbEntity
  8
TEXT
100
AcDbLine
 10
2.989430842136197
 20
2.308369014989417
 30
0.0
 11
2.989430842136197
 21
2.23331660891521
 31
0.0
  0
LINE
  5
7DE1B343D9DF70B
330
7DE1B343D9DF771
100
AcDbEntity
  8
TEXT
100
AcDbLine
 10
2.858232677306467
 20
2.308369014989417
 30
0.0
 11
2.912366274227417
 21
2.308369014989417
 31
0.0
  0
LINE
  5
7DE1B343D9DF70C
330
7DE1B343D9DF771
100
AcDbEntity
  8
TEXT
100
AcDbLine
 10
2.858232677306467
 20
2.106172676657672
 30
0.0
 11
2.858232677306467
 21
2.308369014989417
 31
0.0
  0
LWPOLYLINE
  5
7DE1B343D9DF70D
330
7DE1B343D9DF771
100
AcDbEntity
  8
TEXT
100
AcDbPolyline
 90
        2
 70
     0
 43
0.0
 10
2.912366274227415
 20
2.308369014989417
 42
-0.4142135623731017
 10
2.919920063393529
 20
2.300815225823307
 42
-0.9999999999999998
  0
LWPOLYLINE
  5
7DE1B343D9DF711
330
7DE1B343D9DF771
100
AcDbEntity
  8
TEXT
100
AcDbPolyline
 90
        4
 70
     0
 43
0.0
 10
2.919920063393529
 20
2.300815225823307
 10
2.919920063393529
 20
2.106172676657672
 10
2.988398346681387
 20
2.106172676657672
 10
2.988398346681387
 20
2.14966362160811
 42
-1.714843617202739
  0
LINE
  5
7DE1B343D9DF717
330
7DE1B343D9DF771
100
AcDbEntity
  8
TEXT
100
AcDbLine
 10
2.348534178998284
 20
2.372645709646183
 30
0.0
 11
2.348534178998284
 21
2.407033627240321
 31
0.0
  0
LINE
  5
7DE1B343D9DF718
330
7DE1B343D9DF771
100
AcDbEntity
  8
TEXT
100
AcDbLine
 10
2.420333145142192
 20
2.372645709646183
 30
0.0
 11
2.348534178998284
 21
2.372645709646183
 31
0.0
  0
LINE
  5
7DE1B343D9DF719
330
7DE1B343D9DF771
100
AcDbEntity
  8
TEXT
100
AcDbLine
 10
2.567833941773371
 20
2.372645709646183
 30
0.0
 11
2.537712028979995
 21
2.372645709646183
 31
0.0
  0
LINE
  5
7DE1B343D9DF71A
330
7DE1B343D9DF771
100
AcDbEntity
  8
TEXT
100
AcDbLine
 10
2.567833941773371
 20
2.440657187384993
 30
0.0
 11
2.567833941773371
 21
2.372645709646183
 31
0.0
  0
LINE
  5
7DE1B343D9DF71B
330
7DE1B343D9DF771
100
AcDbEntity
  8
TEXT
100
AcDbLine
 10
2.634642654339736
 20
2.440657187384993
 30
0.0
 11
2.567833941773371
 21
2.440657187384993
 31
0.0
  0
LWPOLYLINE
  5
7DE1B343D9DF71C
330
7DE1B343D9DF771
100
AcDbEntity
  8
TEXT
100
AcDbPolyline
 90
        3
 70
     0
 43
0.0
 10
2.955054413937739
 20
2.372645709646186
 10
2.836754255121694
 20
2.372645709646186
 10
2.836754255121694
 20
2.34547821288529
 42
-1.960274751411753
  0
LINE
  5
7DE1B343D9DF721
330
7DE1B343D9DF771
100
AcDbEntity
  8
TEXT
100
AcDbLine
 10
2.800972564408533
 20
2.372645709646183
 30
0.0
 11
2.666954508477397
 21
2.372645709646183
 31
0.0
  0
LWPOLYLINE
  5
7DE1B343D9DF722
330
7DE1B343D9DF771
100
AcDbEntity
  8
TEXT
100
AcDbPolyline
 90
        2
 70
     0
 43
0.0
 10
2.800972564408533
 20
2.372645709646186
 42
-0.3328679258950098
 10
2.836754255121694
 20
2.34547821288529
 42
6.772930709997214
  0
LINE
  5
7DE1B343D9DF726
330
7DE1B343D9DF771
100
AcDbEntity
  8
TEXT
100
AcDbLine
 10
2.990836104650906
 20
2.372645709646183
 30
0.0
 11
2.990836104650906
 21
2.344323163876539
 31
0.0
  0
LWPOLYLINE
  5
7DE1B343D9DF727
330
7DE1B343D9DF771
100
AcDbEntity
  8
TEXT
100
AcDbPolyline
 90
        2
 70
     0
 43
0.0
 10
2.955054413937739
 20
2.372645709646186
 42
-0.3277054968067132
 10
2.990836104650904
 20
2.344323163876542
 42
6.667889725900311
  0
LINE
  5
7DE1B343D9DF72B
330
7DE1B343D9DF771
100
AcDbEntity
  8
TEXT
100
AcDbLine
 10
3.204627952743006
 20
2.267433731092755
 30
0.0
 11
3.160877181561104
 21
2.3496840070889
 31
0.0
  0
LINE
  5
7DE1B343D9DF72C
330
7DE1B343D9DF771
100
AcDbEntity
  8
TEXT
100
AcDbLine
 10
3.204627952743006
 20
2.372645709646183
 30
0.0
 11
3.204627952743006
 21
2.267433731092755
 31
0.0
  0
LINE
  5
7DE1B343D9DF72D
330
7DE1B343D9DF771
100
AcDbEntity
  8
TEXT
100
AcDbLine
 10
3.432311691681375
 20
2.296780383234644
 30
0.0
 11
3.432311691681375
 21
2.438109915413783
 31
0.0
  0
LINE
  5
7DE1B343D9DF72E
330
7DE1B343D9DF771
100
AcDbEntity
  8
TEXT
100
AcDbLine
 10
3.479409850237359
 20
2.372645709646183
 30
0.0
 11
3.432311691681375
 21
2.296780383234644
 31
0.0
  0
LINE
  5
7DE1B343D9DF72F
330
7DE1B343D9DF771
100
AcDbEntity
  8
TEXT
100
AcDbLine
 10
3.489844567001282
 20
2.262752466705209
 30
0.0
 11
3.554401682966987
 21
2.372645709646183
 31
0.0
  0
LINE
  5
7DE1B343D9DF730
330
7DE1B343D9DF771
100
AcDbEntity
  8
TEXT
100
AcDbLine
 10
3.368476700458602
 20
2.106172676657672
 30
0.0
 11
3.432854884777222
 21
2.106172676657672
 31
0.0
  0
LWPOLYLINE
  5
7DE1B343D9DF731
330
7DE1B343D9DF771
100
AcDbEntity
  8
TEXT
100
AcDbPolyline
 90
        2
 70
     0
 43
0.0
 10
3.208567630048043
 20
2.14966362160811
 42
-0.2901071551932486
 10
3.165491697180399
 20
2.106172676657672
 42
-5.328517124445184
  0
ARC
  5
7DE1B343D9DF735
330
7DE1B343D9DF771
100
AcDbEntity
  8
TEXT
100
AcDbCircle
 10
3.096637115523484
 20
2.28000963998942
 30
0.0
 40
0.028359375
100
AcDbArc
 50
25.78218179591245
 51
90.0
  0
LINE
  5
7DE1B343D9DF736
330
7DE1B343D9DF771
100
AcDbEntity
  8
TEXT
100
AcDbLine
 10
3.132438190827607
 20
2.271094041527285
 30
0.0
 11
3.122173430414043
 21
2.292344581099979
 31
0.0
  0
LINE
  5
7DE1B343D9DF737
330
7DE1B343D9DF771
100
AcDbEntity
  8
TEXT
100
AcDbLine
 10
3.050150201044224
 20
2.271094041527285
 30
0.0
 11
3.132438190827607
 21
2.271094041527285
 31
0.0
  0
LWPOLYLINE
  5
7DE1B343D9DF738
330
7DE1B343D9DF771
100
AcDbEntity
  8
TEXT
100
AcDbPolyline
 90
        4
 70
     1
 43
0.0
 10
3.145369232110506
 20
2.209136654641697
 10
3.056708913450648
 20
2.209136654641697
 42
0.9999999999999998
 10
3.056708913450648
 20
2.166738114137836
 10
3.145369232110506
 20
2.166738114137836
 42
1.0
  0
LWPOLYLINE
  5
7DE1B343D9DF73E
330
7DE1B343D9DF771
100
AcDbEntity
  8
TEXT
100
AcDbPolyline
 90
        2
 70
     0
 43
0.0
 10
3.031474279549022
 20
2.106172676657672
 10
3.165491697180399
 20
2.106172676657672
 42
0.9999999999999998
  0
LINE
  5
7DE1B343D9DF742
330
7DE1B343D9DF771
100
AcDbEntity
  8
TEXT
100
AcDbLine
 10
3.291828719166038
 20
2.308369014989417
 30
0.0
 11
3.368476700458596
 21
2.308369014989417
 31
0.0
  0
LINE
  5
7DE1B343D9DF743
330
7DE1B343D9DF771
100
AcDbEntity
  8
TEXT
100
AcDbLine
 10
3.368476700458596
 20
2.308369014989417
 30
0.0
 11
3.368476700458602
 21
2.106172676657672
 31
0.0
  0
ARC
  5
7DE1B343D9DF744
330
7DE1B343D9DF771
100
AcDbEntity
  8
TEXT
100
AcDbCircle
 10
3.291828719166037
 20
2.283463139706754
 30
0.0
 40
0.0249058752826653
100
AcDbArc
 50
89.99971217465335
 51
179.9999999999985
  0
LINE
  5
7DE1B343D9DF745
330
7DE1B343D9DF771
100
AcDbEntity
  8
TEXT
100
AcDbLine
 10
3.266922843883379
 20
2.106172676657672
 30
0.0
 11
3.266922843883374
 21
2.28346318208914
 31
0.0
  0
LWPOLYLINE
  5
7DE1B343D9DF746
330
7DE1B343D9DF771
100
AcDbEntity
  8
TEXT
100
AcDbPolyline
 90
        2
 70
     0
 43
0.0
 10
3.208567630048043
 20
2.106172676657672
 10
3.266922843883377
 20
2.106172676657672
  0
LWPOLYLINE
  5
7DE1B343D9DF74A
330
7DE1B343D9DF771
100
AcDbEntity
  8
TEXT
100
AcDbPolyline
 90
        2
 70
     0
 43
0.0
 10
3.208567630048043
 20
2.14966362160811
 10
3.208567630048043
 20
2.106172676657672
  0
LINE
  5
7DE1B343D9DF74E
330
7DE1B343D9DF771
100
AcDbEntity
  8
TEXT
100
AcDbLine
 10
3.585336790364892
 20
2.106172676657672
 30
0.0
 11
3.489844567001282
 21
2.262752466705209
 31
0.0
  0
LINE
  5
7DE1B343D9DF74F
330
7DE1B343D9DF771
100
AcDbEntity
  8
TEXT
100
AcDbLine
 10
3.508758417988687
 20
2.106172676657672
 30
0.0
 11
3.585336790364892
 21
2.106172676657672
 31
0.0
  0
LINE
  5
7DE1B343D9DF750
330
7DE1B343D9DF771
100
AcDbEntity
  8
TEXT
100
AcDbLine
 10
3.432854884777222
 20
2.237752245133852
 30
0.0
 11
3.508758417988687
 21
2.106172676657672
 31
0.0
  0
LINE
  5
7DE1B343D9DF751
330
7DE1B343D9DF771
100
AcDbEntity
  8
TEXT
100
AcDbLine
 10
3.432854884777222
 20
2.106172676657672
 30
0.0
 11
3.432854884777222
 21
2.237752245133852
 31
0.0
  0
LINE
  5
7DE1B343D9DF752
330
7DE1B343D9DF771
100
AcDbEntity
  8
TEXT
100
AcDbLine
 10
3.432311691681375
 20
2.438109915413783
 30
0.0
 11
3.363996813132101
 21
2.438109915413783
 31
0.0
  0
ARC
  5
7DE1B343D9DF753
330
7DE1B343D9DF771
100
AcDbEntity
  8
TEXT
100
AcDbCircle
 10
3.123641074090895
 20
2.33106214252528
 30
0.0
 40
0.0416329381542859
100
AcDbArc
 50
26.56974201007528
 51
87.20939649401342
  0
LINE
  5
7DE1B343D9DF754
330
7DE1B343D9DF771
100
AcDbEntity
  8
TEXT
100
AcDbLine
 10
3.268524859042507
 20
2.372645709646183
 30
0.0
 11
3.204627952743006
 21
2.372645709646183
 31
0.0
  0
LINE
  5
7DE1B343D9DF755
330
7DE1B343D9DF771
100
AcDbEntity
  8
TEXT
100
AcDbLine
 10
3.268524859042507
 20
2.345098059785308
 30
0.0
 11
3.268524859042507
 21
2.372645709646183
 31
0.0
  0
ARC
  5
7DE1B343D9DF756
330
7DE1B343D9DF771
100
AcDbEntity
  8
TEXT
100
AcDbCircle
 10
3.299717676105614
 20
2.341399982363918
 30
0.0
 40
0.0314112657011332
100
AcDbArc
 50
95.88484768694724
 51
173.2388340632136
  0
LINE
  5
7DE1B343D9DF757
330
7DE1B343D9DF771
100
AcDbEntity
  8
TEXT
100
AcDbLine
 10
3.363996813132096
 20
2.372645709646183
 30
0.0
 11
3.29649709548258
 21
2.372645709646183
 31
0.0
  0
LINE
  5
7DE1B343D9DF758
330
7DE1B343D9DF771
100
AcDbEntity
  8
TEXT
100
AcDbLine
 10
3.363996813132101
 20
2.438109915413783
 30
0.0
 11
3.363996813132096
 21
2.372645709646183
 31
0.0
  0
LINE
  5
7DE1B343D9DF759
330
7DE1B343D9DF771
100
AcDbEntity
  8
TEXT
100
AcDbLine
 10
3.554401682966987
 20
2.372645709646183
 30
0.0
 11
3.479409850237361
 21
2.372645709646183
 31
0.0
  0
ENDSEC
  0
SECTION
  2
OBJECTS
  0
DICTIONARY
  5
7DE1B343D9DF765
330
0
100
AcDbDictionary
  3
ACAD_GROUP
350
7DE1B343D9DF766
  3
ACAD_LAYOUT
350
7DE1B343D9DF78B
  3
ACAD_MLINESTYLE
350
7DE1B343D9DF767
  3
ACAD_PLOTSETTINGS
350
7DE1B343D9DF78C
  3
ACAD_PLOTSTYLENAME
350
7DE1B343D9DF789
  3
ACDBHEADERROUNDTRIPXREC
350
7DE1B343D9DF796
  3
ACDBVARIABLEDICTIONARY
350
7DE1B343D9DF793
  0
DICTIONARY
  5
7DE1B343D9DF7B8
330
7DE1B343D9DF771
100
AcDbDictionary
280
     1
  3
ACAD_LAYOUTSELFREF
360
7DE1B343D9DF7B9
  0
DICTIONARY
  5
7DE1B343D9DF7B6
330
7DE1B343D9DF76E
100
AcDbDictionary
280
     1
  3
ACAD_LAYOUTSELFREF
360
7DE1B343D9DF7B7
  0
DICTIONARY
  5
7DE1B343D9DF766
102
{ACAD_REACTORS
330
7DE1B343D9DF765
102
}
330
7DE1B343D9DF765
100
AcDbDictionary
  0
DICTIONARY
  5
7DE1B343D9DF78B
102
{ACAD_REACTORS
330
7DE1B343D9DF765
102
}
330
7DE1B343D9DF765
100
AcDbDictionary
  0
DICTIONARY
  5
7DE1B343D9DF767
102
{ACAD_REACTORS
330
7DE1B343D9DF765
102
}
330
7DE1B343D9DF765
100
AcDbDictionary
  3
STANDARD
350
7DE1B343D9DF774
  0
DICTIONARY
  5
7DE1B343D9DF78C
102
{ACAD_REACTORS
330
7DE1B343D9DF765
102
}
330
7DE1B343D9DF765
100
AcDbDictionary
  0
ACDBDICTIONARYWDFLT
  5
7DE1B343D9DF789
102
{ACAD_REACTORS
330
7DE1B343D9DF765
102
}
330
7DE1B343D9DF765
100
AcDbDictionary
281
     1
  3
Normal
350
7DE1B343D9DF78A
100
AcDbDictionaryWithDefault
340
7DE1B343D9DF78A
  0
DICTIONARY
  5
7DE1B343D9DF796
102
{ACAD_REACTORS
330
7DE1B343D9DF765
102
}
330
7DE1B343D9DF765
100
AcDbDictionary
  3
CEPSNTYPE
350
7DE1B343D9DF7A0
  3
FINGERPRINTGUID
350
7DE1B343D9DF7A1
  3
HYPERLINKBASE
350
7DE1B343D9DF799
  3
INSUNITS
350
7DE1B343D9DF79F
  3
LAYOUTDICT
350
7DE1B343D9DF79B
  3
LWETCUNION
350
7DE1B343D9DF79E
  3
PLOTSETDICT
350
7DE1B343D9DF79C
  3
PLOTSTYLNAMDICT
350
7DE1B343D9DF79D
  3
PSVPSCALE
350
7DE1B343D9DF7A3
  3
PUCSBASE
350
7DE1B343D9DF7A6
  3
PUCSORGBACK
350
7DE1B343D9DF7AC
  3
PUCSORGBOTTOM
350
7DE1B343D9DF7A8
  3
PUCSORGFRONT
350
7DE1B343D9DF7AB
  3
PUCSORGLEFT
350
7DE1B343D9DF7A9
  3
PUCSORGRIGHT
350
7DE1B343D9DF7AA
  3
PUCSORGTOP
350
7DE1B343D9DF7A7
  3
PUCSORTHOREF
350
7DE1B343D9DF7A4
  3
PUCSORTHOVIEW
350
7DE1B343D9DF7A5
  3
STYLESHEET
350
7DE1B343D9DF79A
  3
TSTACKALIGN
350
7DE1B343D9DF797
  3
TSTACKSIZE
350
7DE1B343D9DF798
  3
UCSBASE
350
7DE1B343D9DF7AF
  3
UCSORGBACK
350
7DE1B343D9DF7B5
  3
UCSORGBOTTOM
350
7DE1B343D9DF7B1
  3
UCSORGFRONT
350
7DE1B343D9DF7B4
  3
UCSORGLEFT
350
7DE1B343D9DF7B2
  3
UCSORGRIGHT
350
7DE1B343D9DF7B3
  3
UCSORGTOP
350
7DE1B343D9DF7B0
  3
UCSORTHOREF
350
7DE1B343D9DF7AD
  3
UCSORTHOVIEW
350
7DE1B343D9DF7AE
  3
VERSIONGUID
350
7DE1B343D9DF7A2
  0
DICTIONARY
  5
7DE1B343D9DF793
102
{ACAD_REACTORS
330
7DE1B343D9DF765
102
}
330
7DE1B343D9DF765
100
AcDbDictionary
  3
DIMASSOC
350
7DE1B343D9DF794
  0
XRECORD
  5
7DE1B343D9DF7B9
102
{ACAD_REACTORS
330
7DE1B343D9DF7B8
102
}
330
7DE1B343D9DF7B8
100
AcDbXrecord
340
7DE1B343D9DF771
  0
XRECORD
  5
7DE1B343D9DF7B7
102
{ACAD_REACTORS
330
7DE1B343D9DF7B6
102
}
330
7DE1B343D9DF7B6
100
AcDbXrecord
340
7DE1B343D9DF76E
  0
MLINESTYLE
  5
7DE1B343D9DF774
102
{ACAD_REACTORS
330
7DE1B343D9DF767
102
}
330
7DE1B343D9DF767
100
AcDbMlineStyle
  2
STANDARD
 70
     0
  3

 62
     0
 51
90.0
 52
90.0
 71
     2
 49
0.5
 62
   256
  6
BYLAYER
 49
-0.5
 62
   256
  6
BYLAYER
  0
ACDBPLACEHOLDER
  5
7DE1B343D9DF78A
102
{ACAD_REACTORS
330
7DE1B343D9DF789
102
}
330
7DE1B343D9DF789
100
AcDbPlaceHolder
280
     0
  0
XRECORD
  5
7DE1B343D9DF7A0
102
{ACAD_REACTORS
330
7DE1B343D9DF796
102
}
330
7DE1B343D9DF796
100
AcDbXrecord
 90
        0
  0
XRECORD
  5
7DE1B343D9DF7A1
102
{ACAD_REACTORS
330
7DE1B343D9DF796
102
}
330
7DE1B343D9DF796
100
AcDbXrecord
  1
{7D747F40-8DB6-11D6-88E6-0090279574E7}
  0
XRECORD
  5
7DE1B343D9DF799
102
{ACAD_REACTORS
330
7DE1B343D9DF796
102
}
330
7DE1B343D9DF796
100
AcDbXrecord
  1

  0
XRECORD
  5
7DE1B343D9DF79F
102
{ACAD_REACTORS
330
7DE1B343D9DF796
102
}
330
7DE1B343D9DF796
100
AcDbXrecord
 90
        0
  0
XRECORD
  5
7DE1B343D9DF79B
102
{ACAD_REACTORS
330
7DE1B343D9DF796
102
}
330
7DE1B343D9DF796
100
AcDbXrecord
340
7DE1B343D9DF78B
  0
XRECORD
  5
7DE1B343D9DF79E
102
{ACAD_REACTORS
330
7DE1B343D9DF796
102
}
330
7DE1B343D9DF796
100
AcDbXrecord
 90
    14877
  0
XRECORD
  5
7DE1B343D9DF79C
102
{ACAD_REACTORS
330
7DE1B343D9DF796
102
}
330
7DE1B343D9DF796
100
AcDbXrecord
340
7DE1B343D9DF78C
  0
XRECORD
  5
7DE1B343D9DF79D
102
{ACAD_REACTORS
330
7DE1B343D9DF796
102
}
330
7DE1B343D9DF796
100
AcDbXrecord
340
7DE1B343D9DF789
  0
XRECORD
  5
7DE1B343D9DF7A3
102
{ACAD_REACTORS
330
7DE1B343D9DF796
102
}
330
7DE1B343D9DF796
100
AcDbXrecord
 40
0.0
  0
XRECORD
  5
7DE1B343D9DF7A6
102
{ACAD_REACTORS
330
7DE1B343D9DF796
102
}
330
7DE1B343D9DF796
100
AcDbXrecord
340
0
  0
XRECORD
  5
7DE1B343D9DF7AC
102
{ACAD_REACTORS
330
7DE1B343D9DF796
102
}
330
7DE1B343D9DF796
100
AcDbXrecord
 10
0.0
 20
0.0
 30
0.0
  0
XRECORD
  5
7DE1B343D9DF7A8
102
{ACAD_REACTORS
330
7DE1B343D9DF796
102
}
330
7DE1B343D9DF796
100
AcDbXrecord
 10
0.0
 20
0.0
 30
0.0
  0
XRECORD
  5
7DE1B343D9DF7AB
102
{ACAD_REACTORS
330
7DE1B343D9DF796
102
}
330
7DE1B343D9DF796
100
AcDbXrecord
 10
0.0
 20
0.0
 30
0.0
  0
XRECORD
  5
7DE1B343D9DF7A9
102
{ACAD_REACTORS
330
7DE1B343D9DF796
102
}
330
7DE1B343D9DF796
100
AcDbXrecord
 10
0.0
 20
0.0
 30
0.0
  0
XRECORD
  5
7DE1B343D9DF7AA
102
{ACAD_REACTORS
330
7DE1B343D9DF796
102
}
330
7DE1B343D9DF796
100
AcDbXrecord
 10
0.0
 20
0.0
 30
0.0
  0
XRECORD
  5
7DE1B343D9DF7A7
102
{ACAD_REACTORS
330
7DE1B343D9DF796
102
}
330
7DE1B343D9DF796
100
AcDbXrecord
 10
0.0
 20
0.0
 30
0.0
  0
XRECORD
  5
7DE1B343D9DF7A4
102
{ACAD_REACTORS
330
7DE1B343D9DF796
102
}
330
7DE1B343D9DF796
100
AcDbXrecord
340
0
  0
XRECORD
  5
7DE1B343D9DF7A5
102
{ACAD_REACTORS
330
7DE1B343D9DF796
102
}
330
7DE1B343D9DF796
100
AcDbXrecord
 70
     0
  0
XRECORD
  5
7DE1B343D9DF79A
102
{ACAD_REACTORS
330
7DE1B343D9DF796
102
}
330
7DE1B343D9DF796
100
AcDbXrecord
  1

  0
XRECORD
  5
7DE1B343D9DF797
102
{ACAD_REACTORS
330
7DE1B343D9DF796
102
}
330
7DE1B343D9DF796
100
AcDbXrecord
 90
        1
  0
XRECORD
  5
7DE1B343D9DF798
102
{ACAD_REACTORS
330
7DE1B343D9DF796
102
}
330
7DE1B343D9DF796
100
AcDbXrecord
 90
       70
  0
XRECORD
  5
7DE1B343D9DF7AF
102
{ACAD_REACTORS
330
7DE1B343D9DF796
102
}
330
7DE1B343D9DF796
100
AcDbXrecord
340
0
  0
XRECORD
  5
7DE1B343D9DF7B5
102
{ACAD_REACTORS
330
7DE1B343D9DF796
102
}
330
7DE1B343D9DF796
100
AcDbXrecord
 10
0.0
 20
0.0
 30
0.0
  0
XRECORD
  5
7DE1B343D9DF7B1
102
{ACAD_REACTORS
330
7DE1B343D9DF796
102
}
330
7DE1B343D9DF796
100
AcDbXrecord
 10
0.0
 20
0.0
 30
0.0
  0
XRECORD
  5
7DE1B343D9DF7B4
102
{ACAD_REACTORS
330
7DE1B343D9DF796
102
}
330
7DE1B343D9DF796
100
AcDbXrecord
 10
0.0
 20
0.0
 30
0.0
  0
XRECORD
  5
7DE1B343D9DF7B2
102
{ACAD_REACTORS
330
7DE1B343D9DF796
102
}
330
7DE1B343D9DF796
100
AcDbXrecord
 10
0.0
 20
0.0
 30
0.0
  0
XRECORD
  5
7DE1B343D9DF7B3
102
{ACAD_REACTORS
330
7DE1B343D9DF796
102
}
330
7DE1B343D9DF796
100
AcDbXrecord
 10
0.0
 20
0.0
 30
0.0
  0
XRECORD
  5
7DE1B343D9DF7B0
102
{ACAD_REACTORS
330
7DE1B343D9DF796
102
}
330
7DE1B343D9DF796
100
AcDbXrecord
 10
0.0
 20
0.0
 30
0.0
  0
XRECORD
  5
7DE1B343D9DF7AD
102
{ACAD_REACTORS
330
7DE1B343D9DF796
102
}
330
7DE1B343D9DF796
100
AcDbXrecord
340
0
  0
XRECORD
  5
7DE1B343D9DF7AE
102
{ACAD_REACTORS
330
7DE1B343D9DF796
102
}
330
7DE1B343D9DF796
100
AcDbXrecord
 70
     0
  0
XRECORD
  5
7DE1B343D9DF7A2
102
{ACAD_REACTORS
330
7DE1B343D9DF796
102
}
330
7DE1B343D9DF796
100
AcDbXrecord
  1
{7D747F42-8DB6-11D6-88E6-0090279574E7}
  0
DICTIONARYVAR
  5
7DE1B343D9DF794
102
{ACAD_REACTORS
330
7DE1B343D9DF793
102
}
330
7DE1B343D9DF793
100
DictionaryVariables
280
     0
  1
1
  0
ENDSEC
  0
EOF
