  0
SECTION
  2
HEADER
  9
$ACADVER
  1
AC1014
  9
$ACADMAINTVER
 70
     9
  9
$DWGCODEPAGE
  3
ANSI_1252
  9
$INSBASE
 10
3.678563806794786
 20
3.419381297301781
 30
0.0
  9
$EXTMIN
 10
1.935582227567642
 20
2.138431431831761
 30
0.0
  9
$EXTMAX
 10
5.420801549314777
 20
3.923389522036362
 30
0.0
  9
$LIMMIN
 10
0.0
 20
0.0
  9
$LIMMAX
 10
18.0
 20
12.0
  9
$ORTHOMODE
 70
     1
  9
$REGENMODE
 70
     1
  9
$FILLMODE
 70
     1
  9
$QTEXTMODE
 70
     0
  9
$MIRRTEXT
 70
     0
  9
$DRAGMODE
 70
     2
  9
$LTSCALE
 40
1.0
  9
$OSMODE
 70
    39
  9
$ATTMODE
 70
     1
  9
$TEXTSIZE
 40
0.125
  9
$TRACEWID
 40
0.05
  9
$TEXTSTYLE
  7
ROMANS
  9
$CLAYER
  8
0
  9
$CELTYPE
  6
BYLAYER
  9
$CECOLOR
 62
   256
  9
$CELTSCALE
 40
1.0
  9
$DELOBJ
 70
     1
  9
$DISPSILH
 70
     1
  9
$DIMSCALE
 40
1.0
  9
$DIMASZ
 40
0.125
  9
$DIMEXO
 40
0.125
  9
$DIMDLI
 40
0.375
  9
$DIMRND
 40
0.0
  9
$DIMDLE
 40
0.0
  9
$DIMEXE
 40
0.125
  9
$DIMTP
 40
0.0
  9
$DIMTM
 40
0.0
  9
$DIMTXT
 40
0.125
  9
$DIMCEN
 40
-0.125
  9
$DIMTSZ
 40
0.0
  9
$DIMTOL
 70
     0
  9
$DIMLIM
 70
     0
  9
$DIMTIH
 70
     1
  9
$DIMTOH
 70
     1
  9
$DIMSE1
 70
     0
  9
$DIMSE2
 70
     0
  9
$DIMTAD
 70
     0
  9
$DIMZIN
 70
     4
  9
$DIMBLK
  1

  9
$DIMASO
 70
     1
  9
$DIMSHO
 70
     1
  9
$DIMPOST
  1

  9
$DIMAPOST
  1

  9
$DIMALT
 70
     0
  9
$DIMALTD
 70
     2
  9
$DIMALTF
 40
25.4
  9
$DIMLFAC
 40
1.0
  9
$DIMTOFL
 70
     0
  9
$DIMTVP
 40
0.0
  9
$DIMTIX
 70
     1
  9
$DIMSOXD
 70
     0
  9
$DIMSAH
 70
     0
  9
$DIMBLK1
  1

  9
$DIMBLK2
  1

  9
$DIMSTYLE
  2
STANDARD
  9
$DIMCLRD
 70
     0
  9
$DIMCLRE
 70
     0
  9
$DIMCLRT
 70
     0
  9
$DIMTFAC
 40
1.0
  9
$DIMGAP
 40
0.09
  9
$DIMJUST
 70
     0
  9
$DIMSD1
 70
     0
  9
$DIMSD2
 70
     0
  9
$DIMTOLJ
 70
     1
  9
$DIMTZIN
 70
     4
  9
$DIMALTZ
 70
     0
  9
$DIMALTTZ
 70
     0
  9
$DIMFIT
 70
     3
  9
$DIMUPT
 70
     0
  9
$DIMUNIT
 70
     2
  9
$DIMDEC
 70
     3
  9
$DIMTDEC
 70
     3
  9
$DIMALTU
 70
     2
  9
$DIMALTTD
 70
     2
  9
$DIMTXSTY
  7
ROMANS
  9
$DIMAUNIT
 70
     0
  9
$LUNITS
 70
     2
  9
$LUPREC
 70
     3
  9
$SKETCHINC
 40
0.1
  9
$FILLETRAD
 40
0.03125
  9
$AUNITS
 70
     0
  9
$AUPREC
 70
     0
  9
$MENU
  1
ACAD
  9
$ELEVATION
 40
0.0
  9
$PELEVATION
 40
0.0
  9
$THICKNESS
 40
0.0
  9
$LIMCHECK
 70
     0
  9
$BLIPMODE
 70
     0
  9
$CHAMFERA
 40
0.0
  9
$CHAMFERB
 40
0.0
  9
$CHAMFERC
 40
0.0
  9
$CHAMFERD
 40
0.0
  9
$SKPOLY
 70
     0
  9
$TDCREATE
 40
2448994.585227314
  9
$TDUPDATE
 40
2452458.307792905
  9
$TDINDWG
 40
0.0006009954
  9
$TDUSRTIMER
 40
0.0006009954
  9
$USRTIMER
 70
     1
  9
$ANGBASE
 50
0.0
  9
$ANGDIR
 70
     0
  9
$PDMODE
 70
     0
  9
$PDSIZE
 40
0.0
  9
$PLINEWID
 40
0.0
  9
$COORDS
 70
     2
  9
$SPLFRAME
 70
     0
  9
$SPLINETYPE
 70
     6
  9
$SPLINESEGS
 70
     8
  9
$ATTDIA
 70
     0
  9
$ATTREQ
 70
     1
  9
$HANDLING
 70
 22529
  9
$HANDSEED
  5
7DE1B343D9E615F
  9
$SURFTAB1
 70
     6
  9
$SURFTAB2
 70
     6
  9
$SURFTYPE
 70
     6
  9
$SURFU
 70
     6
  9
$SURFV
 70
     6
  9
$UCSNAME
  2

  9
$UCSORG
 10
0.0
 20
0.0
 30
0.0
  9
$UCSXDIR
 10
1.0
 20
0.0
 30
0.0
  9
$UCSYDIR
 10
0.0
 20
1.0
 30
0.0
  9
$PUCSNAME
  2

  9
$PUCSORG
 10
0.0
 20
0.0
 30
0.0
  9
$PUCSXDIR
 10
1.0
 20
0.0
 30
0.0
  9
$PUCSYDIR
 10
0.0
 20
1.0
 30
0.0
  9
$USERI1
 70
     0
  9
$USERI2
 70
     0
  9
$USERI3
 70
     0
  9
$USERI4
 70
     0
  9
$USERI5
 70
     0
  9
$USERR1
 40
0.0
  9
$USERR2
 40
0.0
  9
$USERR3
 40
0.0
  9
$USERR4
 40
0.0
  9
$USERR5
 40
0.0
  9
$WORLDVIEW
 70
     1
  9
$SHADEDGE
 70
     3
  9
$SHADEDIF
 70
    70
  9
$TILEMODE
 70
     1
  9
$MAXACTVP
 70
    16
  9
$PINSBASE
 10
5.816740027247305
 20
50.00000000000001
 30
6.268273777124899
  9
$PLIMCHECK
 70
     0
  9
$PEXTMIN
 10
1.000000000000000E+20
 20
1.000000000000000E+20
 30
1.000000000000000E+20
  9
$PEXTMAX
 10
-1.000000000000000E+20
 20
-1.000000000000000E+20
 30
-1.000000000000000E+20
  9
$PLIMMIN
 10
0.0
 20
0.0
  9
$PLIMMAX
 10
12.0
 20
9.0
  9
$UNITMODE
 70
     0
  9
$VISRETAIN
 70
     0
  9
$PLINEGEN
 70
     1
  9
$PSLTSCALE
 70
     0
  9
$TREEDEPTH
 70
  3020
  9
$PICKSTYLE
 70
     1
  9
$CMLSTYLE
  2
STANDARD
  9
$CMLJUST
 70
     0
  9
$CMLSCALE
 40
1.0
  9
$PROXYGRAPHICS
 70
     1
  9
$MEASUREMENT
 70
     0
  0
ENDSEC
  0
SECTION
  2
CLASSES
  0
CLASS
  1
LWPOLYLINE
  2
AcDbPolyline
  3
AutoCAD 2000
 90
        0
280
     0
281
     1
  0
CLASS
  1
ACDBDICTIONARYWDFLT
  2
AcDbDictionaryWithDefault
  3
AutoCAD 2000
 90
        0
280
     0
281
     0
  0
CLASS
  1
ACDBPLACEHOLDER
  2
AcDbPlaceHolder
  3
AutoCAD 2000
 90
        0
280
     0
281
     0
  0
CLASS
  1
LAYOUT
  2
AcDbLayout
  3
AutoCAD 2000
 90
        0
280
     0
281
     0
  0
CLASS
  1
DICTIONARYVAR
  2
AcDbDictionaryVar
  3
AutoCAD 2000
 90
        0
280
     0
281
     0
  0
CLASS
  1
LONG_TRANSACTION
  2
AcDbLongTransaction
  3
AutoCAD 2000
 90
        0
280
     0
281
     0
  0
CLASS
  1
LWPOLYLINE
  2
AcDbPolyline
  3
AutoCAD 2000
 90
        0
280
     0
281
     1
  0
CLASS
  1
HATCH
  2
AcDbHatch
  3
AutoCAD 2000
 90
        0
280
     0
281
     1
  0
CLASS
  1
XRECORD
  2
AcDbXrecord
  3
AutoCAD 2000
 90
        0
280
     0
281
     0
  0
ENDSEC
  0
SECTION
  2
TABLES
  0
TABLE
  2
VPORT
  5
7DE1B343D9E6106
330
0
100
AcDbSymbolTable
 70
     2
  0
VPORT
  5
7DE1B343D9E613A
330
7DE1B343D9E6106
100
AcDbSymbolTableRecord
100
AcDbViewportTableRecord
  2
*ACTIVE
 70
     0
 10
0.0
 20
0.0
 11
1.0
 21
1.0
 12
6.654146993697591
 22
3.030944848701992
 13
0.0
 23
0.0
 14
0.015625
 24
0.015625
 15
0.0
 25
0.0
 16
0.0
 26
0.0
 36
1.0
 17
0.0
 27
0.0
 37
0.0
 40
2.282647215150728
 41
4.320930232558139
 42
50.0
 43
0.0
 44
0.0
 50
0.0
 51
0.0
 71
     0
 72
  2000
 73
     1
 74
     0
 75
     0
 76
     0
 77
     0
 78
     0
  0
ENDTAB
  0
TABLE
  2
LTYPE
  5
7DE1B343D9E6103
330
0
100
AcDbSymbolTable
 70
     1
  0
LTYPE
  5
7DE1B343D9E6110
330
7DE1B343D9E6103
100
AcDbSymbolTableRecord
100
AcDbLinetypeTableRecord
  2
BYBLOCK
 70
     0
  3

 72
    65
 73
     0
 40
0.0
  0
LTYPE
  5
7DE1B343D9E6111
330
7DE1B343D9E6103
100
AcDbSymbolTableRecord
100
AcDbLinetypeTableRecord
  2
BYLAYER
 70
     0
  3

 72
    65
 73
     0
 40
0.0
  0
LTYPE
  5
7DE1B343D9E6112
330
7DE1B343D9E6103
100
AcDbSymbolTableRecord
100
AcDbLinetypeTableRecord
  2
CONTINUOUS
 70
     0
  3
Solid line
 72
    65
 73
     0
 40
0.0
  0
ENDTAB
  0
TABLE
  2
LAYER
  5
7DE1B343D9E6100
330
0
100
AcDbSymbolTable
 70
     2
  0
LAYER
  5
7DE1B343D9E610D
330
7DE1B343D9E6100
100
AcDbSymbolTableRecord
100
AcDbLayerTableRecord
  2
0
 70
     0
 62
     7
  6
CONTINUOUS
  0
LAYER
  5
7DE1B343D9E611D
330
7DE1B343D9E6100
100
AcDbSymbolTableRecord
100
AcDbLayerTableRecord
  2
TEXT
 70
     0
 62
     3
  6
CONTINUOUS
  0
ENDTAB
  0
TABLE
  2
STYLE
  5
7DE1B343D9E6101
330
0
100
AcDbSymbolTable
 70
     3
  0
STYLE
  5
7DE1B343D9E610E
330
7DE1B343D9E6101
100
AcDbSymbolTableRecord
100
AcDbTextStyleTableRecord
  2
STANDARD
 70
     0
 40
0.0
 41
1.0
 50
0.0
 71
     0
 42
0.3125
  3
txt
  4

  0
STYLE
  5
7DE1B343D9E611A
330
7DE1B343D9E6101
100
AcDbSymbolTableRecord
100
AcDbTextStyleTableRecord
  2
ITALICC
 70
     0
 40
0.0
 41
1.0
 50
0.0
 71
     0
 42
0.125
  3
italicc
  4

  0
STYLE
  5
7DE1B343D9E612A
330
7DE1B343D9E6101
100
AcDbSymbolTableRecord
100
AcDbTextStyleTableRecord
  2
ROMANS
 70
     0
 40
0.0
 41
1.0
 50
0.0
 71
     0
 42
0.125
  3
romans.shx
  4

  0
ENDTAB
  0
TABLE
  2
VIEW
  5
7DE1B343D9E6104
330
0
100
AcDbSymbolTable
 70
     0
  0
ENDTAB
  0
TABLE
  2
UCS
  5
7DE1B343D9E6105
330
0
100
AcDbSymbolTable
 70
     0
  0
ENDTAB
  0
TABLE
  2
APPID
  5
7DE1B343D9E6107
330
0
100
AcDbSymbolTable
 70
     1
  0
APPID
  5
7DE1B343D9E610F
330
7DE1B343D9E6107
100
AcDbSymbolTableRecord
100
AcDbRegAppTableRecord
  2
ACAD
 70
     0
  0
ENDTAB
  0
TABLE
  2
DIMSTYLE
  5
7DE1B343D9E6108
330
0
100
AcDbSymbolTable
 70
     1
  0
DIMSTYLE
105
7DE1B343D9E6122
330
7DE1B343D9E6108
100
AcDbSymbolTableRecord
100
AcDbDimStyleTableRecord
  2
STANDARD
 70
     0
  3

  4

  5

  6

  7

 40
1.0
 41
0.125
 42
0.125
 43
0.375
 44
0.125
 45
0.0
 46
0.0
 47
0.0
 48
0.0
140
0.125
141
-0.125
142
0.0
143
25.4
144
1.0
145
0.0
146
1.0
147
0.09
 71
     0
 72
     0
 73
     1
 74
     1
 75
     0
 76
     0
 77
     0
 78
     4
170
     0
171
     2
172
     0
173
     0
174
     1
175
     0
176
     0
177
     0
178
     0
270
     2
271
     3
272
     3
273
     2
274
     2
340
7DE1B343D9E612A
275
     0
280
     0
281
     0
282
     0
283
     1
284
     4
285
     0
286
     0
287
     3
288
     0
  0
ENDTAB
  0
TABLE
  2
BLOCK_RECORD
  5
7DE1B343D9E60FF
330
0
100
AcDbSymbolTable
 70
     0
  0
BLOCK_RECORD
  5
7DE1B343D9E6116
102
{ACAD_XDICTIONARY
360
7DE1B343D9E615D
102
}
330
7DE1B343D9E60FF
100
AcDbSymbolTableRecord
100
AcDbBlockTableRecord
  2
*MODEL_SPACE
  0
BLOCK_RECORD
  5
7DE1B343D9E6113
102
{ACAD_XDICTIONARY
360
7DE1B343D9E615B
102
}
330
7DE1B343D9E60FF
100
AcDbSymbolTableRecord
100
AcDbBlockTableRecord
  2
*PAPER_SPACE
  0
ENDTAB
  0
ENDSEC
  0
SECTION
  2
BLOCKS
  0
BLOCK
  5
7DE1B343D9E6120
330
7DE1B343D9E6116
100
AcDbEntity
  8
0
100
AcDbBlockBegin
  2
*MODEL_SPACE
 70
     0
 10
0.0
 20
0.0
 30
0.0
  3
*MODEL_SPACE
  1

  0
ENDBLK
  5
7DE1B343D9E6121
330
7DE1B343D9E6116
100
AcDbEntity
  8
0
100
AcDbBlockEnd
  0
BLOCK
  5
7DE1B343D9E611E
330
7DE1B343D9E6113
100
AcDbEntity
 67
     1
  8
0
100
AcDbBlockBegin
  2
*PAPER_SPACE
 70
     0
 10
0.0
 20
0.0
 30
0.0
  3
*PAPER_SPACE
  1

  0
ENDBLK
  5
7DE1B343D9E611F
330
7DE1B343D9E6113
100
AcDbEntity
 67
     1
  8
0
100
AcDbBlockEnd
  0
ENDSEC
  0
SECTION
  2
ENTITIES
  0
LWPOLYLINE
  5
7DE1B343D9E4D02
330
7DE1B343D9E6116
100
AcDbEntity
  8
0
100
AcDbPolyline
 90
       12
 70
     0
 43
0.0
 10
3.678563806794786
 20
3.898964470148591
 10
3.678563806794786
 20
3.669381297301781
 10
3.678563806794786
 20
3.898964449633053
 42
0.4264743413925565
 10
3.657730473461452
 20
3.918947080980189
 42
2.278711075339635
 10
4.178129590473194
 20
3.398547963968448
 42
0.4264743413925597
 10
4.158146959126058
 20
3.419381297301781
 10
3.928563806794786
 20
3.419381297301781
 10
3.928563806794786
 20
3.359381297301781
 10
4.114453701148852
 20
3.359381297301781
 42
-2.012833641424339
 10
3.618563806794785
 20
3.855271191655848
 10
3.618563806794785
 20
3.669381297301781
 10
3.678563806794785
 20
3.669381297301781
  0
TEXT
  5
7DE1B343D9E5FC1
330
7DE1B343D9E6116
100
AcDbEntity
  8
TEXT
100
AcDbText
 10
2.922611425842405
 20
2.596450035914342
 30
0.0
 40
0.125
  1
PART #110347
  7
ITALICC
 72
     1
 11
3.678563806794786
 21
2.596450035914342
 31
0.0
100
AcDbText
  0
TEXT
  5
7DE1B343D9E5FC2
330
7DE1B343D9E6116
100
AcDbEntity
  8
TEXT
100
AcDbText
 10
4.091868965045106
 20
2.149527393241967
 30
0.0
 40
0.0522247191011236
  1
Phone  1-800-328-2495
 41
1.272321428571429
 72
     5
 11
5.42080154931477
 21
2.149527393241967
 31
0.0
100
AcDbText
  0
TEXT
  5
7DE1B343D9E5FC3
330
7DE1B343D9E6116
100
AcDbEntity
  8
TEXT
100
AcDbText
 10
4.091868965045106
 20
2.429302674140844
 30
0.0
 40
0.0522247191011236
  1
Stylmark  Incorporated
 41
1.221428571428573
 72
     5
 11
5.42080154931477
 21
2.429302674140844
 31
0.0
100
AcDbText
  0
TEXT
  5
7DE1B343D9E5FC4
330
7DE1B343D9E6116
100
AcDbEntity
  8
TEXT
100
AcDbText
 10
4.091868965045106
 20
2.336044247174552
 30
0.0
 40
0.0522247191011236
  1
6536 Main St. N.E. * P.O. Box 32008
 41
0.8388932496075366
 72
     5
 11
5.42080154931477
 21
2.336044247174552
 31
0.0
100
AcDbText
  0
TEXT
  5
7DE1B343D9E5FC5
330
7DE1B343D9E6116
100
AcDbEntity
  8
TEXT
100
AcDbText
 10
4.091868965045106
 20
2.24278582020826
 30
0.0
 40
0.0522247191011236
  1
Minneapolis, MN 55432-0008
 41
1.11444212721585
 72
     5
 11
5.42080154931477
 21
2.24278582020826
 31
0.0
100
AcDbText
  0
LWPOLYLINE
  5
7DE1B343D9E5FC6
330
7DE1B343D9E6116
100
AcDbEntity
  8
TEXT
100
AcDbPolyline
 90
        3
 70
     0
 43
0.0006660908203125
 10
1.935915272977799
 20
2.263172155879402
 10
1.935915272977799
 20
2.149936716426275
 10
2.049150712430921
 20
2.149936716426275
  0
LWPOLYLINE
  5
7DE1B343D9E5FCB
330
7DE1B343D9E6116
100
AcDbEntity
  8
TEXT
100
AcDbPolyline
 90
        3
 70
     0
 43
0.0006660908203125
 10
1.962558905790296
 20
2.263172155879402
 10
1.962558905790296
 20
2.176580349238776
 10
2.049150712430921
 20
2.176580349238776
  0
LWPOLYLINE
  5
7DE1B343D9E5FD0
330
7DE1B343D9E6116
100
AcDbEntity
  8
TEXT
100
AcDbPolyline
 90
        2
 70
     0
 43
0.0001332181640625
 10
2.009185263212173
 20
2.273163518184087
 10
1.935915272977799
 20
2.263172155879402
  0
LWPOLYLINE
  5
7DE1B343D9E5FD4
330
7DE1B343D9E6116
100
AcDbEntity
  8
TEXT
100
AcDbPolyline
 90
        2
 70
     0
 43
0.0001332181640625
 10
1.962558905790296
 20
2.263172155879402
 10
2.022507079618423
 20
2.273163518184087
  0
LWPOLYLINE
  5
7DE1B343D9E5FD8
330
7DE1B343D9E6116
100
AcDbEntity
  8
TEXT
100
AcDbPolyline
 90
        2
 70
     0
 43
0.0001332181640625
 10
1.962558905790296
 20
2.176580349238776
 10
2.022507079618423
 20
2.236528523066901
  0
LWPOLYLINE
  5
7DE1B343D9E5FDC
330
7DE1B343D9E6116
100
AcDbEntity
  8
TEXT
100
AcDbPolyline
 90
        3
 70
     0
 43
0.0006660908203125
 10
2.049150712430921
 20
2.416373044551278
 10
1.935915272977799
 20
2.416373044551278
 10
1.935915272977799
 20
2.30313760509815
  0
LWPOLYLINE
  5
7DE1B343D9E5FE1
330
7DE1B343D9E6116
100
AcDbEntity
  8
TEXT
100
AcDbPolyline
 90
        3
 70
     0
 43
0.0006660908203125
 10
2.049150712430921
 20
2.389729411738777
 10
1.962558905790296
 20
2.389729411738777
 10
1.962558905790296
 20
2.30313760509815
  0
LWPOLYLINE
  5
7DE1B343D9E5FE6
330
7DE1B343D9E6116
100
AcDbEntity
  8
TEXT
100
AcDbPolyline
 90
        2
 70
     0
 43
0.0001332181640625
 10
1.962558905790296
 20
2.389729411738777
 10
2.022507079618422
 20
2.329781237910651
  0
LWPOLYLINE
  5
7DE1B343D9E5FEA
330
7DE1B343D9E6116
100
AcDbEntity
  8
TEXT
100
AcDbPolyline
 90
        2
 70
     0
 43
0.0001332181640625
 10
1.962558905790296
 20
2.30313760509815
 10
2.022507079618422
 20
2.293146242793461
  0
LWPOLYLINE
  5
7DE1B343D9E5FEE
330
7DE1B343D9E6116
100
AcDbEntity
  8
TEXT
100
AcDbPolyline
 90
        2
 70
     0
 43
0.0001332181640625
 10
1.935915272977799
 20
2.30313760509815
 10
2.009185263212173
 20
2.293146242793461
  0
LWPOLYLINE
  5
7DE1B343D9E5FF2
330
7DE1B343D9E6116
100
AcDbEntity
  8
TEXT
100
AcDbPolyline
 90
        2
 70
     0
 43
0.0006660908203125
 10
1.962558905790296
 20
2.263172155879402
 10
1.935915272977799
 20
2.263172155879402
  0
LWPOLYLINE
  5
7DE1B343D9E5FF6
330
7DE1B343D9E6116
100
AcDbEntity
  8
TEXT
100
AcDbPolyline
 90
        2
 70
     0
 43
0.0006660908203125
 10
1.962558905790296
 20
2.30313760509815
 10
1.935915272977799
 20
2.30313760509815
  0
LINE
  5
7DE1B343D9E5FFA
330
7DE1B343D9E6116
100
AcDbEntity
  8
TEXT
100
AcDbLine
 10
3.451105702104296
 20
2.352096349894509
 30
0.0
 11
3.343899428717007
 21
2.352096349894509
 31
0.0
  0
LINE
  5
7DE1B343D9E5FFB
330
7DE1B343D9E6116
100
AcDbEntity
  8
TEXT
100
AcDbLine
 10
3.480136600448775
 20
2.416373044551274
 30
0.0
 11
3.345304691231715
 21
2.416373044551274
 31
0.0
  0
ARC
  5
7DE1B343D9E5FFC
330
7DE1B343D9E6116
100
AcDbEntity
  8
TEXT
100
AcDbCircle
 10
3.404618787625032
 20
2.247135795288258
 30
0.0
 40
0.0676855811441166
100
AcDbArc
 50
90.0
 51
153.7768192527749
  0
LWPOLYLINE
  5
7DE1B343D9E5FFD
330
7DE1B343D9E6116
100
AcDbEntity
  8
TEXT
100
AcDbPolyline
 90
        2
 70
     0
 43
0.0
 10
3.342866933262197
 20
2.193390956513201
 42
0.2901071551932823
 10
3.385942866129832
 20
2.149900011562763
 42
5.328517124445801
  0
ARC
  5
7DE1B343D9E6001
330
7DE1B343D9E6116
100
AcDbEntity
  8
TEXT
100
AcDbCircle
 10
2.699487409953547
 20
2.209692402900813
 30
0.0
 40
0.0601160179737537
100
AcDbArc
 50
180.0000000000003
 51
264.0521544866073
  0
LINE
  5
7DE1B343D9E6002
330
7DE1B343D9E6116
100
AcDbEntity
  8
TEXT
100
AcDbLine
 10
2.703002765579094
 20
2.450760962145412
 30
0.0
 11
2.642960160735087
 21
2.450760962145412
 31
0.0
  0
ARC
  5
7DE1B343D9E6003
330
7DE1B343D9E6116
100
AcDbEntity
  8
TEXT
100
AcDbCircle
 10
2.467228407836576
 20
2.334285585104773
 30
0.0
 40
0.0820874594465043
100
AcDbArc
 50
90.0
 51
270.0
  0
LWPOLYLINE
  5
7DE1B343D9E6004
330
7DE1B343D9E6116
100
AcDbEntity
  8
TEXT
100
AcDbPolyline
 90
        2
 70
     0
 43
0.0001332181640625
 10
2.059142074735611
 20
2.343103054316898
 10
2.049150712430921
 20
2.416373044551278
  0
LWPOLYLINE
  5
7DE1B343D9E6008
330
7DE1B343D9E6116
100
AcDbEntity
  8
TEXT
100
AcDbPolyline
 90
        2
 70
     0
 43
0.0001332181640625
 10
2.049150712430921
 20
2.389729411738777
 10
2.059142074735611
 20
2.329781237910651
  0
LWPOLYLINE
  5
7DE1B343D9E600C
330
7DE1B343D9E6116
100
AcDbEntity
  8
TEXT
100
AcDbPolyline
 90
        3
 70
     0
 43
0.0006660908203125
 10
2.202351601102798
 20
2.30313760509815
 10
2.202351601102798
 20
2.416373044551278
 10
2.089116161649672
 20
2.416373044551278
  0
LWPOLYLINE
  5
7DE1B343D9E6011
330
7DE1B343D9E6116
100
AcDbEntity
  8
TEXT
100
AcDbPolyline
 90
        3
 70
     0
 43
0.0006660908203125
 10
2.175707968290297
 20
2.30313760509815
 10
2.175707968290297
 20
2.389729411738777
 10
2.089116161649672
 20
2.389729411738777
  0
LWPOLYLINE
  5
7DE1B343D9E6016
330
7DE1B343D9E6116
100
AcDbEntity
  8
TEXT
100
AcDbPolyline
 90
        2
 70
     0
 43
0.0001332181640625
 10
2.175707968290297
 20
2.389729411738777
 10
2.115759794462173
 20
2.329781237910651
  0
LWPOLYLINE
  5
7DE1B343D9E601A
330
7DE1B343D9E6116
100
AcDbEntity
  8
TEXT
100
AcDbPolyline
 90
        2
 70
     0
 43
0.0001332181640625
 10
2.089116161649672
 20
2.389729411738777
 10
2.079124799344984
 20
2.329781237910651
  0
LWPOLYLINE
  5
7DE1B343D9E601E
330
7DE1B343D9E6116
100
AcDbEntity
  8
TEXT
100
AcDbPolyline
 90
        2
 70
     0
 43
0.0001332181640625
 10
2.089116161649672
 20
2.416373044551278
 10
2.079124799344984
 20
2.343103054316898
  0
LWPOLYLINE
  5
7DE1B343D9E6022
330
7DE1B343D9E6116
100
AcDbEntity
  8
TEXT
100
AcDbPolyline
 90
        2
 70
     0
 43
0.0001332181640625
 10
2.129081610868422
 20
2.293146242793461
 10
2.202351601102798
 20
2.30313760509815
  0
LWPOLYLINE
  5
7DE1B343D9E6026
330
7DE1B343D9E6116
100
AcDbEntity
  8
TEXT
100
AcDbPolyline
 90
        2
 70
     0
 43
0.0001332181640625
 10
2.175707968290297
 20
2.30313760509815
 10
2.115759794462173
 20
2.293146242793461
  0
LWPOLYLINE
  5
7DE1B343D9E602A
330
7DE1B343D9E6116
100
AcDbEntity
  8
TEXT
100
AcDbPolyline
 90
        2
 70
     0
 43
0.0001332181640625
 10
2.202351601102798
 20
2.263172155879402
 10
2.129081610868422
 20
2.273163518184087
  0
LWPOLYLINE
  5
7DE1B343D9E602E
330
7DE1B343D9E6116
100
AcDbEntity
  8
TEXT
100
AcDbPolyline
 90
        2
 70
     0
 43
0.0001332181640625
 10
2.175707968290297
 20
2.263172155879402
 10
2.115759794462173
 20
2.273163518184087
  0
LWPOLYLINE
  5
7DE1B343D9E6032
330
7DE1B343D9E6116
100
AcDbEntity
  8
TEXT
100
AcDbPolyline
 90
        2
 70
     0
 43
0.0001332181640625
 10
2.175707968290297
 20
2.176580349238776
 10
2.115759794462173
 20
2.236528523066901
  0
LWPOLYLINE
  5
7DE1B343D9E6036
330
7DE1B343D9E6116
100
AcDbEntity
  8
TEXT
100
AcDbPolyline
 90
        3
 70
     0
 43
0.0006660908203125
 10
2.089116161649672
 20
2.176580349238776
 10
2.175707968290297
 20
2.176580349238776
 10
2.175707968290297
 20
2.263172155879402
  0
LWPOLYLINE
  5
7DE1B343D9E603B
330
7DE1B343D9E6116
100
AcDbEntity
  8
TEXT
100
AcDbPolyline
 90
        3
 70
     0
 43
0.0006660908203125
 10
2.089116161649672
 20
2.149936716426275
 10
2.202351601102798
 20
2.149936716426275
 10
2.202351601102798
 20
2.263172155879402
  0
LWPOLYLINE
  5
7DE1B343D9E6040
330
7DE1B343D9E6116
100
AcDbEntity
  8
TEXT
100
AcDbPolyline
 90
        5
 70
     0
 43
0.0001332181640625
 10
2.059142074735611
 20
2.223206706660651
 10
2.059142074735611
 20
2.236528523066901
 10
2.022507079618423
 20
2.236528523066901
 10
2.022507079618423
 20
2.273163518184087
 10
2.009185263212173
 20
2.273163518184087
  0
LWPOLYLINE
  5
7DE1B343D9E6047
330
7DE1B343D9E6116
100
AcDbEntity
  8
TEXT
100
AcDbPolyline
 90
        2
 70
     0
 43
0.0006660908203125
 10
2.049150712430921
 20
2.176580349238776
 10
2.049150712430921
 20
2.149936716426275
  0
LWPOLYLINE
  5
7DE1B343D9E604B
330
7DE1B343D9E6116
100
AcDbEntity
  8
TEXT
100
AcDbPolyline
 90
        2
 70
     0
 43
0.0001332181640625
 10
2.049150712430921
 20
2.176580349238776
 10
2.059142074735611
 20
2.236528523066901
  0
LWPOLYLINE
  5
7DE1B343D9E604F
330
7DE1B343D9E6116
100
AcDbEntity
  8
TEXT
100
AcDbPolyline
 90
        2
 70
     0
 43
0.0001332181640625
 10
2.049150712430921
 20
2.149936716426275
 10
2.059142074735611
 20
2.223206706660651
  0
LWPOLYLINE
  5
7DE1B343D9E6053
330
7DE1B343D9E6116
100
AcDbEntity
  8
TEXT
100
AcDbPolyline
 90
        5
 70
     0
 43
0.0001332181640625
 10
2.009185263212173
 20
2.293146242793461
 10
2.022507079618422
 20
2.293146242793461
 10
2.022507079618422
 20
2.329781237910651
 10
2.059142074735611
 20
2.329781237910651
 10
2.059142074735611
 20
2.343103054316898
  0
LWPOLYLINE
  5
7DE1B343D9E605A
330
7DE1B343D9E6116
100
AcDbEntity
  8
TEXT
100
AcDbPolyline
 90
        5
 70
     0
 43
0.0001332181640625
 10
2.079124799344984
 20
2.343103054316898
 10
2.079124799344984
 20
2.329781237910651
 10
2.115759794462173
 20
2.329781237910651
 10
2.115759794462173
 20
2.293146242793461
 10
2.129081610868422
 20
2.293146242793461
  0
LWPOLYLINE
  5
7DE1B343D9E6061
330
7DE1B343D9E6116
100
AcDbEntity
  8
TEXT
100
AcDbPolyline
 90
        2
 70
     0
 43
0.0001332181640625
 10
2.089116161649672
 20
2.176580349238776
 10
2.079124799344984
 20
2.236528523066901
  0
LWPOLYLINE
  5
7DE1B343D9E6065
330
7DE1B343D9E6116
100
AcDbEntity
  8
TEXT
100
AcDbPolyline
 90
        2
 70
     0
 43
0.0001332181640625
 10
2.079124799344984
 20
2.223206706660651
 10
2.089116161649672
 20
2.149936716426275
  0
LWPOLYLINE
  5
7DE1B343D9E6069
330
7DE1B343D9E6116
100
AcDbEntity
  8
TEXT
100
AcDbPolyline
 90
        2
 70
     0
 43
0.0006660908203125
 10
2.089116161649672
 20
2.176580349238776
 10
2.089116161649672
 20
2.149936716426275
  0
LWPOLYLINE
  5
7DE1B343D9E606D
330
7DE1B343D9E6116
100
AcDbEntity
  8
TEXT
100
AcDbPolyline
 90
        5
 70
     0
 43
0.0001332181640625
 10
2.129081610868422
 20
2.273163518184087
 10
2.115759794462173
 20
2.273163518184087
 10
2.115759794462173
 20
2.236528523066901
 10
2.079124799344984
 20
2.236528523066901
 10
2.079124799344984
 20
2.223206706660651
  0
LWPOLYLINE
  5
7DE1B343D9E6074
330
7DE1B343D9E6116
100
AcDbEntity
  8
TEXT
100
AcDbPolyline
 90
        2
 70
     0
 43
0.0006660908203125
 10
2.175707968290297
 20
2.30313760509815
 10
2.202351601102798
 20
2.30313760509815
  0
LWPOLYLINE
  5
7DE1B343D9E6078
330
7DE1B343D9E6116
100
AcDbEntity
  8
TEXT
100
AcDbPolyline
 90
        2
 70
     0
 43
0.0006660908203125
 10
2.175707968290297
 20
2.263172155879402
 10
2.202351601102798
 20
2.263172155879402
  0
LINE
  5
7DE1B343D9E607C
330
7DE1B343D9E6116
100
AcDbEntity
  8
TEXT
100
AcDbLine
 10
2.472465737950823
 20
2.352096349894509
 30
0.0
 11
2.639371391979794
 21
2.352096349894509
 31
0.0
  0
LINE
  5
7DE1B343D9E607D
330
7DE1B343D9E6116
100
AcDbEntity
  8
TEXT
100
AcDbLine
 10
2.538065874195124
 20
2.316291628283881
 30
0.0
 11
2.472465737950823
 21
2.316291628283881
 31
0.0
  0
LINE
  5
7DE1B343D9E607E
330
7DE1B343D9E6116
100
AcDbEntity
  8
TEXT
100
AcDbLine
 10
2.385140948390072
 20
2.149900011562763
 30
0.0
 11
2.538065874195124
 21
2.149900011562763
 31
0.0
  0
LINE
  5
7DE1B343D9E607F
330
7DE1B343D9E6116
100
AcDbEntity
  8
TEXT
100
AcDbLine
 10
2.543006248101404
 20
2.218257017896203
 30
0.0
 11
2.38514094839007
 21
2.218257017896203
 31
0.0
  0
LINE
  5
7DE1B343D9E6080
330
7DE1B343D9E6116
100
AcDbEntity
  8
TEXT
100
AcDbLine
 10
2.467228407836575
 20
2.252198125658267
 30
0.0
 11
2.543006248101404
 21
2.252198125658267
 31
0.0
  0
ARC
  5
7DE1B343D9E6081
330
7DE1B343D9E6116
100
AcDbEntity
  8
TEXT
100
AcDbCircle
 10
2.472465737950824
 20
2.334193989089197
 30
0.0
 40
0.017902360805315
100
AcDbArc
 50
90.0
 51
270.0
  0
LINE
  5
7DE1B343D9E6082
330
7DE1B343D9E6116
100
AcDbEntity
  8
TEXT
100
AcDbLine
 10
2.38514094839007
 20
2.218257017896203
 30
0.0
 11
2.385140948390072
 21
2.149900011562763
 31
0.0
  0
LINE
  5
7DE1B343D9E6083
330
7DE1B343D9E6116
100
AcDbEntity
  8
TEXT
100
AcDbLine
 10
2.639371391979794
 20
2.352096349894509
 30
0.0
 11
2.639371391979794
 21
2.209692402900813
 31
0.0
  0
ARC
  5
7DE1B343D9E6084
330
7DE1B343D9E6116
100
AcDbEntity
  8
TEXT
100
AcDbCircle
 10
2.538065874195125
 20
2.23309581992332
 30
0.0
 40
0.0831958083605586
100
AcDbArc
 50
270.0
 51
90.0
  0
ARC
  5
7DE1B343D9E6085
330
7DE1B343D9E6116
100
AcDbEntity
  8
TEXT
100
AcDbCircle
 10
2.543006248101405
 20
2.235227571777237
 30
0.0
 40
0.0169705538810321
100
AcDbArc
 50
270.0
 51
90.0
  0
LWPOLYLINE
  5
7DE1B343D9E6086
330
7DE1B343D9E6116
100
AcDbEntity
  8
TEXT
100
AcDbPolyline
 90
        2
 70
     0
 43
0.0006660908203125
 10
2.049150712430921
 20
2.389729411738777
 10
2.049150712430921
 20
2.416373044551278
  0
LWPOLYLINE
  5
7DE1B343D9E608A
330
7DE1B343D9E6116
100
AcDbEntity
  8
TEXT
100
AcDbPolyline
 90
        2
 70
     0
 43
0.0006660908203125
 10
2.089116161649672
 20
2.389729411738777
 10
2.089116161649672
 20
2.416373044551278
  0
LINE
  5
7DE1B343D9E608E
330
7DE1B343D9E6116
100
AcDbEntity
  8
TEXT
100
AcDbLine
 10
2.642960160735087
 20
2.416373044551274
 30
0.0
 11
2.467228407836575
 21
2.416373044551274
 31
0.0
  0
LINE
  5
7DE1B343D9E608F
330
7DE1B343D9E6116
100
AcDbEntity
  8
TEXT
100
AcDbLine
 10
2.642960160735087
 20
2.450760962145412
 30
0.0
 11
2.642960160735087
 21
2.416373044551274
 31
0.0
  0
LINE
  5
7DE1B343D9E6090
330
7DE1B343D9E6116
100
AcDbEntity
  8
TEXT
100
AcDbLine
 10
2.83343205275494
 20
2.315501048438154
 30
0.0
 11
2.774801731723002
 21
2.416373044551274
 31
0.0
  0
LINE
  5
7DE1B343D9E6091
330
7DE1B343D9E6116
100
AcDbEntity
  8
TEXT
100
AcDbLine
 10
2.892180615560805
 20
2.416373044551274
 30
0.0
 11
2.83343205275494
 21
2.315501048438154
 31
0.0
  0
LINE
  5
7DE1B343D9E6092
330
7DE1B343D9E6116
100
AcDbEntity
  8
TEXT
100
AcDbLine
 10
2.989111240920546
 20
2.232287849665762
 30
0.0
 11
2.989111240920546
 21
2.484384522290085
 31
0.0
  0
LINE
  5
7DE1B343D9E6093
330
7DE1B343D9E6116
100
AcDbEntity
  8
TEXT
100
AcDbLine
 10
3.021423095058207
 20
2.416373044551274
 30
0.0
 11
3.021423095058207
 21
2.215508837818866
 31
0.0
  0
LINE
  5
7DE1B343D9E6094
330
7DE1B343D9E6116
100
AcDbEntity
  8
TEXT
100
AcDbLine
 10
3.021423095058207
 20
2.215508837818866
 30
0.0
 11
3.004429458173605
 21
2.215508837818866
 31
0.0
  0
LINE
  5
7DE1B343D9E6095
330
7DE1B343D9E6116
100
AcDbEntity
  8
TEXT
100
AcDbLine
 10
2.990250814416741
 20
2.149900011562763
 30
0.0
 11
3.088254148116176
 21
2.149900011562763
 31
0.0
  0
LINE
  5
7DE1B343D9E6096
330
7DE1B343D9E6116
100
AcDbEntity
  8
TEXT
100
AcDbLine
 10
2.823831815757985
 20
2.169858517667776
 30
0.0
 11
2.92113152185143
 21
2.334208728603044
 31
0.0
  0
ARC
  5
7DE1B343D9E6097
330
7DE1B343D9E6116
100
AcDbEntity
  8
TEXT
100
AcDbCircle
 10
2.789788255845771
 20
2.189447733836459
 30
0.0
 40
0.0392772371940762
100
AcDbArc
 50
270.1604552698595
 51
330.0831797321295
  0
LINE
  5
7DE1B343D9E6098
330
7DE1B343D9E6116
100
AcDbEntity
  8
TEXT
100
AcDbLine
 10
2.6932579994599
 20
2.149900011562763
 30
0.0
 11
2.789898250534895
 21
2.150170650661046
 31
0.0
  0
LWPOLYLINE
  5
7DE1B343D9E6099
330
7DE1B343D9E6116
100
AcDbEntity
  8
TEXT
100
AcDbPolyline
 90
        6
 70
     1
 43
0.0
 10
2.73578180303505
 20
2.352096349894509
 10
2.705465208814842
 20
2.352096349894509
 10
2.705465208814842
 20
2.228985351839614
 42
0.407328721240804
 10
2.717008859976318
 20
2.217166437163228
 10
2.777630559021049
 20
2.217166437163228
 10
2.795095899428367
 20
2.249978666206708
  0
LINE
  5
7DE1B343D9E60A1
330
7DE1B343D9E6116
100
AcDbEntity
  8
TEXT
100
AcDbLine
 10
2.92113152185143
 20
2.334208728603044
 30
0.0
 11
2.92113152185143
 21
2.201451353777688
 31
0.0
  0
ARC
  5
7DE1B343D9E60A2
330
7DE1B343D9E6116
100
AcDbEntity
  8
TEXT
100
AcDbCircle
 10
3.004429458173603
 20
2.230890644062291
 30
0.0
 40
0.0153818062434269
100
AcDbArc
 50
174.7883570302258
 51
270.0
  0
LWPOLYLINE
  5
7DE1B343D9E60A3
330
7DE1B343D9E6116
100
AcDbEntity
  8
TEXT
100
AcDbPolyline
 90
        2
 70
     0
 43
0.0
 10
2.921131521851428
 20
2.201451353777692
 42
0.3318488747599744
 10
2.990250814416741
 20
2.149900011562763
 42
-6.868794160588311
  0
LINE
  5
7DE1B343D9E60A7
330
7DE1B343D9E6116
100
AcDbEntity
  8
TEXT
100
AcDbLine
 10
3.145643217105437
 20
2.149900011562763
 30
0.0
 11
3.212701263887277
 21
2.149900011562763
 31
0.0
  0
LINE
  5
7DE1B343D9E60A8
330
7DE1B343D9E6116
100
AcDbEntity
  8
TEXT
100
AcDbLine
 10
3.145643217105437
 20
2.344542560728399
 30
0.0
 11
3.145643217105437
 21
2.149900011562763
 31
0.0
  0
LINE
  5
7DE1B343D9E60A9
330
7DE1B343D9E6116
100
AcDbEntity
  8
TEXT
100
AcDbLine
 10
3.088254148116176
 20
2.352096349894509
 30
0.0
 11
3.138089427939323
 21
2.352096349894509
 31
0.0
  0
LINE
  5
7DE1B343D9E60AA
330
7DE1B343D9E6116
100
AcDbEntity
  8
TEXT
100
AcDbLine
 10
3.088254148116176
 20
2.149900011562763
 30
0.0
 11
3.088254148116176
 21
2.352096349894509
 31
0.0
  0
LWPOLYLINE
  5
7DE1B343D9E60AB
330
7DE1B343D9E6116
100
AcDbEntity
  8
TEXT
100
AcDbPolyline
 90
        2
 70
     0
 43
0.0
 10
3.138089427939322
 20
2.352096349894509
 42
-0.4142135623731017
 10
3.145643217105435
 20
2.344542560728399
 42
-0.9999999999999998
  0
LINE
  5
7DE1B343D9E60AF
330
7DE1B343D9E6116
100
AcDbEntity
  8
TEXT
100
AcDbLine
 10
3.343899428717007
 20
2.352096349894509
 30
0.0
 11
3.343899428717007
 21
2.277043943820302
 31
0.0
  0
LINE
  5
7DE1B343D9E60B0
330
7DE1B343D9E6116
100
AcDbEntity
  8
TEXT
100
AcDbLine
 10
3.212701263887277
 20
2.352096349894509
 30
0.0
 11
3.266834860808227
 21
2.352096349894509
 31
0.0
  0
LINE
  5
7DE1B343D9E60B1
330
7DE1B343D9E6116
100
AcDbEntity
  8
TEXT
100
AcDbLine
 10
3.212701263887277
 20
2.149900011562763
 30
0.0
 11
3.212701263887277
 21
2.352096349894509
 31
0.0
  0
LWPOLYLINE
  5
7DE1B343D9E60B2
330
7DE1B343D9E6116
100
AcDbEntity
  8
TEXT
100
AcDbPolyline
 90
        2
 70
     0
 43
0.0
 10
3.266834860808225
 20
2.352096349894509
 42
-0.4142135623731017
 10
3.274388649974339
 20
2.344542560728399
 42
-0.9999999999999998
  0
LWPOLYLINE
  5
7DE1B343D9E60B6
330
7DE1B343D9E6116
100
AcDbEntity
  8
TEXT
100
AcDbPolyline
 90
        4
 70
     0
 43
0.0
 10
3.274388649974339
 20
2.344542560728399
 10
3.274388649974339
 20
2.149900011562763
 10
3.342866933262197
 20
2.149900011562763
 10
3.342866933262197
 20
2.193390956513201
 42
-1.714843617202739
  0
LINE
  5
7DE1B343D9E60BC
330
7DE1B343D9E6116
100
AcDbEntity
  8
TEXT
100
AcDbLine
 10
2.703002765579094
 20
2.416373044551274
 30
0.0
 11
2.703002765579094
 21
2.450760962145412
 31
0.0
  0
LINE
  5
7DE1B343D9E60BD
330
7DE1B343D9E6116
100
AcDbEntity
  8
TEXT
100
AcDbLine
 10
2.774801731723002
 20
2.416373044551274
 30
0.0
 11
2.703002765579094
 21
2.416373044551274
 31
0.0
  0
LINE
  5
7DE1B343D9E60BE
330
7DE1B343D9E6116
100
AcDbEntity
  8
TEXT
100
AcDbLine
 10
2.922302528354181
 20
2.416373044551274
 30
0.0
 11
2.892180615560805
 21
2.416373044551274
 31
0.0
  0
LINE
  5
7DE1B343D9E60BF
330
7DE1B343D9E6116
100
AcDbEntity
  8
TEXT
100
AcDbLine
 10
2.922302528354181
 20
2.484384522290085
 30
0.0
 11
2.922302528354181
 21
2.416373044551274
 31
0.0
  0
LINE
  5
7DE1B343D9E60C0
330
7DE1B343D9E6116
100
AcDbEntity
  8
TEXT
100
AcDbLine
 10
2.989111240920546
 20
2.484384522290085
 30
0.0
 11
2.922302528354181
 21
2.484384522290085
 31
0.0
  0
LWPOLYLINE
  5
7DE1B343D9E60C1
330
7DE1B343D9E6116
100
AcDbEntity
  8
TEXT
100
AcDbPolyline
 90
        3
 70
     0
 43
0.0
 10
3.309523000518549
 20
2.416373044551278
 10
3.191222841702504
 20
2.416373044551278
 10
3.191222841702504
 20
2.389205547790382
 42
-1.960274751411753
  0
LINE
  5
7DE1B343D9E60C6
330
7DE1B343D9E6116
100
AcDbEntity
  8
TEXT
100
AcDbLine
 10
3.155441150989343
 20
2.416373044551274
 30
0.0
 11
3.021423095058207
 21
2.416373044551274
 31
0.0
  0
LWPOLYLINE
  5
7DE1B343D9E60C7
330
7DE1B343D9E6116
100
AcDbEntity
  8
TEXT
100
AcDbPolyline
 90
        2
 70
     0
 43
0.0
 10
3.155441150989343
 20
2.416373044551278
 42
-0.3328679258950098
 10
3.191222841702504
 20
2.389205547790382
 42
6.772930709997214
  0
LINE
  5
7DE1B343D9E60CB
330
7DE1B343D9E6116
100
AcDbEntity
  8
TEXT
100
AcDbLine
 10
3.345304691231715
 20
2.416373044551274
 30
0.0
 11
3.345304691231715
 21
2.38805049878163
 31
0.0
  0
LWPOLYLINE
  5
7DE1B343D9E60CC
330
7DE1B343D9E6116
100
AcDbEntity
  8
TEXT
100
AcDbPolyline
 90
        2
 70
     0
 43
0.0
 10
3.309523000518549
 20
2.416373044551278
 42
-0.3277054968067132
 10
3.345304691231714
 20
2.388050498781634
 42
6.667889725900311
  0
LINE
  5
7DE1B343D9E60D0
330
7DE1B343D9E6116
100
AcDbEntity
  8
TEXT
100
AcDbLine
 10
3.559096539323816
 20
2.311161065997847
 30
0.0
 11
3.515345768141914
 21
2.393411341993992
 31
0.0
  0
LINE
  5
7DE1B343D9E60D1
330
7DE1B343D9E6116
100
AcDbEntity
  8
TEXT
100
AcDbLine
 10
3.559096539323816
 20
2.416373044551274
 30
0.0
 11
3.559096539323816
 21
2.311161065997847
 31
0.0
  0
LINE
  5
7DE1B343D9E60D2
330
7DE1B343D9E6116
100
AcDbEntity
  8
TEXT
100
AcDbLine
 10
3.786780278262185
 20
2.340507718139736
 30
0.0
 11
3.786780278262185
 21
2.481837250318875
 31
0.0
  0
LINE
  5
7DE1B343D9E60D3
330
7DE1B343D9E6116
100
AcDbEntity
  8
TEXT
100
AcDbLine
 10
3.833878436818169
 20
2.416373044551274
 30
0.0
 11
3.786780278262185
 21
2.340507718139736
 31
0.0
  0
LINE
  5
7DE1B343D9E60D4
330
7DE1B343D9E6116
100
AcDbEntity
  8
TEXT
100
AcDbLine
 10
3.844313153582092
 20
2.306479801610301
 30
0.0
 11
3.908870269547797
 21
2.416373044551274
 31
0.0
  0
LINE
  5
7DE1B343D9E60D5
330
7DE1B343D9E6116
100
AcDbEntity
  8
TEXT
100
AcDbLine
 10
3.722945287039411
 20
2.149900011562763
 30
0.0
 11
3.787323471358032
 21
2.149900011562763
 31
0.0
  0
LWPOLYLINE
  5
7DE1B343D9E60D6
330
7DE1B343D9E6116
100
AcDbEntity
  8
TEXT
100
AcDbPolyline
 90
        2
 70
     0
 43
0.0
 10
3.563036216628853
 20
2.193390956513201
 42
-0.2901071551932486
 10
3.519960283761209
 20
2.149900011562763
 42
-5.328517124445184
  0
ARC
  5
7DE1B343D9E60DA
330
7DE1B343D9E6116
100
AcDbEntity
  8
TEXT
100
AcDbCircle
 10
3.451105702104294
 20
2.323736974894512
 30
0.0
 40
0.028359375
100
AcDbArc
 50
25.78218179591245
 51
90.0
  0
LINE
  5
7DE1B343D9E60DB
330
7DE1B343D9E6116
100
AcDbEntity
  8
TEXT
100
AcDbLine
 10
3.486906777408417
 20
2.314821376432377
 30
0.0
 11
3.476642016994853
 21
2.336071916005071
 31
0.0
  0
LINE
  5
7DE1B343D9E60DC
330
7DE1B343D9E6116
100
AcDbEntity
  8
TEXT
100
AcDbLine
 10
3.404618787625034
 20
2.314821376432377
 30
0.0
 11
3.486906777408417
 21
2.314821376432377
 31
0.0
  0
LWPOLYLINE
  5
7DE1B343D9E60DD
330
7DE1B343D9E6116
100
AcDbEntity
  8
TEXT
100
AcDbPolyline
 90
        4
 70
     1
 43
0.0
 10
3.499837818691316
 20
2.252863989546789
 10
3.411177500031458
 20
2.252863989546789
 42
0.9999999999999998
 10
3.411177500031458
 20
2.210465449042928
 10
3.499837818691316
 20
2.210465449042928
 42
1.0
  0
LWPOLYLINE
  5
7DE1B343D9E60E3
330
7DE1B343D9E6116
100
AcDbEntity
  8
TEXT
100
AcDbPolyline
 90
        2
 70
     0
 43
0.0
 10
3.385942866129832
 20
2.149900011562763
 10
3.519960283761209
 20
2.149900011562763
 42
0.9999999999999998
  0
LINE
  5
7DE1B343D9E60E7
330
7DE1B343D9E6116
100
AcDbEntity
  8
TEXT
100
AcDbLine
 10
3.646297305746848
 20
2.352096349894509
 30
0.0
 11
3.722945287039406
 21
2.352096349894509
 31
0.0
  0
LINE
  5
7DE1B343D9E60E8
330
7DE1B343D9E6116
100
AcDbEntity
  8
TEXT
100
AcDbLine
 10
3.722945287039406
 20
2.352096349894509
 30
0.0
 11
3.722945287039411
 21
2.149900011562763
 31
0.0
  0
ARC
  5
7DE1B343D9E60E9
330
7DE1B343D9E6116
100
AcDbEntity
  8
TEXT
100
AcDbCircle
 10
3.646297305746847
 20
2.327190474611846
 30
0.0
 40
0.0249058752826653
100
AcDbArc
 50
89.99971217465335
 51
179.9999999999985
  0
LINE
  5
7DE1B343D9E60EA
330
7DE1B343D9E6116
100
AcDbEntity
  8
TEXT
100
AcDbLine
 10
3.621391430464189
 20
2.149900011562763
 30
0.0
 11
3.621391430464184
 21
2.327190516994232
 31
0.0
  0
LWPOLYLINE
  5
7DE1B343D9E60EB
330
7DE1B343D9E6116
100
AcDbEntity
  8
TEXT
100
AcDbPolyline
 90
        2
 70
     0
 43
0.0
 10
3.563036216628853
 20
2.149900011562763
 10
3.621391430464187
 20
2.149900011562763
  0
LWPOLYLINE
  5
7DE1B343D9E60EF
330
7DE1B343D9E6116
100
AcDbEntity
  8
TEXT
100
AcDbPolyline
 90
        2
 70
     0
 43
0.0
 10
3.563036216628853
 20
2.193390956513201
 10
3.563036216628853
 20
2.149900011562763
  0
LINE
  5
7DE1B343D9E60F3
330
7DE1B343D9E6116
100
AcDbEntity
  8
TEXT
100
AcDbLine
 10
3.939805376945702
 20
2.149900011562763
 30
0.0
 11
3.844313153582092
 21
2.306479801610301
 31
0.0
  0
LINE
  5
7DE1B343D9E60F4
330
7DE1B343D9E6116
100
AcDbEntity
  8
TEXT
100
AcDbLine
 10
3.863227004569496
 20
2.149900011562763
 30
0.0
 11
3.939805376945702
 21
2.149900011562763
 31
0.0
  0
LINE
  5
7DE1B343D9E60F5
330
7DE1B343D9E6116
100
AcDbEntity
  8
TEXT
100
AcDbLine
 10
3.787323471358032
 20
2.281479580038944
 30
0.0
 11
3.863227004569496
 21
2.149900011562763
 31
0.0
  0
LINE
  5
7DE1B343D9E60F6
330
7DE1B343D9E6116
100
AcDbEntity
  8
TEXT
100
AcDbLine
 10
3.787323471358032
 20
2.149900011562763
 30
0.0
 11
3.787323471358032
 21
2.281479580038944
 31
0.0
  0
LINE
  5
7DE1B343D9E60F7
330
7DE1B343D9E6116
100
AcDbEntity
  8
TEXT
100
AcDbLine
 10
3.786780278262185
 20
2.481837250318875
 30
0.0
 11
3.718465399712911
 21
2.481837250318875
 31
0.0
  0
ARC
  5
7DE1B343D9E60F8
330
7DE1B343D9E6116
100
AcDbEntity
  8
TEXT
100
AcDbCircle
 10
3.478109660671705
 20
2.374789477430372
 30
0.0
 40
0.0416329381542859
100
AcDbArc
 50
26.56974201007528
 51
87.20939649401342
  0
LINE
  5
7DE1B343D9E60F9
330
7DE1B343D9E6116
100
AcDbEntity
  8
TEXT
100
AcDbLine
 10
3.622993445623317
 20
2.416373044551274
 30
0.0
 11
3.559096539323816
 21
2.416373044551274
 31
0.0
  0
LINE
  5
7DE1B343D9E60FA
330
7DE1B343D9E6116
100
AcDbEntity
  8
TEXT
100
AcDbLine
 10
3.622993445623317
 20
2.3888253946904
 30
0.0
 11
3.622993445623317
 21
2.416373044551274
 31
0.0
  0
ARC
  5
7DE1B343D9E60FB
330
7DE1B343D9E6116
100
AcDbEntity
  8
TEXT
100
AcDbCircle
 10
3.654186262686424
 20
2.385127317269009
 30
0.0
 40
0.0314112657011332
100
AcDbArc
 50
95.88484768694724
 51
173.2388340632136
  0
LINE
  5
7DE1B343D9E60FC
330
7DE1B343D9E6116
100
AcDbEntity
  8
TEXT
100
AcDbLine
 10
3.718465399712906
 20
2.416373044551274
 30
0.0
 11
3.65096568206339
 21
2.416373044551274
 31
0.0
  0
LINE
  5
7DE1B343D9E60FD
330
7DE1B343D9E6116
100
AcDbEntity
  8
TEXT
100
AcDbLine
 10
3.718465399712911
 20
2.481837250318875
 30
0.0
 11
3.718465399712906
 21
2.416373044551274
 31
0.0
  0
LINE
  5
7DE1B343D9E60FE
330
7DE1B343D9E6116
100
AcDbEntity
  8
TEXT
100
AcDbLine
 10
3.908870269547797
 20
2.416373044551274
 30
0.0
 11
3.833878436818171
 21
2.416373044551274
 31
0.0
  0
ENDSEC
  0
SECTION
  2
OBJECTS
  0
DICTIONARY
  5
7DE1B343D9E610A
330
0
100
AcDbDictionary
  3
ACAD_GROUP
350
7DE1B343D9E610B
  3
ACAD_LAYOUT
350
7DE1B343D9E6130
  3
ACAD_MLINESTYLE
350
7DE1B343D9E610C
  3
ACAD_PLOTSETTINGS
350
7DE1B343D9E6131
  3
ACAD_PLOTSTYLENAME
350
7DE1B343D9E612E
  3
ACDBHEADERROUNDTRIPXREC
350
7DE1B343D9E613B
  3
ACDBVARIABLEDICTIONARY
350
7DE1B343D9E6138
  0
DICTIONARY
  5
7DE1B343D9E615D
330
7DE1B343D9E6116
100
AcDbDictionary
280
     1
  3
ACAD_LAYOUTSELFREF
360
7DE1B343D9E615E
  0
DICTIONARY
  5
7DE1B343D9E615B
330
7DE1B343D9E6113
100
AcDbDictionary
280
     1
  3
ACAD_LAYOUTSELFREF
360
7DE1B343D9E615C
  0
DICTIONARY
  5
7DE1B343D9E610B
102
{ACAD_REACTORS
330
7DE1B343D9E610A
102
}
330
7DE1B343D9E610A
100
AcDbDictionary
  0
DICTIONARY
  5
7DE1B343D9E6130
102
{ACAD_REACTORS
330
7DE1B343D9E610A
102
}
330
7DE1B343D9E610A
100
AcDbDictionary
  0
DICTIONARY
  5
7DE1B343D9E610C
102
{ACAD_REACTORS
330
7DE1B343D9E610A
102
}
330
7DE1B343D9E610A
100
AcDbDictionary
  3
STANDARD
350
7DE1B343D9E6119
  0
DICTIONARY
  5
7DE1B343D9E6131
102
{ACAD_REACTORS
330
7DE1B343D9E610A
102
}
330
7DE1B343D9E610A
100
AcDbDictionary
  0
ACDBDICTIONARYWDFLT
  5
7DE1B343D9E612E
102
{ACAD_REACTORS
330
7DE1B343D9E610A
102
}
330
7DE1B343D9E610A
100
AcDbDictionary
281
     1
  3
Normal
350
7DE1B343D9E612F
100
AcDbDictionaryWithDefault
340
7DE1B343D9E612F
  0
DICTIONARY
  5
7DE1B343D9E613B
102
{ACAD_REACTORS
330
7DE1B343D9E610A
102
}
330
7DE1B343D9E610A
100
AcDbDictionary
  3
CEPSNTYPE
350
7DE1B343D9E6145
  3
FINGERPRINTGUID
350
7DE1B343D9E6146
  3
HYPERLINKBASE
350
7DE1B343D9E613E
  3
INSUNITS
350
7DE1B343D9E6144
  3
LAYOUTDICT
350
7DE1B343D9E6140
  3
LWETCUNION
350
7DE1B343D9E6143
  3
PLOTSETDICT
350
7DE1B343D9E6141
  3
PLOTSTYLNAMDICT
350
7DE1B343D9E6142
  3
PSVPSCALE
350
7DE1B343D9E6148
  3
PUCSBASE
350
7DE1B343D9E614B
  3
PUCSORGBACK
350
7DE1B343D9E6151
  3
PUCSORGBOTTOM
350
7DE1B343D9E614D
  3
PUCSORGFRONT
350
7DE1B343D9E6150
  3
PUCSORGLEFT
350
7DE1B343D9E614E
  3
PUCSORGRIGHT
350
7DE1B343D9E614F
  3
PUCSORGTOP
350
7DE1B343D9E614C
  3
PUCSORTHOREF
350
7DE1B343D9E6149
  3
PUCSORTHOVIEW
350
7DE1B343D9E614A
  3
STYLESHEET
350
7DE1B343D9E613F
  3
TSTACKALIGN
350
7DE1B343D9E613C
  3
TSTACKSIZE
350
7DE1B343D9E613D
  3
UCSBASE
350
7DE1B343D9E6154
  3
UCSORGBACK
350
7DE1B343D9E615A
  3
UCSORGBOTTOM
350
7DE1B343D9E6156
  3
UCSORGFRONT
350
7DE1B343D9E6159
  3
UCSORGLEFT
350
7DE1B343D9E6157
  3
UCSORGRIGHT
350
7DE1B343D9E6158
  3
UCSORGTOP
350
7DE1B343D9E6155
  3
UCSORTHOREF
350
7DE1B343D9E6152
  3
UCSORTHOVIEW
350
7DE1B343D9E6153
  3
VERSIONGUID
350
7DE1B343D9E6147
  0
DICTIONARY
  5
7DE1B343D9E6138
102
{ACAD_REACTORS
330
7DE1B343D9E610A
102
}
330
7DE1B343D9E610A
100
AcDbDictionary
  3
DIMASSOC
350
7DE1B343D9E6139
  0
XRECORD
  5
7DE1B343D9E615E
102
{ACAD_REACTORS
330
7DE1B343D9E615D
102
}
330
7DE1B343D9E615D
100
AcDbXrecord
340
7DE1B343D9E6116
  0
XRECORD
  5
7DE1B343D9E615C
102
{ACAD_REACTORS
330
7DE1B343D9E615B
102
}
330
7DE1B343D9E615B
100
AcDbXrecord
340
7DE1B343D9E6113
  0
MLINESTYLE
  5
7DE1B343D9E6119
102
{ACAD_REACTORS
330
7DE1B343D9E610C
102
}
330
7DE1B343D9E610C
100
AcDbMlineStyle
  2
STANDARD
 70
     0
  3

 62
     0
 51
90.0
 52
90.0
 71
     2
 49
0.5
 62
   256
  6
BYLAYER
 49
-0.5
 62
   256
  6
BYLAYER
  0
ACDBPLACEHOLDER
  5
7DE1B343D9E612F
102
{ACAD_REACTORS
330
7DE1B343D9E612E
102
}
330
7DE1B343D9E612E
100
AcDbPlaceHolder
280
     0
  0
XRECORD
  5
7DE1B343D9E6145
102
{ACAD_REACTORS
330
7DE1B343D9E613B
102
}
330
7DE1B343D9E613B
100
AcDbXrecord
 90
        0
  0
XRECORD
  5
7DE1B343D9E6146
102
{ACAD_REACTORS
330
7DE1B343D9E613B
102
}
330
7DE1B343D9E613B
100
AcDbXrecord
  1
{78F2CCB0-8DB6-11D6-88E6-0090279574E7}
  0
XRECORD
  5
7DE1B343D9E613E
102
{ACAD_REACTORS
330
7DE1B343D9E613B
102
}
330
7DE1B343D9E613B
100
AcDbXrecord
  1

  0
XRECORD
  5
7DE1B343D9E6144
102
{ACAD_REACTORS
330
7DE1B343D9E613B
102
}
330
7DE1B343D9E613B
100
AcDbXrecord
 90
        0
  0
XRECORD
  5
7DE1B343D9E6140
102
{ACAD_REACTORS
330
7DE1B343D9E613B
102
}
330
7DE1B343D9E613B
100
AcDbXrecord
340
7DE1B343D9E6130
  0
XRECORD
  5
7DE1B343D9E6143
102
{ACAD_REACTORS
330
7DE1B343D9E613B
102
}
330
7DE1B343D9E613B
100
AcDbXrecord
 90
    14877
  0
XRECORD
  5
7DE1B343D9E6141
102
{ACAD_REACTORS
330
7DE1B343D9E613B
102
}
330
7DE1B343D9E613B
100
AcDbXrecord
340
7DE1B343D9E6131
  0
XRECORD
  5
7DE1B343D9E6142
102
{ACAD_REACTORS
330
7DE1B343D9E613B
102
}
330
7DE1B343D9E613B
100
AcDbXrecord
340
7DE1B343D9E612E
  0
XRECORD
  5
7DE1B343D9E6148
102
{ACAD_REACTORS
330
7DE1B343D9E613B
102
}
330
7DE1B343D9E613B
100
AcDbXrecord
 40
0.0
  0
XRECORD
  5
7DE1B343D9E614B
102
{ACAD_REACTORS
330
7DE1B343D9E613B
102
}
330
7DE1B343D9E613B
100
AcDbXrecord
340
0
  0
XRECORD
  5
7DE1B343D9E6151
102
{ACAD_REACTORS
330
7DE1B343D9E613B
102
}
330
7DE1B343D9E613B
100
AcDbXrecord
 10
0.0
 20
0.0
 30
0.0
  0
XRECORD
  5
7DE1B343D9E614D
102
{ACAD_REACTORS
330
7DE1B343D9E613B
102
}
330
7DE1B343D9E613B
100
AcDbXrecord
 10
0.0
 20
0.0
 30
0.0
  0
XRECORD
  5
7DE1B343D9E6150
102
{ACAD_REACTORS
330
7DE1B343D9E613B
102
}
330
7DE1B343D9E613B
100
AcDbXrecord
 10
0.0
 20
0.0
 30
0.0
  0
XRECORD
  5
7DE1B343D9E614E
102
{ACAD_REACTORS
330
7DE1B343D9E613B
102
}
330
7DE1B343D9E613B
100
AcDbXrecord
 10
0.0
 20
0.0
 30
0.0
  0
XRECORD
  5
7DE1B343D9E614F
102
{ACAD_REACTORS
330
7DE1B343D9E613B
102
}
330
7DE1B343D9E613B
100
AcDbXrecord
 10
0.0
 20
0.0
 30
0.0
  0
XRECORD
  5
7DE1B343D9E614C
102
{ACAD_REACTORS
330
7DE1B343D9E613B
102
}
330
7DE1B343D9E613B
100
AcDbXrecord
 10
0.0
 20
0.0
 30
0.0
  0
XRECORD
  5
7DE1B343D9E6149
102
{ACAD_REACTORS
330
7DE1B343D9E613B
102
}
330
7DE1B343D9E613B
100
AcDbXrecord
340
0
  0
XRECORD
  5
7DE1B343D9E614A
102
{ACAD_REACTORS
330
7DE1B343D9E613B
102
}
330
7DE1B343D9E613B
100
AcDbXrecord
 70
     0
  0
XRECORD
  5
7DE1B343D9E613F
102
{ACAD_REACTORS
330
7DE1B343D9E613B
102
}
330
7DE1B343D9E613B
100
AcDbXrecord
  1

  0
XRECORD
  5
7DE1B343D9E613C
102
{ACAD_REACTORS
330
7DE1B343D9E613B
102
}
330
7DE1B343D9E613B
100
AcDbXrecord
 90
        1
  0
XRECORD
  5
7DE1B343D9E613D
102
{ACAD_REACTORS
330
7DE1B343D9E613B
102
}
330
7DE1B343D9E613B
100
AcDbXrecord
 90
       70
  0
XRECORD
  5
7DE1B343D9E6154
102
{ACAD_REACTORS
330
7DE1B343D9E613B
102
}
330
7DE1B343D9E613B
100
AcDbXrecord
340
0
  0
XRECORD
  5
7DE1B343D9E615A
102
{ACAD_REACTORS
330
7DE1B343D9E613B
102
}
330
7DE1B343D9E613B
100
AcDbXrecord
 10
0.0
 20
0.0
 30
0.0
  0
XRECORD
  5
7DE1B343D9E6156
102
{ACAD_REACTORS
330
7DE1B343D9E613B
102
}
330
7DE1B343D9E613B
100
AcDbXrecord
 10
0.0
 20
0.0
 30
0.0
  0
XRECORD
  5
7DE1B343D9E6159
102
{ACAD_REACTORS
330
7DE1B343D9E613B
102
}
330
7DE1B343D9E613B
100
AcDbXrecord
 10
0.0
 20
0.0
 30
0.0
  0
XRECORD
  5
7DE1B343D9E6157
102
{ACAD_REACTORS
330
7DE1B343D9E613B
102
}
330
7DE1B343D9E613B
100
AcDbXrecord
 10
0.0
 20
0.0
 30
0.0
  0
XRECORD
  5
7DE1B343D9E6158
102
{ACAD_REACTORS
330
7DE1B343D9E613B
102
}
330
7DE1B343D9E613B
100
AcDbXrecord
 10
0.0
 20
0.0
 30
0.0
  0
XRECORD
  5
7DE1B343D9E6155
102
{ACAD_REACTORS
330
7DE1B343D9E613B
102
}
330
7DE1B343D9E613B
100
AcDbXrecord
 10
0.0
 20
0.0
 30
0.0
  0
XRECORD
  5
7DE1B343D9E6152
102
{ACAD_REACTORS
330
7DE1B343D9E613B
102
}
330
7DE1B343D9E613B
100
AcDbXrecord
340
0
  0
XRECORD
  5
7DE1B343D9E6153
102
{ACAD_REACTORS
330
7DE1B343D9E613B
102
}
330
7DE1B343D9E613B
100
AcDbXrecord
 70
     0
  0
XRECORD
  5
7DE1B343D9E6147
102
{ACAD_REACTORS
330
7DE1B343D9E613B
102
}
330
7DE1B343D9E613B
100
AcDbXrecord
  1
{78F2CCB2-8DB6-11D6-88E6-0090279574E7}
  0
DICTIONARYVAR
  5
7DE1B343D9E6139
102
{ACAD_REACTORS
330
7DE1B343D9E6138
102
}
330
7DE1B343D9E6138
100
DictionaryVariables
280
     0
  1
1
  0
ENDSEC
  0
EOF
