  0
SECTION
  2
HEADER
  9
$ACADVER
  1
AC1014
  9
$ACADMAINTVER
 70
     9
  9
$DWGCODEPAGE
  3
ANSI_1252
  9
$INSBASE
 10
1.734756091092969
 20
1.459380866837318
 30
0.0
  9
$EXTMIN
 10
-0.0143230271624617
 20
0.4102977644053483
 30
0.0
  9
$EXTMAX
 10
3.470896294584665
 20
1.861493789079719
 30
0.0
  9
$LIMMIN
 10
0.0
 20
0.0
  9
$LIMMAX
 10
18.0
 20
12.0
  9
$ORTHOMODE
 70
     1
  9
$REGENMODE
 70
     1
  9
$FILLMODE
 70
     1
  9
$QTEXTMODE
 70
     0
  9
$MIRRTEXT
 70
     0
  9
$DRAGMODE
 70
     2
  9
$LTSCALE
 40
1.0
  9
$OSMODE
 70
    39
  9
$ATTMODE
 70
     1
  9
$TEXTSIZE
 40
0.125
  9
$TRACEWID
 40
0.05
  9
$TEXTSTYLE
  7
ROMANS
  9
$CLAYER
  8
0
  9
$CELTYPE
  6
BYLAYER
  9
$CECOLOR
 62
   256
  9
$CELTSCALE
 40
1.0
  9
$DELOBJ
 70
     1
  9
$DISPSILH
 70
     1
  9
$DIMSCALE
 40
1.0
  9
$DIMASZ
 40
0.125
  9
$DIMEXO
 40
0.125
  9
$DIMDLI
 40
0.375
  9
$DIMRND
 40
0.0
  9
$DIMDLE
 40
0.0
  9
$DIMEXE
 40
0.125
  9
$DIMTP
 40
0.0
  9
$DIMTM
 40
0.0
  9
$DIMTXT
 40
0.125
  9
$DIMCEN
 40
-0.125
  9
$DIMTSZ
 40
0.0
  9
$DIMTOL
 70
     0
  9
$DIMLIM
 70
     0
  9
$DIMTIH
 70
     1
  9
$DIMTOH
 70
     1
  9
$DIMSE1
 70
     0
  9
$DIMSE2
 70
     0
  9
$DIMTAD
 70
     0
  9
$DIMZIN
 70
     4
  9
$DIMBLK
  1

  9
$DIMASO
 70
     1
  9
$DIMSHO
 70
     1
  9
$DIMPOST
  1

  9
$DIMAPOST
  1

  9
$DIMALT
 70
     0
  9
$DIMALTD
 70
     2
  9
$DIMALTF
 40
25.4
  9
$DIMLFAC
 40
1.0
  9
$DIMTOFL
 70
     0
  9
$DIMTVP
 40
0.0
  9
$DIMTIX
 70
     1
  9
$DIMSOXD
 70
     0
  9
$DIMSAH
 70
     0
  9
$DIMBLK1
  1

  9
$DIMBLK2
  1

  9
$DIMSTYLE
  2
STANDARD
  9
$DIMCLRD
 70
     0
  9
$DIMCLRE
 70
     0
  9
$DIMCLRT
 70
     0
  9
$DIMTFAC
 40
1.0
  9
$DIMGAP
 40
0.09
  9
$DIMJUST
 70
     0
  9
$DIMSD1
 70
     0
  9
$DIMSD2
 70
     0
  9
$DIMTOLJ
 70
     1
  9
$DIMTZIN
 70
     4
  9
$DIMALTZ
 70
     0
  9
$DIMALTTZ
 70
     0
  9
$DIMFIT
 70
     3
  9
$DIMUPT
 70
     0
  9
$DIMUNIT
 70
     2
  9
$DIMDEC
 70
     3
  9
$DIMTDEC
 70
     3
  9
$DIMALTU
 70
     2
  9
$DIMALTTD
 70
     2
  9
$DIMTXSTY
  7
ROMANS
  9
$DIMAUNIT
 70
     0
  9
$LUNITS
 70
     2
  9
$LUPREC
 70
     3
  9
$SKETCHINC
 40
0.1
  9
$FILLETRAD
 40
0.03125
  9
$AUNITS
 70
     0
  9
$AUPREC
 70
     0
  9
$MENU
  1
ACAD
  9
$ELEVATION
 40
0.0
  9
$PELEVATION
 40
0.0
  9
$THICKNESS
 40
0.0
  9
$LIMCHECK
 70
     0
  9
$BLIPMODE
 70
     0
  9
$CHAMFERA
 40
0.0
  9
$CHAMFERB
 40
0.0
  9
$CHAMFERC
 40
0.0
  9
$CHAMFERD
 40
0.0
  9
$SKPOLY
 70
     0
  9
$TDCREATE
 40
2448994.583698958
  9
$TDUPDATE
 40
2452458.307707708
  9
$TDINDWG
 40
0.0006015625
  9
$TDUSRTIMER
 40
0.0006015625
  9
$USRTIMER
 70
     1
  9
$ANGBASE
 50
0.0
  9
$ANGDIR
 70
     0
  9
$PDMODE
 70
     0
  9
$PDSIZE
 40
0.0
  9
$PLINEWID
 40
0.0
  9
$COORDS
 70
     2
  9
$SPLFRAME
 70
     0
  9
$SPLINETYPE
 70
     6
  9
$SPLINESEGS
 70
     8
  9
$ATTDIA
 70
     0
  9
$ATTREQ
 70
     1
  9
$HANDLING
 70
 22529
  9
$HANDSEED
  5
7DE1B343D9E608C
  9
$SURFTAB1
 70
     6
  9
$SURFTAB2
 70
     6
  9
$SURFTYPE
 70
     6
  9
$SURFU
 70
     6
  9
$SURFV
 70
     6
  9
$UCSNAME
  2

  9
$UCSORG
 10
0.0
 20
0.0
 30
0.0
  9
$UCSXDIR
 10
1.0
 20
0.0
 30
0.0
  9
$UCSYDIR
 10
0.0
 20
1.0
 30
0.0
  9
$PUCSNAME
  2

  9
$PUCSORG
 10
0.0
 20
0.0
 30
0.0
  9
$PUCSXDIR
 10
1.0
 20
0.0
 30
0.0
  9
$PUCSYDIR
 10
0.0
 20
1.0
 30
0.0
  9
$USERI1
 70
     0
  9
$USERI2
 70
     0
  9
$USERI3
 70
     0
  9
$USERI4
 70
     0
  9
$USERI5
 70
     0
  9
$USERR1
 40
0.0
  9
$USERR2
 40
0.0
  9
$USERR3
 40
0.0
  9
$USERR4
 40
0.0
  9
$USERR5
 40
0.0
  9
$WORLDVIEW
 70
     1
  9
$SHADEDGE
 70
     3
  9
$SHADEDIF
 70
    70
  9
$TILEMODE
 70
     1
  9
$MAXACTVP
 70
    16
  9
$PINSBASE
 10
0.0
 20
0.0
 30
0.0
  9
$PLIMCHECK
 70
     0
  9
$PEXTMIN
 10
1.000000000000000E+20
 20
1.000000000000000E+20
 30
1.000000000000000E+20
  9
$PEXTMAX
 10
-1.000000000000000E+20
 20
-1.000000000000000E+20
 30
-1.000000000000000E+20
  9
$PLIMMIN
 10
0.0
 20
0.0
  9
$PLIMMAX
 10
12.0
 20
9.0
  9
$UNITMODE
 70
     0
  9
$VISRETAIN
 70
     0
  9
$PLINEGEN
 70
     1
  9
$PSLTSCALE
 70
     0
  9
$TREEDEPTH
 70
  3020
  9
$PICKSTYLE
 70
     1
  9
$CMLSTYLE
  2
STANDARD
  9
$CMLJUST
 70
     0
  9
$CMLSCALE
 40
1.0
  9
$PROXYGRAPHICS
 70
     1
  9
$MEASUREMENT
 70
     0
  0
ENDSEC
  0
SECTION
  2
CLASSES
  0
CLASS
  1
LWPOLYLINE
  2
AcDbPolyline
  3
AutoCAD 2000
 90
        0
280
     0
281
     1
  0
CLASS
  1
ACDBDICTIONARYWDFLT
  2
AcDbDictionaryWithDefault
  3
AutoCAD 2000
 90
        0
280
     0
281
     0
  0
CLASS
  1
ACDBPLACEHOLDER
  2
AcDbPlaceHolder
  3
AutoCAD 2000
 90
        0
280
     0
281
     0
  0
CLASS
  1
LAYOUT
  2
AcDbLayout
  3
AutoCAD 2000
 90
        0
280
     0
281
     0
  0
CLASS
  1
DICTIONARYVAR
  2
AcDbDictionaryVar
  3
AutoCAD 2000
 90
        0
280
     0
281
     0
  0
CLASS
  1
LONG_TRANSACTION
  2
AcDbLongTransaction
  3
AutoCAD 2000
 90
        0
280
     0
281
     0
  0
CLASS
  1
LWPOLYLINE
  2
AcDbPolyline
  3
AutoCAD 2000
 90
        0
280
     0
281
     1
  0
CLASS
  1
HATCH
  2
AcDbHatch
  3
AutoCAD 2000
 90
        0
280
     0
281
     1
  0
CLASS
  1
XRECORD
  2
AcDbXrecord
  3
AutoCAD 2000
 90
        0
280
     0
281
     0
  0
ENDSEC
  0
SECTION
  2
TABLES
  0
TABLE
  2
VPORT
  5
7DE1B343D9E6033
330
0
100
AcDbSymbolTable
 70
     2
  0
VPORT
  5
7DE1B343D9E6067
330
7DE1B343D9E6033
100
AcDbSymbolTableRecord
100
AcDbViewportTableRecord
  2
*ACTIVE
 70
     0
 10
0.0
 20
0.0
 11
1.0
 21
1.0
 12
4.704891342473051
 22
1.135803244933256
 13
0.0
 23
0.0
 14
0.015625
 24
0.015625
 15
0.0
 25
0.0
 16
0.0
 26
0.0
 36
1.0
 17
0.0
 27
0.0
 37
0.0
 40
2.282664073021084
 41
4.320930232558139
 42
50.0
 43
0.0
 44
0.0
 50
0.0
 51
0.0
 71
     0
 72
  2000
 73
     1
 74
     0
 75
     0
 76
     0
 77
     0
 78
     0
  0
ENDTAB
  0
TABLE
  2
LTYPE
  5
7DE1B343D9E6030
330
0
100
AcDbSymbolTable
 70
     1
  0
LTYPE
  5
7DE1B343D9E603D
330
7DE1B343D9E6030
100
AcDbSymbolTableRecord
100
AcDbLinetypeTableRecord
  2
BYBLOCK
 70
     0
  3

 72
    65
 73
     0
 40
0.0
  0
LTYPE
  5
7DE1B343D9E603E
330
7DE1B343D9E6030
100
AcDbSymbolTableRecord
100
AcDbLinetypeTableRecord
  2
BYLAYER
 70
     0
  3

 72
    65
 73
     0
 40
0.0
  0
LTYPE
  5
7DE1B343D9E603F
330
7DE1B343D9E6030
100
AcDbSymbolTableRecord
100
AcDbLinetypeTableRecord
  2
CONTINUOUS
 70
     0
  3
Solid line
 72
    65
 73
     0
 40
0.0
  0
ENDTAB
  0
TABLE
  2
LAYER
  5
7DE1B343D9E602D
330
0
100
AcDbSymbolTable
 70
     2
  0
LAYER
  5
7DE1B343D9E603A
330
7DE1B343D9E602D
100
AcDbSymbolTableRecord
100
AcDbLayerTableRecord
  2
0
 70
     0
 62
     7
  6
CONTINUOUS
  0
LAYER
  5
7DE1B343D9E604A
330
7DE1B343D9E602D
100
AcDbSymbolTableRecord
100
AcDbLayerTableRecord
  2
TEXT
 70
     0
 62
     3
  6
CONTINUOUS
  0
ENDTAB
  0
TABLE
  2
STYLE
  5
7DE1B343D9E602E
330
0
100
AcDbSymbolTable
 70
     3
  0
STYLE
  5
7DE1B343D9E603B
330
7DE1B343D9E602E
100
AcDbSymbolTableRecord
100
AcDbTextStyleTableRecord
  2
STANDARD
 70
     0
 40
0.0
 41
1.0
 50
0.0
 71
     0
 42
0.3125
  3
txt
  4

  0
STYLE
  5
7DE1B343D9E6047
330
7DE1B343D9E602E
100
AcDbSymbolTableRecord
100
AcDbTextStyleTableRecord
  2
ITALICC
 70
     0
 40
0.0
 41
1.0
 50
0.0
 71
     0
 42
0.125
  3
italicc
  4

  0
STYLE
  5
7DE1B343D9E6057
330
7DE1B343D9E602E
100
AcDbSymbolTableRecord
100
AcDbTextStyleTableRecord
  2
ROMANS
 70
     0
 40
0.0
 41
1.0
 50
0.0
 71
     0
 42
0.125
  3
romans.shx
  4

  0
ENDTAB
  0
TABLE
  2
VIEW
  5
7DE1B343D9E6031
330
0
100
AcDbSymbolTable
 70
     0
  0
ENDTAB
  0
TABLE
  2
UCS
  5
7DE1B343D9E6032
330
0
100
AcDbSymbolTable
 70
     0
  0
ENDTAB
  0
TABLE
  2
APPID
  5
7DE1B343D9E6034
330
0
100
AcDbSymbolTable
 70
     1
  0
APPID
  5
7DE1B343D9E603C
330
7DE1B343D9E6034
100
AcDbSymbolTableRecord
100
AcDbRegAppTableRecord
  2
ACAD
 70
     0
  0
ENDTAB
  0
TABLE
  2
DIMSTYLE
  5
7DE1B343D9E6035
330
0
100
AcDbSymbolTable
 70
     1
  0
DIMSTYLE
105
7DE1B343D9E604F
330
7DE1B343D9E6035
100
AcDbSymbolTableRecord
100
AcDbDimStyleTableRecord
  2
STANDARD
 70
     0
  3

  4

  5

  6

  7

 40
1.0
 41
0.125
 42
0.125
 43
0.375
 44
0.125
 45
0.0
 46
0.0
 47
0.0
 48
0.0
140
0.125
141
-0.125
142
0.0
143
25.4
144
1.0
145
0.0
146
1.0
147
0.09
 71
     0
 72
     0
 73
     1
 74
     1
 75
     0
 76
     0
 77
     0
 78
     4
170
     0
171
     2
172
     0
173
     0
174
     1
175
     0
176
     0
177
     0
178
     0
270
     2
271
     3
272
     3
273
     2
274
     2
340
7DE1B343D9E6057
275
     0
280
     0
281
     0
282
     0
283
     1
284
     4
285
     0
286
     0
287
     3
288
     0
  0
ENDTAB
  0
TABLE
  2
BLOCK_RECORD
  5
7DE1B343D9E602C
330
0
100
AcDbSymbolTable
 70
     0
  0
BLOCK_RECORD
  5
7DE1B343D9E6043
102
{ACAD_XDICTIONARY
360
7DE1B343D9E608A
102
}
330
7DE1B343D9E602C
100
AcDbSymbolTableRecord
100
AcDbBlockTableRecord
  2
*MODEL_SPACE
  0
BLOCK_RECORD
  5
7DE1B343D9E6040
102
{ACAD_XDICTIONARY
360
7DE1B343D9E6088
102
}
330
7DE1B343D9E602C
100
AcDbSymbolTableRecord
100
AcDbBlockTableRecord
  2
*PAPER_SPACE
  0
ENDTAB
  0
ENDSEC
  0
SECTION
  2
BLOCKS
  0
BLOCK
  5
7DE1B343D9E604D
330
7DE1B343D9E6043
100
AcDbEntity
  8
0
100
AcDbBlockBegin
  2
*MODEL_SPACE
 70
     0
 10
0.0
 20
0.0
 30
0.0
  3
*MODEL_SPACE
  1

  0
ENDBLK
  5
7DE1B343D9E604E
330
7DE1B343D9E6043
100
AcDbEntity
  8
0
100
AcDbBlockEnd
  0
BLOCK
  5
7DE1B343D9E604B
330
7DE1B343D9E6040
100
AcDbEntity
 67
     1
  8
0
100
AcDbBlockBegin
  2
*PAPER_SPACE
 70
     0
 10
0.0
 20
0.0
 30
0.0
  3
*PAPER_SPACE
  1

  0
ENDBLK
  5
7DE1B343D9E604C
330
7DE1B343D9E6040
100
AcDbEntity
 67
     1
  8
0
100
AcDbBlockEnd
  0
ENDSEC
  0
SECTION
  2
ENTITIES
  0
LWPOLYLINE
  5
7DE1B343D9E4C42
330
7DE1B343D9E6043
100
AcDbEntity
  8
0
100
AcDbPolyline
 90
       13
 70
     1
 43
0.0
 10
2.247526516774991
 20
1.861493789079719
 10
1.687526516774991
 20
1.861493789079719
 10
1.687526516774991
 20
1.236493789079719
 10
1.49752651677499
 20
1.236493789079719
 10
1.487526516774991
 20
1.226493789079719
 10
1.477526516774991
 20
1.236493789079719
 10
1.287526516774991
 20
1.236493789079719
 10
1.287526516774991
 20
1.361493789079719
 10
1.207526516774991
 20
1.361493789079719
 10
1.207526516774991
 20
1.156493789079719
 10
1.767526516774991
 20
1.156493789079719
 10
1.767526516774991
 20
1.781493789079719
 10
2.247526516774991
 20
1.781493789079719
  0
TEXT
  5
7DE1B343D9E5EEE
330
7DE1B343D9E6043
100
AcDbEntity
  8
TEXT
100
AcDbText
 10
0.9756823615884911
 20
0.8683163684879298
 30
0.0
 40
0.125
  1
PART #110346
  7
ITALICC
 72
     1
 11
1.728658552064681
 21
0.8683163684879298
 31
0.0
100
AcDbText
  0
TEXT
  5
7DE1B343D9E5EEF
330
7DE1B343D9E6043
100
AcDbEntity
  8
TEXT
100
AcDbText
 10
2.141963710315001
 20
0.4213937258155547
 30
0.0
 40
0.0522247191011236
  1
Phone  1-800-328-2495
 41
1.272321428571429
 72
     5
 11
3.470896294584665
 21
0.4213937258155547
 31
0.0
100
AcDbText
  0
TEXT
  5
7DE1B343D9E5EF0
330
7DE1B343D9E6043
100
AcDbEntity
  8
TEXT
100
AcDbText
 10
2.141963710315001
 20
0.7011690067144312
 30
0.0
 40
0.0522247191011236
  1
Stylmark  Incorporated
 41
1.221428571428573
 72
     5
 11
3.470896294584665
 21
0.7011690067144312
 31
0.0
100
AcDbText
  0
TEXT
  5
7DE1B343D9E5EF1
330
7DE1B343D9E6043
100
AcDbEntity
  8
TEXT
100
AcDbText
 10
2.141963710315001
 20
0.607910579748139
 30
0.0
 40
0.0522247191011236
  1
6536 Main St. N.E. * P.O. Box 32008
 41
0.8388932496075366
 72
     5
 11
3.470896294584665
 21
0.607910579748139
 31
0.0
100
AcDbText
  0
TEXT
  5
7DE1B343D9E5EF2
330
7DE1B343D9E6043
100
AcDbEntity
  8
TEXT
100
AcDbText
 10
2.141963710315001
 20
0.5146521527818468
 30
0.0
 40
0.0522247191011236
  1
Minneapolis, MN 55432-0008
 41
1.11444212721585
 72
     5
 11
3.470896294584665
 21
0.5146521527818468
 31
0.0
100
AcDbText
  0
LWPOLYLINE
  5
7DE1B343D9E5EF3
330
7DE1B343D9E6043
100
AcDbEntity
  8
TEXT
100
AcDbPolyline
 90
        3
 70
     0
 43
0.0006660908203125
 10
-0.0139899817523055
 20
0.5350384884529895
 10
-0.0139899817523055
 20
0.4218030489998619
 10
0.0992454577008168
 20
0.4218030489998619
  0
LWPOLYLINE
  5
7DE1B343D9E5EF8
330
7DE1B343D9E6043
100
AcDbEntity
  8
TEXT
100
AcDbPolyline
 90
        3
 70
     0
 43
0.0006660908203125
 10
0.012653651060192
 20
0.5350384884529895
 10
0.012653651060192
 20
0.4484466818123629
 10
0.0992454577008168
 20
0.4484466818123629
  0
LWPOLYLINE
  5
7DE1B343D9E5EFD
330
7DE1B343D9E6043
100
AcDbEntity
  8
TEXT
100
AcDbPolyline
 90
        2
 70
     0
 43
0.0001332181640625
 10
0.0592800084820688
 20
0.5450298507576747
 10
-0.0139899817523055
 20
0.5350384884529895
  0
LWPOLYLINE
  5
7DE1B343D9E5F01
330
7DE1B343D9E6043
100
AcDbEntity
  8
TEXT
100
AcDbPolyline
 90
        2
 70
     0
 43
0.0001332181640625
 10
0.012653651060192
 20
0.5350384884529895
 10
0.0726018248883194
 20
0.5450298507576747
  0
LWPOLYLINE
  5
7DE1B343D9E5F05
330
7DE1B343D9E6043
100
AcDbEntity
  8
TEXT
100
AcDbPolyline
 90
        2
 70
     0
 43
0.0001332181640625
 10
0.012653651060192
 20
0.4484466818123629
 10
0.0726018248883194
 20
0.5083948556404885
  0
LWPOLYLINE
  5
7DE1B343D9E5F09
330
7DE1B343D9E6043
100
AcDbEntity
  8
TEXT
100
AcDbPolyline
 90
        3
 70
     0
 43
0.0006660908203125
 10
0.0992454577008168
 20
0.6882393771248652
 10
-0.0139899817523055
 20
0.6882393771248652
 10
-0.0139899817523055
 20
0.5750039376717375
  0
LWPOLYLINE
  5
7DE1B343D9E5F0E
330
7DE1B343D9E6043
100
AcDbEntity
  8
TEXT
100
AcDbPolyline
 90
        3
 70
     0
 43
0.0006660908203125
 10
0.0992454577008168
 20
0.6615957443123641
 10
0.012653651060192
 20
0.6615957443123641
 10
0.012653651060192
 20
0.5750039376717375
  0
LWPOLYLINE
  5
7DE1B343D9E5F13
330
7DE1B343D9E6043
100
AcDbEntity
  8
TEXT
100
AcDbPolyline
 90
        2
 70
     0
 43
0.0001332181640625
 10
0.012653651060192
 20
0.6615957443123641
 10
0.0726018248883176
 20
0.6016475704842386
  0
LWPOLYLINE
  5
7DE1B343D9E5F17
330
7DE1B343D9E6043
100
AcDbEntity
  8
TEXT
100
AcDbPolyline
 90
        2
 70
     0
 43
0.0001332181640625
 10
0.012653651060192
 20
0.5750039376717375
 10
0.0726018248883176
 20
0.5650125753670487
  0
LWPOLYLINE
  5
7DE1B343D9E5F1B
330
7DE1B343D9E6043
100
AcDbEntity
  8
TEXT
100
AcDbPolyline
 90
        2
 70
     0
 43
0.0001332181640625
 10
-0.0139899817523055
 20
0.5750039376717375
 10
0.0592800084820688
 20
0.5650125753670487
  0
LWPOLYLINE
  5
7DE1B343D9E5F1F
330
7DE1B343D9E6043
100
AcDbEntity
  8
TEXT
100
AcDbPolyline
 90
        2
 70
     0
 43
0.0006660908203125
 10
0.012653651060192
 20
0.5350384884529895
 10
-0.0139899817523055
 20
0.5350384884529895
  0
LWPOLYLINE
  5
7DE1B343D9E5F23
330
7DE1B343D9E6043
100
AcDbEntity
  8
TEXT
100
AcDbPolyline
 90
        2
 70
     0
 43
0.0006660908203125
 10
0.012653651060192
 20
0.5750039376717375
 10
-0.0139899817523055
 20
0.5750039376717375
  0
LINE
  5
7DE1B343D9E5F27
330
7DE1B343D9E6043
100
AcDbEntity
  8
TEXT
100
AcDbLine
 10
1.501200447374191
 20
0.6239626824680962
 30
0.0
 11
1.393994173986902
 21
0.6239626824680962
 31
0.0
  0
LINE
  5
7DE1B343D9E5F28
330
7DE1B343D9E6043
100
AcDbEntity
  8
TEXT
100
AcDbLine
 10
1.53023134571867
 20
0.6882393771248616
 30
0.0
 11
1.395399436501611
 21
0.6882393771248616
 31
0.0
  0
ARC
  5
7DE1B343D9E5F29
330
7DE1B343D9E6043
100
AcDbEntity
  8
TEXT
100
AcDbCircle
 10
1.454713532894928
 20
0.5190021278618453
 30
0.0
 40
0.0676855811441166
100
AcDbArc
 50
90.0
 51
153.7768192527749
  0
LWPOLYLINE
  5
7DE1B343D9E5F2A
330
7DE1B343D9E6043
100
AcDbEntity
  8
TEXT
100
AcDbPolyline
 90
        2
 70
     0
 43
0.0
 10
1.392961678532092
 20
0.4652572890867888
 42
0.2901071551932823
 10
1.436037611399728
 20
0.4217663441363506
 42
5.328517124445801
  0
ARC
  5
7DE1B343D9E5F2E
330
7DE1B343D9E6043
100
AcDbEntity
  8
TEXT
100
AcDbCircle
 10
0.7495821552234425
 20
0.4815587354744004
 30
0.0
 40
0.0601160179737537
100
AcDbArc
 50
180.0000000000003
 51
264.0521544866073
  0
LINE
  5
7DE1B343D9E5F2F
330
7DE1B343D9E6043
100
AcDbEntity
  8
TEXT
100
AcDbLine
 10
0.7530975108489903
 20
0.7226272947189998
 30
0.0
 11
0.6930549060049833
 21
0.7226272947189998
 31
0.0
  0
ARC
  5
7DE1B343D9E5F30
330
7DE1B343D9E6043
100
AcDbEntity
  8
TEXT
100
AcDbCircle
 10
0.5173231531064719
 20
0.6061519176783598
 30
0.0
 40
0.0820874594465043
100
AcDbArc
 50
90.0
 51
270.0
  0
LWPOLYLINE
  5
7DE1B343D9E5F31
330
7DE1B343D9E6043
100
AcDbEntity
  8
TEXT
100
AcDbPolyline
 90
        2
 70
     0
 43
0.0001332181640625
 10
0.1092368200055074
 20
0.6149693868904855
 10
0.0992454577008168
 20
0.6882393771248652
  0
LWPOLYLINE
  5
7DE1B343D9E5F35
330
7DE1B343D9E6043
100
AcDbEntity
  8
TEXT
100
AcDbPolyline
 90
        2
 70
     0
 43
0.0001332181640625
 10
0.0992454577008168
 20
0.6615957443123641
 10
0.1092368200055074
 20
0.6016475704842386
  0
LWPOLYLINE
  5
7DE1B343D9E5F39
330
7DE1B343D9E6043
100
AcDbEntity
  8
TEXT
100
AcDbPolyline
 90
        3
 70
     0
 43
0.0006660908203125
 10
0.2524463463726942
 20
0.5750039376717375
 10
0.2524463463726942
 20
0.6882393771248652
 10
0.1392109069195684
 20
0.6882393771248652
  0
LWPOLYLINE
  5
7DE1B343D9E5F3E
330
7DE1B343D9E6043
100
AcDbEntity
  8
TEXT
100
AcDbPolyline
 90
        3
 70
     0
 43
0.0006660908203125
 10
0.2258027135601932
 20
0.5750039376717375
 10
0.2258027135601932
 20
0.6615957443123641
 10
0.1392109069195684
 20
0.6615957443123641
  0
LWPOLYLINE
  5
7DE1B343D9E5F43
330
7DE1B343D9E6043
100
AcDbEntity
  8
TEXT
100
AcDbPolyline
 90
        2
 70
     0
 43
0.0001332181640625
 10
0.2258027135601932
 20
0.6615957443123641
 10
0.1658545397320694
 20
0.6016475704842386
  0
LWPOLYLINE
  5
7DE1B343D9E5F47
330
7DE1B343D9E6043
100
AcDbEntity
  8
TEXT
100
AcDbPolyline
 90
        2
 70
     0
 43
0.0001332181640625
 10
0.1392109069195684
 20
0.6615957443123641
 10
0.1292195446148796
 20
0.6016475704842386
  0
LWPOLYLINE
  5
7DE1B343D9E5F4B
330
7DE1B343D9E6043
100
AcDbEntity
  8
TEXT
100
AcDbPolyline
 90
        2
 70
     0
 43
0.0001332181640625
 10
0.1392109069195684
 20
0.6882393771248652
 10
0.1292195446148796
 20
0.6149693868904855
  0
LWPOLYLINE
  5
7DE1B343D9E5F4F
330
7DE1B343D9E6043
100
AcDbEntity
  8
TEXT
100
AcDbPolyline
 90
        2
 70
     0
 43
0.0001332181640625
 10
0.1791763561383182
 20
0.5650125753670487
 10
0.2524463463726942
 20
0.5750039376717375
  0
LWPOLYLINE
  5
7DE1B343D9E5F53
330
7DE1B343D9E6043
100
AcDbEntity
  8
TEXT
100
AcDbPolyline
 90
        2
 70
     0
 43
0.0001332181640625
 10
0.2258027135601932
 20
0.5750039376717375
 10
0.1658545397320694
 20
0.5650125753670487
  0
LWPOLYLINE
  5
7DE1B343D9E5F57
330
7DE1B343D9E6043
100
AcDbEntity
  8
TEXT
100
AcDbPolyline
 90
        2
 70
     0
 43
0.0001332181640625
 10
0.2524463463726942
 20
0.5350384884529895
 10
0.1791763561383182
 20
0.5450298507576747
  0
LWPOLYLINE
  5
7DE1B343D9E5F5B
330
7DE1B343D9E6043
100
AcDbEntity
  8
TEXT
100
AcDbPolyline
 90
        2
 70
     0
 43
0.0001332181640625
 10
0.2258027135601932
 20
0.5350384884529895
 10
0.1658545397320694
 20
0.5450298507576747
  0
LWPOLYLINE
  5
7DE1B343D9E5F5F
330
7DE1B343D9E6043
100
AcDbEntity
  8
TEXT
100
AcDbPolyline
 90
        2
 70
     0
 43
0.0001332181640625
 10
0.2258027135601932
 20
0.4484466818123629
 10
0.1658545397320694
 20
0.5083948556404885
  0
LWPOLYLINE
  5
7DE1B343D9E5F63
330
7DE1B343D9E6043
100
AcDbEntity
  8
TEXT
100
AcDbPolyline
 90
        3
 70
     0
 43
0.0006660908203125
 10
0.1392109069195684
 20
0.4484466818123629
 10
0.2258027135601932
 20
0.4484466818123629
 10
0.2258027135601932
 20
0.5350384884529895
  0
LWPOLYLINE
  5
7DE1B343D9E5F68
330
7DE1B343D9E6043
100
AcDbEntity
  8
TEXT
100
AcDbPolyline
 90
        3
 70
     0
 43
0.0006660908203125
 10
0.1392109069195684
 20
0.4218030489998619
 10
0.2524463463726942
 20
0.4218030489998619
 10
0.2524463463726942
 20
0.5350384884529895
  0
LWPOLYLINE
  5
7DE1B343D9E5F6D
330
7DE1B343D9E6043
100
AcDbEntity
  8
TEXT
100
AcDbPolyline
 90
        5
 70
     0
 43
0.0001332181640625
 10
0.1092368200055074
 20
0.4950730392342379
 10
0.1092368200055074
 20
0.5083948556404885
 10
0.0726018248883194
 20
0.5083948556404885
 10
0.0726018248883194
 20
0.5450298507576747
 10
0.0592800084820688
 20
0.5450298507576747
  0
LWPOLYLINE
  5
7DE1B343D9E5F74
330
7DE1B343D9E6043
100
AcDbEntity
  8
TEXT
100
AcDbPolyline
 90
        2
 70
     0
 43
0.0006660908203125
 10
0.0992454577008168
 20
0.4484466818123629
 10
0.0992454577008168
 20
0.4218030489998619
  0
LWPOLYLINE
  5
7DE1B343D9E5F78
330
7DE1B343D9E6043
100
AcDbEntity
  8
TEXT
100
AcDbPolyline
 90
        2
 70
     0
 43
0.0001332181640625
 10
0.0992454577008168
 20
0.4484466818123629
 10
0.1092368200055074
 20
0.5083948556404885
  0
LWPOLYLINE
  5
7DE1B343D9E5F7C
330
7DE1B343D9E6043
100
AcDbEntity
  8
TEXT
100
AcDbPolyline
 90
        2
 70
     0
 43
0.0001332181640625
 10
0.0992454577008168
 20
0.4218030489998619
 10
0.1092368200055074
 20
0.4950730392342379
  0
LWPOLYLINE
  5
7DE1B343D9E5F80
330
7DE1B343D9E6043
100
AcDbEntity
  8
TEXT
100
AcDbPolyline
 90
        5
 70
     0
 43
0.0001332181640625
 10
0.0592800084820688
 20
0.5650125753670487
 10
0.0726018248883176
 20
0.5650125753670487
 10
0.0726018248883176
 20
0.6016475704842386
 10
0.1092368200055074
 20
0.6016475704842386
 10
0.1092368200055074
 20
0.6149693868904855
  0
LWPOLYLINE
  5
7DE1B343D9E5F87
330
7DE1B343D9E6043
100
AcDbEntity
  8
TEXT
100
AcDbPolyline
 90
        5
 70
     0
 43
0.0001332181640625
 10
0.1292195446148796
 20
0.6149693868904855
 10
0.1292195446148796
 20
0.6016475704842386
 10
0.1658545397320694
 20
0.6016475704842386
 10
0.1658545397320694
 20
0.5650125753670487
 10
0.1791763561383182
 20
0.5650125753670487
  0
LWPOLYLINE
  5
7DE1B343D9E5F8E
330
7DE1B343D9E6043
100
AcDbEntity
  8
TEXT
100
AcDbPolyline
 90
        2
 70
     0
 43
0.0001332181640625
 10
0.1392109069195684
 20
0.4484466818123629
 10
0.1292195446148796
 20
0.5083948556404885
  0
LWPOLYLINE
  5
7DE1B343D9E5F92
330
7DE1B343D9E6043
100
AcDbEntity
  8
TEXT
100
AcDbPolyline
 90
        2
 70
     0
 43
0.0001332181640625
 10
0.1292195446148796
 20
0.4950730392342379
 10
0.1392109069195684
 20
0.4218030489998619
  0
LWPOLYLINE
  5
7DE1B343D9E5F96
330
7DE1B343D9E6043
100
AcDbEntity
  8
TEXT
100
AcDbPolyline
 90
        2
 70
     0
 43
0.0006660908203125
 10
0.1392109069195684
 20
0.4484466818123629
 10
0.1392109069195684
 20
0.4218030489998619
  0
LWPOLYLINE
  5
7DE1B343D9E5F9A
330
7DE1B343D9E6043
100
AcDbEntity
  8
TEXT
100
AcDbPolyline
 90
        5
 70
     0
 43
0.0001332181640625
 10
0.1791763561383182
 20
0.5450298507576747
 10
0.1658545397320694
 20
0.5450298507576747
 10
0.1658545397320694
 20
0.5083948556404885
 10
0.1292195446148796
 20
0.5083948556404885
 10
0.1292195446148796
 20
0.4950730392342379
  0
LWPOLYLINE
  5
7DE1B343D9E5FA1
330
7DE1B343D9E6043
100
AcDbEntity
  8
TEXT
100
AcDbPolyline
 90
        2
 70
     0
 43
0.0006660908203125
 10
0.2258027135601932
 20
0.5750039376717375
 10
0.2524463463726942
 20
0.5750039376717375
  0
LWPOLYLINE
  5
7DE1B343D9E5FA5
330
7DE1B343D9E6043
100
AcDbEntity
  8
TEXT
100
AcDbPolyline
 90
        2
 70
     0
 43
0.0006660908203125
 10
0.2258027135601932
 20
0.5350384884529895
 10
0.2524463463726942
 20
0.5350384884529895
  0
LINE
  5
7DE1B343D9E5FA9
330
7DE1B343D9E6043
100
AcDbEntity
  8
TEXT
100
AcDbLine
 10
0.5225604832207191
 20
0.6239626824680962
 30
0.0
 11
0.6894661372496904
 21
0.6239626824680962
 31
0.0
  0
LINE
  5
7DE1B343D9E5FAA
330
7DE1B343D9E6043
100
AcDbEntity
  8
TEXT
100
AcDbLine
 10
0.5881606194650202
 20
0.5881579608574683
 30
0.0
 11
0.5225604832207191
 21
0.5881579608574683
 31
0.0
  0
LINE
  5
7DE1B343D9E5FAB
330
7DE1B343D9E6043
100
AcDbEntity
  8
TEXT
100
AcDbLine
 10
0.4352356936599675
 20
0.4217663441363506
 30
0.0
 11
0.5881606194650202
 21
0.4217663441363506
 31
0.0
  0
LINE
  5
7DE1B343D9E5FAC
330
7DE1B343D9E6043
100
AcDbEntity
  8
TEXT
100
AcDbLine
 10
0.5931009933712998
 20
0.4901233504697899
 30
0.0
 11
0.4352356936599657
 21
0.4901233504697899
 31
0.0
  0
LINE
  5
7DE1B343D9E5FAD
330
7DE1B343D9E6043
100
AcDbEntity
  8
TEXT
100
AcDbLine
 10
0.517323153106471
 20
0.5240644582318545
 30
0.0
 11
0.5931009933712998
 21
0.5240644582318545
 31
0.0
  0
ARC
  5
7DE1B343D9E5FAE
330
7DE1B343D9E6043
100
AcDbEntity
  8
TEXT
100
AcDbCircle
 10
0.52256048322072
 20
0.606060321662784
 30
0.0
 40
0.017902360805315
100
AcDbArc
 50
90.0
 51
270.0
  0
LINE
  5
7DE1B343D9E5FAF
330
7DE1B343D9E6043
100
AcDbEntity
  8
TEXT
100
AcDbLine
 10
0.4352356936599657
 20
0.4901233504697899
 30
0.0
 11
0.4352356936599675
 21
0.4217663441363506
 31
0.0
  0
LINE
  5
7DE1B343D9E5FB0
330
7DE1B343D9E6043
100
AcDbEntity
  8
TEXT
100
AcDbLine
 10
0.6894661372496904
 20
0.6239626824680962
 30
0.0
 11
0.6894661372496904
 21
0.4815587354744004
 31
0.0
  0
ARC
  5
7DE1B343D9E5FB1
330
7DE1B343D9E6043
100
AcDbEntity
  8
TEXT
100
AcDbCircle
 10
0.5881606194650211
 20
0.5049621524969077
 30
0.0
 40
0.0831958083605586
100
AcDbArc
 50
270.0
 51
90.0
  0
ARC
  5
7DE1B343D9E5FB2
330
7DE1B343D9E6043
100
AcDbEntity
  8
TEXT
100
AcDbCircle
 10
0.5931009933713007
 20
0.507093904350824
 30
0.0
 40
0.0169705538810321
100
AcDbArc
 50
270.0
 51
90.0
  0
LWPOLYLINE
  5
7DE1B343D9E5FB3
330
7DE1B343D9E6043
100
AcDbEntity
  8
TEXT
100
AcDbPolyline
 90
        2
 70
     0
 43
0.0006660908203125
 10
0.0992454577008168
 20
0.6615957443123641
 10
0.0992454577008168
 20
0.6882393771248652
  0
LWPOLYLINE
  5
7DE1B343D9E5FB7
330
7DE1B343D9E6043
100
AcDbEntity
  8
TEXT
100
AcDbPolyline
 90
        2
 70
     0
 43
0.0006660908203125
 10
0.1392109069195684
 20
0.6615957443123641
 10
0.1392109069195684
 20
0.6882393771248652
  0
LINE
  5
7DE1B343D9E5FBB
330
7DE1B343D9E6043
100
AcDbEntity
  8
TEXT
100
AcDbLine
 10
0.6930549060049833
 20
0.6882393771248616
 30
0.0
 11
0.517323153106471
 21
0.6882393771248616
 31
0.0
  0
LINE
  5
7DE1B343D9E5FBC
330
7DE1B343D9E6043
100
AcDbEntity
  8
TEXT
100
AcDbLine
 10
0.6930549060049833
 20
0.7226272947189998
 30
0.0
 11
0.6930549060049833
 21
0.6882393771248616
 31
0.0
  0
LINE
  5
7DE1B343D9E5FBD
330
7DE1B343D9E6043
100
AcDbEntity
  8
TEXT
100
AcDbLine
 10
0.8835267980248355
 20
0.587367381011741
 30
0.0
 11
0.8248964769928976
 21
0.6882393771248616
 31
0.0
  0
LINE
  5
7DE1B343D9E5FBE
330
7DE1B343D9E6043
100
AcDbEntity
  8
TEXT
100
AcDbLine
 10
0.942275360830701
 20
0.6882393771248616
 30
0.0
 11
0.8835267980248355
 21
0.587367381011741
 31
0.0
  0
LINE
  5
7DE1B343D9E5FBF
330
7DE1B343D9E6043
100
AcDbEntity
  8
TEXT
100
AcDbLine
 10
1.039205986190442
 20
0.5041541822393498
 30
0.0
 11
1.039205986190442
 21
0.7562508548636722
 31
0.0
  0
LINE
  5
7DE1B343D9E5FC0
330
7DE1B343D9E6043
100
AcDbEntity
  8
TEXT
100
AcDbLine
 10
1.071517840328102
 20
0.6882393771248616
 30
0.0
 11
1.071517840328102
 21
0.4873751703924534
 31
0.0
  0
LINE
  5
7DE1B343D9E5FC1
330
7DE1B343D9E6043
100
AcDbEntity
  8
TEXT
100
AcDbLine
 10
1.071517840328102
 20
0.4873751703924534
 30
0.0
 11
1.054524203443501
 21
0.4873751703924534
 31
0.0
  0
LINE
  5
7DE1B343D9E5FC2
330
7DE1B343D9E6043
100
AcDbEntity
  8
TEXT
100
AcDbLine
 10
1.040345559686637
 20
0.4217663441363506
 30
0.0
 11
1.138348893386071
 21
0.4217663441363506
 31
0.0
  0
LINE
  5
7DE1B343D9E5FC3
330
7DE1B343D9E6043
100
AcDbEntity
  8
TEXT
100
AcDbLine
 10
0.8739265610278811
 20
0.4417248502413635
 30
0.0
 11
0.9712262671213258
 21
0.6060750611766317
 31
0.0
  0
ARC
  5
7DE1B343D9E5FC4
330
7DE1B343D9E6043
100
AcDbEntity
  8
TEXT
100
AcDbCircle
 10
0.8398830011156672
 20
0.4613140664100463
 30
0.0
 40
0.0392772371940762
100
AcDbArc
 50
270.1604552698595
 51
330.0831797321295
  0
LINE
  5
7DE1B343D9E5FC5
330
7DE1B343D9E6043
100
AcDbEntity
  8
TEXT
100
AcDbLine
 10
0.7433527447297961
 20
0.4217663441363506
 30
0.0
 11
0.8399929958047904
 21
0.4220369832346329
 31
0.0
  0
LWPOLYLINE
  5
7DE1B343D9E5FC6
330
7DE1B343D9E6043
100
AcDbEntity
  8
TEXT
100
AcDbPolyline
 90
        6
 70
     1
 43
0.0
 10
0.7858765483049457
 20
0.6239626824680962
 10
0.7555599540847375
 20
0.6239626824680962
 10
0.7555599540847375
 20
0.5008516844132018
 42
0.407328721240804
 10
0.7671036052462139
 20
0.4890327697368157
 10
0.8277253042909446
 20
0.4890327697368157
 10
0.8451906446982626
 20
0.5218449987802949
  0
LINE
  5
7DE1B343D9E5FCE
330
7DE1B343D9E6043
100
AcDbEntity
  8
TEXT
100
AcDbLine
 10
0.9712262671213258
 20
0.6060750611766317
 30
0.0
 11
0.9712262671213258
 21
0.4733176863512754
 31
0.0
  0
ARC
  5
7DE1B343D9E5FCF
330
7DE1B343D9E6043
100
AcDbEntity
  8
TEXT
100
AcDbCircle
 10
1.054524203443499
 20
0.5027569766358788
 30
0.0
 40
0.0153818062434269
100
AcDbArc
 50
174.7883570302258
 51
270.0
  0
LWPOLYLINE
  5
7DE1B343D9E5FD0
330
7DE1B343D9E6043
100
AcDbEntity
  8
TEXT
100
AcDbPolyline
 90
        2
 70
     0
 43
0.0
 10
0.971226267121324
 20
0.4733176863512789
 42
0.3318488747599744
 10
1.040345559686637
 20
0.4217663441363506
 42
-6.868794160588311
  0
LINE
  5
7DE1B343D9E5FD4
330
7DE1B343D9E6043
100
AcDbEntity
  8
TEXT
100
AcDbLine
 10
1.195737962375332
 20
0.4217663441363506
 30
0.0
 11
1.262796009157172
 21
0.4217663441363506
 31
0.0
  0
LINE
  5
7DE1B343D9E5FD5
330
7DE1B343D9E6043
100
AcDbEntity
  8
TEXT
100
AcDbLine
 10
1.195737962375332
 20
0.6164088933019862
 30
0.0
 11
1.195737962375332
 21
0.4217663441363506
 31
0.0
  0
LINE
  5
7DE1B343D9E5FD6
330
7DE1B343D9E6043
100
AcDbEntity
  8
TEXT
100
AcDbLine
 10
1.138348893386071
 20
0.6239626824680962
 30
0.0
 11
1.188184173209219
 21
0.6239626824680962
 31
0.0
  0
LINE
  5
7DE1B343D9E5FD7
330
7DE1B343D9E6043
100
AcDbEntity
  8
TEXT
100
AcDbLine
 10
1.138348893386071
 20
0.4217663441363506
 30
0.0
 11
1.138348893386071
 21
0.6239626824680962
 31
0.0
  0
LWPOLYLINE
  5
7DE1B343D9E5FD8
330
7DE1B343D9E6043
100
AcDbEntity
  8
TEXT
100
AcDbPolyline
 90
        2
 70
     0
 43
0.0
 10
1.188184173209217
 20
0.6239626824680962
 42
-0.4142135623731017
 10
1.195737962375331
 20
0.6164088933019862
 42
-0.9999999999999998
  0
LINE
  5
7DE1B343D9E5FDC
330
7DE1B343D9E6043
100
AcDbEntity
  8
TEXT
100
AcDbLine
 10
1.393994173986902
 20
0.6239626824680962
 30
0.0
 11
1.393994173986902
 21
0.5489102763938896
 31
0.0
  0
LINE
  5
7DE1B343D9E5FDD
330
7DE1B343D9E6043
100
AcDbEntity
  8
TEXT
100
AcDbLine
 10
1.262796009157172
 20
0.6239626824680962
 30
0.0
 11
1.316929606078123
 21
0.6239626824680962
 31
0.0
  0
LINE
  5
7DE1B343D9E5FDE
330
7DE1B343D9E6043
100
AcDbEntity
  8
TEXT
100
AcDbLine
 10
1.262796009157172
 20
0.4217663441363506
 30
0.0
 11
1.262796009157172
 21
0.6239626824680962
 31
0.0
  0
LWPOLYLINE
  5
7DE1B343D9E5FDF
330
7DE1B343D9E6043
100
AcDbEntity
  8
TEXT
100
AcDbPolyline
 90
        2
 70
     0
 43
0.0
 10
1.316929606078121
 20
0.6239626824680962
 42
-0.4142135623731017
 10
1.324483395244234
 20
0.6164088933019862
 42
-0.9999999999999998
  0
LWPOLYLINE
  5
7DE1B343D9E5FE3
330
7DE1B343D9E6043
100
AcDbEntity
  8
TEXT
100
AcDbPolyline
 90
        4
 70
     0
 43
0.0
 10
1.324483395244234
 20
0.6164088933019862
 10
1.324483395244234
 20
0.4217663441363506
 10
1.392961678532092
 20
0.4217663441363506
 10
1.392961678532092
 20
0.4652572890867888
 42
-1.714843617202739
  0
LINE
  5
7DE1B343D9E5FE9
330
7DE1B343D9E6043
100
AcDbEntity
  8
TEXT
100
AcDbLine
 10
0.7530975108489903
 20
0.6882393771248616
 30
0.0
 11
0.7530975108489903
 21
0.7226272947189998
 31
0.0
  0
LINE
  5
7DE1B343D9E5FEA
330
7DE1B343D9E6043
100
AcDbEntity
  8
TEXT
100
AcDbLine
 10
0.8248964769928976
 20
0.6882393771248616
 30
0.0
 11
0.7530975108489903
 21
0.6882393771248616
 31
0.0
  0
LINE
  5
7DE1B343D9E5FEB
330
7DE1B343D9E6043
100
AcDbEntity
  8
TEXT
100
AcDbLine
 10
0.9723972736240773
 20
0.6882393771248616
 30
0.0
 11
0.942275360830701
 21
0.6882393771248616
 31
0.0
  0
LINE
  5
7DE1B343D9E5FEC
330
7DE1B343D9E6043
100
AcDbEntity
  8
TEXT
100
AcDbLine
 10
0.9723972736240773
 20
0.7562508548636722
 30
0.0
 11
0.9723972736240773
 21
0.6882393771248616
 31
0.0
  0
LINE
  5
7DE1B343D9E5FED
330
7DE1B343D9E6043
100
AcDbEntity
  8
TEXT
100
AcDbLine
 10
1.039205986190442
 20
0.7562508548636722
 30
0.0
 11
0.9723972736240773
 21
0.7562508548636722
 31
0.0
  0
LWPOLYLINE
  5
7DE1B343D9E5FEE
330
7DE1B343D9E6043
100
AcDbEntity
  8
TEXT
100
AcDbPolyline
 90
        3
 70
     0
 43
0.0
 10
1.359617745788444
 20
0.6882393771248652
 10
1.2413175869724
 20
0.6882393771248652
 10
1.2413175869724
 20
0.6610718803639692
 42
-1.960274751411753
  0
LINE
  5
7DE1B343D9E5FF3
330
7DE1B343D9E6043
100
AcDbEntity
  8
TEXT
100
AcDbLine
 10
1.205535896259238
 20
0.6882393771248616
 30
0.0
 11
1.071517840328102
 21
0.6882393771248616
 31
0.0
  0
LWPOLYLINE
  5
7DE1B343D9E5FF4
330
7DE1B343D9E6043
100
AcDbEntity
  8
TEXT
100
AcDbPolyline
 90
        2
 70
     0
 43
0.0
 10
1.205535896259238
 20
0.6882393771248652
 42
-0.3328679258950098
 10
1.2413175869724
 20
0.6610718803639692
 42
6.772930709997214
  0
LINE
  5
7DE1B343D9E5FF8
330
7DE1B343D9E6043
100
AcDbEntity
  8
TEXT
100
AcDbLine
 10
1.395399436501611
 20
0.6882393771248616
 30
0.0
 11
1.395399436501611
 21
0.6599168313552177
 31
0.0
  0
LWPOLYLINE
  5
7DE1B343D9E5FF9
330
7DE1B343D9E6043
100
AcDbEntity
  8
TEXT
100
AcDbPolyline
 90
        2
 70
     0
 43
0.0
 10
1.359617745788444
 20
0.6882393771248652
 42
-0.3277054968067132
 10
1.395399436501609
 20
0.6599168313552213
 42
6.667889725900311
  0
LINE
  5
7DE1B343D9E5FFD
330
7DE1B343D9E6043
100
AcDbEntity
  8
TEXT
100
AcDbLine
 10
1.609191284593711
 20
0.5830273985714343
 30
0.0
 11
1.565440513411809
 21
0.6652776745675795
 31
0.0
  0
LINE
  5
7DE1B343D9E5FFE
330
7DE1B343D9E6043
100
AcDbEntity
  8
TEXT
100
AcDbLine
 10
1.609191284593711
 20
0.6882393771248616
 30
0.0
 11
1.609191284593711
 21
0.5830273985714343
 31
0.0
  0
LINE
  5
7DE1B343D9E5FFF
330
7DE1B343D9E6043
100
AcDbEntity
  8
TEXT
100
AcDbLine
 10
1.83687502353208
 20
0.6123740507133235
 30
0.0
 11
1.83687502353208
 21
0.7537035828924623
 31
0.0
  0
LINE
  5
7DE1B343D9E6000
330
7DE1B343D9E6043
100
AcDbEntity
  8
TEXT
100
AcDbLine
 10
1.883973182088064
 20
0.6882393771248616
 30
0.0
 11
1.83687502353208
 21
0.6123740507133235
 31
0.0
  0
LINE
  5
7DE1B343D9E6001
330
7DE1B343D9E6043
100
AcDbEntity
  8
TEXT
100
AcDbLine
 10
1.894407898851987
 20
0.578346134183888
 30
0.0
 11
1.958965014817693
 21
0.6882393771248616
 31
0.0
  0
LINE
  5
7DE1B343D9E6002
330
7DE1B343D9E6043
100
AcDbEntity
  8
TEXT
100
AcDbLine
 10
1.773040032309307
 20
0.4217663441363506
 30
0.0
 11
1.837418216627927
 21
0.4217663441363506
 31
0.0
  0
LWPOLYLINE
  5
7DE1B343D9E6003
330
7DE1B343D9E6043
100
AcDbEntity
  8
TEXT
100
AcDbPolyline
 90
        2
 70
     0
 43
0.0
 10
1.613130961898749
 20
0.4652572890867888
 42
-0.2901071551932486
 10
1.570055029031104
 20
0.4217663441363506
 42
-5.328517124445184
  0
ARC
  5
7DE1B343D9E6007
330
7DE1B343D9E6043
100
AcDbEntity
  8
TEXT
100
AcDbCircle
 10
1.50120044737419
 20
0.5956033074680989
 30
0.0
 40
0.028359375
100
AcDbArc
 50
25.78218179591245
 51
90.0
  0
LINE
  5
7DE1B343D9E6008
330
7DE1B343D9E6043
100
AcDbEntity
  8
TEXT
100
AcDbLine
 10
1.537001522678313
 20
0.5866877090059639
 30
0.0
 11
1.526736762264748
 21
0.6079382485786582
 31
0.0
  0
LINE
  5
7DE1B343D9E6009
330
7DE1B343D9E6043
100
AcDbEntity
  8
TEXT
100
AcDbLine
 10
1.45471353289493
 20
0.5866877090059639
 30
0.0
 11
1.537001522678313
 21
0.5866877090059639
 31
0.0
  0
LWPOLYLINE
  5
7DE1B343D9E600A
330
7DE1B343D9E6043
100
AcDbEntity
  8
TEXT
100
AcDbPolyline
 90
        4
 70
     1
 43
0.0
 10
1.549932563961212
 20
0.5247303221203758
 10
1.461272245301353
 20
0.5247303221203758
 42
0.9999999999999998
 10
1.461272245301353
 20
0.4823317816165151
 10
1.549932563961212
 20
0.4823317816165151
 42
1.0
  0
LWPOLYLINE
  5
7DE1B343D9E6010
330
7DE1B343D9E6043
100
AcDbEntity
  8
TEXT
100
AcDbPolyline
 90
        2
 70
     0
 43
0.0
 10
1.436037611399728
 20
0.4217663441363506
 10
1.570055029031104
 20
0.4217663441363506
 42
0.9999999999999998
  0
LINE
  5
7DE1B343D9E6014
330
7DE1B343D9E6043
100
AcDbEntity
  8
TEXT
100
AcDbLine
 10
1.696392051016744
 20
0.6239626824680962
 30
0.0
 11
1.773040032309302
 21
0.6239626824680962
 31
0.0
  0
LINE
  5
7DE1B343D9E6015
330
7DE1B343D9E6043
100
AcDbEntity
  8
TEXT
100
AcDbLine
 10
1.773040032309302
 20
0.6239626824680962
 30
0.0
 11
1.773040032309307
 21
0.4217663441363506
 31
0.0
  0
ARC
  5
7DE1B343D9E6016
330
7DE1B343D9E6043
100
AcDbEntity
  8
TEXT
100
AcDbCircle
 10
1.696392051016742
 20
0.5990568071854334
 30
0.0
 40
0.0249058752826653
100
AcDbArc
 50
89.99971217465335
 51
179.9999999999985
  0
LINE
  5
7DE1B343D9E6017
330
7DE1B343D9E6043
100
AcDbEntity
  8
TEXT
100
AcDbLine
 10
1.671486175734085
 20
0.4217663441363506
 30
0.0
 11
1.671486175734079
 21
0.599056849567819
 31
0.0
  0
LWPOLYLINE
  5
7DE1B343D9E6018
330
7DE1B343D9E6043
100
AcDbEntity
  8
TEXT
100
AcDbPolyline
 90
        2
 70
     0
 43
0.0
 10
1.613130961898749
 20
0.4217663441363506
 10
1.671486175734083
 20
0.4217663441363506
  0
LWPOLYLINE
  5
7DE1B343D9E601C
330
7DE1B343D9E6043
100
AcDbEntity
  8
TEXT
100
AcDbPolyline
 90
        2
 70
     0
 43
0.0
 10
1.613130961898749
 20
0.4652572890867888
 10
1.613130961898749
 20
0.4217663441363506
  0
LINE
  5
7DE1B343D9E6020
330
7DE1B343D9E6043
100
AcDbEntity
  8
TEXT
100
AcDbLine
 10
1.989900122215598
 20
0.4217663441363506
 30
0.0
 11
1.894407898851987
 21
0.578346134183888
 31
0.0
  0
LINE
  5
7DE1B343D9E6021
330
7DE1B343D9E6043
100
AcDbEntity
  8
TEXT
100
AcDbLine
 10
1.913321749839392
 20
0.4217663441363506
 30
0.0
 11
1.989900122215598
 21
0.4217663441363506
 31
0.0
  0
LINE
  5
7DE1B343D9E6022
330
7DE1B343D9E6043
100
AcDbEntity
  8
TEXT
100
AcDbLine
 10
1.837418216627927
 20
0.5533459126125308
 30
0.0
 11
1.913321749839392
 21
0.4217663441363506
 31
0.0
  0
LINE
  5
7DE1B343D9E6023
330
7DE1B343D9E6043
100
AcDbEntity
  8
TEXT
100
AcDbLine
 10
1.837418216627927
 20
0.4217663441363506
 30
0.0
 11
1.837418216627927
 21
0.5533459126125308
 31
0.0
  0
LINE
  5
7DE1B343D9E6024
330
7DE1B343D9E6043
100
AcDbEntity
  8
TEXT
100
AcDbLine
 10
1.83687502353208
 20
0.7537035828924623
 30
0.0
 11
1.768560144982807
 21
0.7537035828924623
 31
0.0
  0
ARC
  5
7DE1B343D9E6025
330
7DE1B343D9E6043
100
AcDbEntity
  8
TEXT
100
AcDbCircle
 10
1.528204405941601
 20
0.6466558100039592
 30
0.0
 40
0.0416329381542859
100
AcDbArc
 50
26.56974201007528
 51
87.20939649401342
  0
LINE
  5
7DE1B343D9E6026
330
7DE1B343D9E6043
100
AcDbEntity
  8
TEXT
100
AcDbLine
 10
1.673088190893212
 20
0.6882393771248616
 30
0.0
 11
1.609191284593711
 21
0.6882393771248616
 31
0.0
  0
LINE
  5
7DE1B343D9E6027
330
7DE1B343D9E6043
100
AcDbEntity
  8
TEXT
100
AcDbLine
 10
1.673088190893212
 20
0.6606917272639869
 30
0.0
 11
1.673088190893212
 21
0.6882393771248616
 31
0.0
  0
ARC
  5
7DE1B343D9E6028
330
7DE1B343D9E6043
100
AcDbEntity
  8
TEXT
100
AcDbCircle
 10
1.70428100795632
 20
0.6569936498425968
 30
0.0
 40
0.0314112657011332
100
AcDbArc
 50
95.88484768694724
 51
173.2388340632136
  0
LINE
  5
7DE1B343D9E6029
330
7DE1B343D9E6043
100
AcDbEntity
  8
TEXT
100
AcDbLine
 10
1.768560144982801
 20
0.6882393771248616
 30
0.0
 11
1.701060427333285
 21
0.6882393771248616
 31
0.0
  0
LINE
  5
7DE1B343D9E602A
330
7DE1B343D9E6043
100
AcDbEntity
  8
TEXT
100
AcDbLine
 10
1.768560144982807
 20
0.7537035828924623
 30
0.0
 11
1.768560144982801
 21
0.6882393771248616
 31
0.0
  0
LINE
  5
7DE1B343D9E602B
330
7DE1B343D9E6043
100
AcDbEntity
  8
TEXT
100
AcDbLine
 10
1.958965014817693
 20
0.6882393771248616
 30
0.0
 11
1.883973182088066
 21
0.6882393771248616
 31
0.0
  0
ENDSEC
  0
SECTION
  2
OBJECTS
  0
DICTIONARY
  5
7DE1B343D9E6037
330
0
100
AcDbDictionary
  3
ACAD_GROUP
350
7DE1B343D9E6038
  3
ACAD_LAYOUT
350
7DE1B343D9E605D
  3
ACAD_MLINESTYLE
350
7DE1B343D9E6039
  3
ACAD_PLOTSETTINGS
350
7DE1B343D9E605E
  3
ACAD_PLOTSTYLENAME
350
7DE1B343D9E605B
  3
ACDBHEADERROUNDTRIPXREC
350
7DE1B343D9E6068
  3
ACDBVARIABLEDICTIONARY
350
7DE1B343D9E6065
  0
DICTIONARY
  5
7DE1B343D9E608A
330
7DE1B343D9E6043
100
AcDbDictionary
280
     1
  3
ACAD_LAYOUTSELFREF
360
7DE1B343D9E608B
  0
DICTIONARY
  5
7DE1B343D9E6088
330
7DE1B343D9E6040
100
AcDbDictionary
280
     1
  3
ACAD_LAYOUTSELFREF
360
7DE1B343D9E6089
  0
DICTIONARY
  5
7DE1B343D9E6038
102
{ACAD_REACTORS
330
7DE1B343D9E6037
102
}
330
7DE1B343D9E6037
100
AcDbDictionary
  0
DICTIONARY
  5
7DE1B343D9E605D
102
{ACAD_REACTORS
330
7DE1B343D9E6037
102
}
330
7DE1B343D9E6037
100
AcDbDictionary
  0
DICTIONARY
  5
7DE1B343D9E6039
102
{ACAD_REACTORS
330
7DE1B343D9E6037
102
}
330
7DE1B343D9E6037
100
AcDbDictionary
  3
STANDARD
350
7DE1B343D9E6046
  0
DICTIONARY
  5
7DE1B343D9E605E
102
{ACAD_REACTORS
330
7DE1B343D9E6037
102
}
330
7DE1B343D9E6037
100
AcDbDictionary
  0
ACDBDICTIONARYWDFLT
  5
7DE1B343D9E605B
102
{ACAD_REACTORS
330
7DE1B343D9E6037
102
}
330
7DE1B343D9E6037
100
AcDbDictionary
281
     1
  3
Normal
350
7DE1B343D9E605C
100
AcDbDictionaryWithDefault
340
7DE1B343D9E605C
  0
DICTIONARY
  5
7DE1B343D9E6068
102
{ACAD_REACTORS
330
7DE1B343D9E6037
102
}
330
7DE1B343D9E6037
100
AcDbDictionary
  3
CEPSNTYPE
350
7DE1B343D9E6072
  3
FINGERPRINTGUID
350
7DE1B343D9E6073
  3
HYPERLINKBASE
350
7DE1B343D9E606B
  3
INSUNITS
350
7DE1B343D9E6071
  3
LAYOUTDICT
350
7DE1B343D9E606D
  3
LWETCUNION
350
7DE1B343D9E6070
  3
PLOTSETDICT
350
7DE1B343D9E606E
  3
PLOTSTYLNAMDICT
350
7DE1B343D9E606F
  3
PSVPSCALE
350
7DE1B343D9E6075
  3
PUCSBASE
350
7DE1B343D9E6078
  3
PUCSORGBACK
350
7DE1B343D9E607E
  3
PUCSORGBOTTOM
350
7DE1B343D9E607A
  3
PUCSORGFRONT
350
7DE1B343D9E607D
  3
PUCSORGLEFT
350
7DE1B343D9E607B
  3
PUCSORGRIGHT
350
7DE1B343D9E607C
  3
PUCSORGTOP
350
7DE1B343D9E6079
  3
PUCSORTHOREF
350
7DE1B343D9E6076
  3
PUCSORTHOVIEW
350
7DE1B343D9E6077
  3
STYLESHEET
350
7DE1B343D9E606C
  3
TSTACKALIGN
350
7DE1B343D9E6069
  3
TSTACKSIZE
350
7DE1B343D9E606A
  3
UCSBASE
350
7DE1B343D9E6081
  3
UCSORGBACK
350
7DE1B343D9E6087
  3
UCSORGBOTTOM
350
7DE1B343D9E6083
  3
UCSORGFRONT
350
7DE1B343D9E6086
  3
UCSORGLEFT
350
7DE1B343D9E6084
  3
UCSORGRIGHT
350
7DE1B343D9E6085
  3
UCSORGTOP
350
7DE1B343D9E6082
  3
UCSORTHOREF
350
7DE1B343D9E607F
  3
UCSORTHOVIEW
350
7DE1B343D9E6080
  3
VERSIONGUID
350
7DE1B343D9E6074
  0
DICTIONARY
  5
7DE1B343D9E6065
102
{ACAD_REACTORS
330
7DE1B343D9E6037
102
}
330
7DE1B343D9E6037
100
AcDbDictionary
  3
DIMASSOC
350
7DE1B343D9E6066
  0
XRECORD
  5
7DE1B343D9E608B
102
{ACAD_REACTORS
330
7DE1B343D9E608A
102
}
330
7DE1B343D9E608A
100
AcDbXrecord
340
7DE1B343D9E6043
  0
XRECORD
  5
7DE1B343D9E6089
102
{ACAD_REACTORS
330
7DE1B343D9E6088
102
}
330
7DE1B343D9E6088
100
AcDbXrecord
340
7DE1B343D9E6040
  0
MLINESTYLE
  5
7DE1B343D9E6046
102
{ACAD_REACTORS
330
7DE1B343D9E6039
102
}
330
7DE1B343D9E6039
100
AcDbMlineStyle
  2
STANDARD
 70
     0
  3

 62
     0
 51
90.0
 52
90.0
 71
     2
 49
0.5
 62
   256
  6
BYLAYER
 49
-0.5
 62
   256
  6
BYLAYER
  0
ACDBPLACEHOLDER
  5
7DE1B343D9E605C
102
{ACAD_REACTORS
330
7DE1B343D9E605B
102
}
330
7DE1B343D9E605B
100
AcDbPlaceHolder
280
     0
  0
XRECORD
  5
7DE1B343D9E6072
102
{ACAD_REACTORS
330
7DE1B343D9E6068
102
}
330
7DE1B343D9E6068
100
AcDbXrecord
 90
        0
  0
XRECORD
  5
7DE1B343D9E6073
102
{ACAD_REACTORS
330
7DE1B343D9E6068
102
}
330
7DE1B343D9E6068
100
AcDbXrecord
  1
{748805F0-8DB6-11D6-88E6-0090279574E7}
  0
XRECORD
  5
7DE1B343D9E606B
102
{ACAD_REACTORS
330
7DE1B343D9E6068
102
}
330
7DE1B343D9E6068
100
AcDbXrecord
  1

  0
XRECORD
  5
7DE1B343D9E6071
102
{ACAD_REACTORS
330
7DE1B343D9E6068
102
}
330
7DE1B343D9E6068
100
AcDbXrecord
 90
        0
  0
XRECORD
  5
7DE1B343D9E606D
102
{ACAD_REACTORS
330
7DE1B343D9E6068
102
}
330
7DE1B343D9E6068
100
AcDbXrecord
340
7DE1B343D9E605D
  0
XRECORD
  5
7DE1B343D9E6070
102
{ACAD_REACTORS
330
7DE1B343D9E6068
102
}
330
7DE1B343D9E6068
100
AcDbXrecord
 90
    14877
  0
XRECORD
  5
7DE1B343D9E606E
102
{ACAD_REACTORS
330
7DE1B343D9E6068
102
}
330
7DE1B343D9E6068
100
AcDbXrecord
340
7DE1B343D9E605E
  0
XRECORD
  5
7DE1B343D9E606F
102
{ACAD_REACTORS
330
7DE1B343D9E6068
102
}
330
7DE1B343D9E6068
100
AcDbXrecord
340
7DE1B343D9E605B
  0
XRECORD
  5
7DE1B343D9E6075
102
{ACAD_REACTORS
330
7DE1B343D9E6068
102
}
330
7DE1B343D9E6068
100
AcDbXrecord
 40
0.0
  0
XRECORD
  5
7DE1B343D9E6078
102
{ACAD_REACTORS
330
7DE1B343D9E6068
102
}
330
7DE1B343D9E6068
100
AcDbXrecord
340
0
  0
XRECORD
  5
7DE1B343D9E607E
102
{ACAD_REACTORS
330
7DE1B343D9E6068
102
}
330
7DE1B343D9E6068
100
AcDbXrecord
 10
0.0
 20
0.0
 30
0.0
  0
XRECORD
  5
7DE1B343D9E607A
102
{ACAD_REACTORS
330
7DE1B343D9E6068
102
}
330
7DE1B343D9E6068
100
AcDbXrecord
 10
0.0
 20
0.0
 30
0.0
  0
XRECORD
  5
7DE1B343D9E607D
102
{ACAD_REACTORS
330
7DE1B343D9E6068
102
}
330
7DE1B343D9E6068
100
AcDbXrecord
 10
0.0
 20
0.0
 30
0.0
  0
XRECORD
  5
7DE1B343D9E607B
102
{ACAD_REACTORS
330
7DE1B343D9E6068
102
}
330
7DE1B343D9E6068
100
AcDbXrecord
 10
0.0
 20
0.0
 30
0.0
  0
XRECORD
  5
7DE1B343D9E607C
102
{ACAD_REACTORS
330
7DE1B343D9E6068
102
}
330
7DE1B343D9E6068
100
AcDbXrecord
 10
0.0
 20
0.0
 30
0.0
  0
XRECORD
  5
7DE1B343D9E6079
102
{ACAD_REACTORS
330
7DE1B343D9E6068
102
}
330
7DE1B343D9E6068
100
AcDbXrecord
 10
0.0
 20
0.0
 30
0.0
  0
XRECORD
  5
7DE1B343D9E6076
102
{ACAD_REACTORS
330
7DE1B343D9E6068
102
}
330
7DE1B343D9E6068
100
AcDbXrecord
340
0
  0
XRECORD
  5
7DE1B343D9E6077
102
{ACAD_REACTORS
330
7DE1B343D9E6068
102
}
330
7DE1B343D9E6068
100
AcDbXrecord
 70
     0
  0
XRECORD
  5
7DE1B343D9E606C
102
{ACAD_REACTORS
330
7DE1B343D9E6068
102
}
330
7DE1B343D9E6068
100
AcDbXrecord
  1

  0
XRECORD
  5
7DE1B343D9E6069
102
{ACAD_REACTORS
330
7DE1B343D9E6068
102
}
330
7DE1B343D9E6068
100
AcDbXrecord
 90
        1
  0
XRECORD
  5
7DE1B343D9E606A
102
{ACAD_REACTORS
330
7DE1B343D9E6068
102
}
330
7DE1B343D9E6068
100
AcDbXrecord
 90
       70
  0
XRECORD
  5
7DE1B343D9E6081
102
{ACAD_REACTORS
330
7DE1B343D9E6068
102
}
330
7DE1B343D9E6068
100
AcDbXrecord
340
0
  0
XRECORD
  5
7DE1B343D9E6087
102
{ACAD_REACTORS
330
7DE1B343D9E6068
102
}
330
7DE1B343D9E6068
100
AcDbXrecord
 10
0.0
 20
0.0
 30
0.0
  0
XRECORD
  5
7DE1B343D9E6083
102
{ACAD_REACTORS
330
7DE1B343D9E6068
102
}
330
7DE1B343D9E6068
100
AcDbXrecord
 10
0.0
 20
0.0
 30
0.0
  0
XRECORD
  5
7DE1B343D9E6086
102
{ACAD_REACTORS
330
7DE1B343D9E6068
102
}
330
7DE1B343D9E6068
100
AcDbXrecord
 10
0.0
 20
0.0
 30
0.0
  0
XRECORD
  5
7DE1B343D9E6084
102
{ACAD_REACTORS
330
7DE1B343D9E6068
102
}
330
7DE1B343D9E6068
100
AcDbXrecord
 10
0.0
 20
0.0
 30
0.0
  0
XRECORD
  5
7DE1B343D9E6085
102
{ACAD_REACTORS
330
7DE1B343D9E6068
102
}
330
7DE1B343D9E6068
100
AcDbXrecord
 10
0.0
 20
0.0
 30
0.0
  0
XRECORD
  5
7DE1B343D9E6082
102
{ACAD_REACTORS
330
7DE1B343D9E6068
102
}
330
7DE1B343D9E6068
100
AcDbXrecord
 10
0.0
 20
0.0
 30
0.0
  0
XRECORD
  5
7DE1B343D9E607F
102
{ACAD_REACTORS
330
7DE1B343D9E6068
102
}
330
7DE1B343D9E6068
100
AcDbXrecord
340
0
  0
XRECORD
  5
7DE1B343D9E6080
102
{ACAD_REACTORS
330
7DE1B343D9E6068
102
}
330
7DE1B343D9E6068
100
AcDbXrecord
 70
     0
  0
XRECORD
  5
7DE1B343D9E6074
102
{ACAD_REACTORS
330
7DE1B343D9E6068
102
}
330
7DE1B343D9E6068
100
AcDbXrecord
  1
{748805F2-8DB6-11D6-88E6-0090279574E7}
  0
DICTIONARYVAR
  5
7DE1B343D9E6066
102
{ACAD_REACTORS
330
7DE1B343D9E6065
102
}
330
7DE1B343D9E6065
100
DictionaryVariables
280
     0
  1
1
  0
ENDSEC
  0
EOF
