  0
SECTION
  2
HEADER
  9
$ACADVER
  1
AC1014
  9
$ACADMAINTVER
 70
     9
  9
$DWGCODEPAGE
  3
ANSI_1252
  9
$INSBASE
 10
2.740853686342703
 20
1.666558106032212
 30
0.0
  9
$EXTMIN
 10
0.9664963361451286
 20
0.1538150509129188
 30
0.0
  9
$EXTMAX
 10
4.451715657892258
 20
2.041842708930575
 30
0.0
  9
$LIMMIN
 10
0.0
 20
0.0
  9
$LIMMAX
 10
18.0
 20
12.0
  9
$ORTHOMODE
 70
     1
  9
$REGENMODE
 70
     1
  9
$FILLMODE
 70
     1
  9
$QTEXTMODE
 70
     0
  9
$MIRRTEXT
 70
     0
  9
$DRAGMODE
 70
     2
  9
$LTSCALE
 40
1.0
  9
$OSMODE
 70
    39
  9
$ATTMODE
 70
     1
  9
$TEXTSIZE
 40
0.125
  9
$TRACEWID
 40
0.05
  9
$TEXTSTYLE
  7
ROMANS
  9
$CLAYER
  8
0
  9
$CELTYPE
  6
BYLAYER
  9
$CECOLOR
 62
   256
  9
$CELTSCALE
 40
1.0
  9
$DELOBJ
 70
     1
  9
$DISPSILH
 70
     1
  9
$DIMSCALE
 40
1.0
  9
$DIMASZ
 40
0.125
  9
$DIMEXO
 40
0.125
  9
$DIMDLI
 40
0.375
  9
$DIMRND
 40
0.0
  9
$DIMDLE
 40
0.0
  9
$DIMEXE
 40
0.125
  9
$DIMTP
 40
0.0
  9
$DIMTM
 40
0.0
  9
$DIMTXT
 40
0.125
  9
$DIMCEN
 40
-0.125
  9
$DIMTSZ
 40
0.0
  9
$DIMTOL
 70
     0
  9
$DIMLIM
 70
     0
  9
$DIMTIH
 70
     1
  9
$DIMTOH
 70
     1
  9
$DIMSE1
 70
     0
  9
$DIMSE2
 70
     0
  9
$DIMTAD
 70
     0
  9
$DIMZIN
 70
     4
  9
$DIMBLK
  1

  9
$DIMASO
 70
     1
  9
$DIMSHO
 70
     1
  9
$DIMPOST
  1

  9
$DIMAPOST
  1

  9
$DIMALT
 70
     0
  9
$DIMALTD
 70
     2
  9
$DIMALTF
 40
25.4
  9
$DIMLFAC
 40
1.0
  9
$DIMTOFL
 70
     0
  9
$DIMTVP
 40
0.0
  9
$DIMTIX
 70
     1
  9
$DIMSOXD
 70
     0
  9
$DIMSAH
 70
     0
  9
$DIMBLK1
  1

  9
$DIMBLK2
  1

  9
$DIMSTYLE
  2
STANDARD
  9
$DIMCLRD
 70
     0
  9
$DIMCLRE
 70
     0
  9
$DIMCLRT
 70
     0
  9
$DIMTFAC
 40
1.0
  9
$DIMGAP
 40
0.09
  9
$DIMJUST
 70
     0
  9
$DIMSD1
 70
     0
  9
$DIMSD2
 70
     0
  9
$DIMTOLJ
 70
     1
  9
$DIMTZIN
 70
     4
  9
$DIMALTZ
 70
     0
  9
$DIMALTTZ
 70
     0
  9
$DIMFIT
 70
     3
  9
$DIMUPT
 70
     0
  9
$DIMUNIT
 70
     2
  9
$DIMDEC
 70
     3
  9
$DIMTDEC
 70
     3
  9
$DIMALTU
 70
     2
  9
$DIMALTTD
 70
     2
  9
$DIMTXSTY
  7
ROMANS
  9
$DIMAUNIT
 70
     0
  9
$LUNITS
 70
     2
  9
$LUPREC
 70
     3
  9
$SKETCHINC
 40
0.1
  9
$FILLETRAD
 40
0.03125
  9
$AUNITS
 70
     0
  9
$AUPREC
 70
     0
  9
$MENU
  1
ACAD
  9
$ELEVATION
 40
0.0
  9
$PELEVATION
 40
0.0
  9
$THICKNESS
 40
0.0
  9
$LIMCHECK
 70
     0
  9
$BLIPMODE
 70
     0
  9
$CHAMFERA
 40
0.0
  9
$CHAMFERB
 40
0.0
  9
$CHAMFERC
 40
0.0
  9
$CHAMFERD
 40
0.0
  9
$SKPOLY
 70
     0
  9
$TDCREATE
 40
2448994.579943171
  9
$TDUPDATE
 40
2452458.307532928
  9
$TDINDWG
 40
0.0005293750
  9
$TDUSRTIMER
 40
0.0005293750
  9
$USRTIMER
 70
     1
  9
$ANGBASE
 50
0.0
  9
$ANGDIR
 70
     0
  9
$PDMODE
 70
     0
  9
$PDSIZE
 40
0.0
  9
$PLINEWID
 40
0.0
  9
$COORDS
 70
     2
  9
$SPLFRAME
 70
     0
  9
$SPLINETYPE
 70
     6
  9
$SPLINESEGS
 70
     8
  9
$ATTDIA
 70
     0
  9
$ATTREQ
 70
     1
  9
$HANDLING
 70
 22529
  9
$HANDSEED
  5
7DE1B343D9E4DF2
  9
$SURFTAB1
 70
     6
  9
$SURFTAB2
 70
     6
  9
$SURFTYPE
 70
     6
  9
$SURFU
 70
     6
  9
$SURFV
 70
     6
  9
$UCSNAME
  2

  9
$UCSORG
 10
0.0
 20
0.0
 30
0.0
  9
$UCSXDIR
 10
1.0
 20
0.0
 30
0.0
  9
$UCSYDIR
 10
0.0
 20
1.0
 30
0.0
  9
$PUCSNAME
  2

  9
$PUCSORG
 10
0.0
 20
0.0
 30
0.0
  9
$PUCSXDIR
 10
1.0
 20
0.0
 30
0.0
  9
$PUCSYDIR
 10
0.0
 20
1.0
 30
0.0
  9
$USERI1
 70
     0
  9
$USERI2
 70
     0
  9
$USERI3
 70
     0
  9
$USERI4
 70
     0
  9
$USERI5
 70
     0
  9
$USERR1
 40
0.0
  9
$USERR2
 40
0.0
  9
$USERR3
 40
0.0
  9
$USERR4
 40
0.0
  9
$USERR5
 40
0.0
  9
$WORLDVIEW
 70
     1
  9
$SHADEDGE
 70
     3
  9
$SHADEDIF
 70
    70
  9
$TILEMODE
 70
     1
  9
$MAXACTVP
 70
    16
  9
$PINSBASE
 10
1.026746042987193
 20
50.00000000000001
 30
2.356707315758259
  9
$PLIMCHECK
 70
     0
  9
$PEXTMIN
 10
1.000000000000000E+20
 20
1.000000000000000E+20
 30
1.000000000000000E+20
  9
$PEXTMAX
 10
-1.000000000000000E+20
 20
-1.000000000000000E+20
 30
-1.000000000000000E+20
  9
$PLIMMIN
 10
0.0
 20
0.0
  9
$PLIMMAX
 10
12.0
 20
9.0
  9
$UNITMODE
 70
     0
  9
$VISRETAIN
 70
     0
  9
$PLINEGEN
 70
     1
  9
$PSLTSCALE
 70
     0
  9
$TREEDEPTH
 70
  3020
  9
$PICKSTYLE
 70
     1
  9
$CMLSTYLE
  2
STANDARD
  9
$CMLJUST
 70
     0
  9
$CMLSCALE
 40
1.0
  9
$PROXYGRAPHICS
 70
     1
  9
$MEASUREMENT
 70
     0
  0
ENDSEC
  0
SECTION
  2
CLASSES
  0
CLASS
  1
LWPOLYLINE
  2
AcDbPolyline
  3
AutoCAD 2000
 90
        0
280
     0
281
     1
  0
CLASS
  1
ACDBDICTIONARYWDFLT
  2
AcDbDictionaryWithDefault
  3
AutoCAD 2000
 90
        0
280
     0
281
     0
  0
CLASS
  1
ACDBPLACEHOLDER
  2
AcDbPlaceHolder
  3
AutoCAD 2000
 90
        0
280
     0
281
     0
  0
CLASS
  1
LAYOUT
  2
AcDbLayout
  3
AutoCAD 2000
 90
        0
280
     0
281
     0
  0
CLASS
  1
DICTIONARYVAR
  2
AcDbDictionaryVar
  3
AutoCAD 2000
 90
        0
280
     0
281
     0
  0
CLASS
  1
LONG_TRANSACTION
  2
AcDbLongTransaction
  3
AutoCAD 2000
 90
        0
280
     0
281
     0
  0
CLASS
  1
LWPOLYLINE
  2
AcDbPolyline
  3
AutoCAD 2000
 90
        0
280
     0
281
     1
  0
CLASS
  1
HATCH
  2
AcDbHatch
  3
AutoCAD 2000
 90
        0
280
     0
281
     1
  0
CLASS
  1
XRECORD
  2
AcDbXrecord
  3
AutoCAD 2000
 90
        0
280
     0
281
     0
  0
ENDSEC
  0
SECTION
  2
TABLES
  0
TABLE
  2
VPORT
  5
7DE1B343D9E4D99
330
0
100
AcDbSymbolTable
 70
     2
  0
VPORT
  5
7DE1B343D9E4DCD
330
7DE1B343D9E4D99
100
AcDbSymbolTableRecord
100
AcDbViewportTableRecord
  2
*ACTIVE
 70
     0
 10
0.0
 20
0.0
 11
1.0
 21
1.0
 12
5.685976826554868
 22
1.0978088601234
 13
0.0
 23
0.0
 14
0.015625
 24
0.015625
 15
0.0
 25
0.0
 16
0.0
 26
0.0
 36
1.0
 17
0.0
 27
0.0
 37
0.0
 40
2.282647215150728
 41
4.320930232558139
 42
50.0
 43
0.0
 44
0.0
 50
0.0
 51
0.0
 71
     0
 72
  2000
 73
     1
 74
     0
 75
     0
 76
     0
 77
     0
 78
     0
  0
ENDTAB
  0
TABLE
  2
LTYPE
  5
7DE1B343D9E4D96
330
0
100
AcDbSymbolTable
 70
     1
  0
LTYPE
  5
7DE1B343D9E4DA3
330
7DE1B343D9E4D96
100
AcDbSymbolTableRecord
100
AcDbLinetypeTableRecord
  2
BYBLOCK
 70
     0
  3

 72
    65
 73
     0
 40
0.0
  0
LTYPE
  5
7DE1B343D9E4DA4
330
7DE1B343D9E4D96
100
AcDbSymbolTableRecord
100
AcDbLinetypeTableRecord
  2
BYLAYER
 70
     0
  3

 72
    65
 73
     0
 40
0.0
  0
LTYPE
  5
7DE1B343D9E4DA5
330
7DE1B343D9E4D96
100
AcDbSymbolTableRecord
100
AcDbLinetypeTableRecord
  2
CONTINUOUS
 70
     0
  3
Solid line
 72
    65
 73
     0
 40
0.0
  0
ENDTAB
  0
TABLE
  2
LAYER
  5
7DE1B343D9E4D93
330
0
100
AcDbSymbolTable
 70
     2
  0
LAYER
  5
7DE1B343D9E4DA0
330
7DE1B343D9E4D93
100
AcDbSymbolTableRecord
100
AcDbLayerTableRecord
  2
0
 70
     0
 62
     7
  6
CONTINUOUS
  0
LAYER
  5
7DE1B343D9E4DB0
330
7DE1B343D9E4D93
100
AcDbSymbolTableRecord
100
AcDbLayerTableRecord
  2
TEXT
 70
     0
 62
     3
  6
CONTINUOUS
  0
ENDTAB
  0
TABLE
  2
STYLE
  5
7DE1B343D9E4D94
330
0
100
AcDbSymbolTable
 70
     3
  0
STYLE
  5
7DE1B343D9E4DA1
330
7DE1B343D9E4D94
100
AcDbSymbolTableRecord
100
AcDbTextStyleTableRecord
  2
STANDARD
 70
     0
 40
0.0
 41
1.0
 50
0.0
 71
     0
 42
0.3125
  3
txt
  4

  0
STYLE
  5
7DE1B343D9E4DAD
330
7DE1B343D9E4D94
100
AcDbSymbolTableRecord
100
AcDbTextStyleTableRecord
  2
ITALICC
 70
     0
 40
0.0
 41
1.0
 50
0.0
 71
     0
 42
0.125
  3
italicc
  4

  0
STYLE
  5
7DE1B343D9E4DBD
330
7DE1B343D9E4D94
100
AcDbSymbolTableRecord
100
AcDbTextStyleTableRecord
  2
ROMANS
 70
     0
 40
0.0
 41
1.0
 50
0.0
 71
     0
 42
0.125
  3
romans.shx
  4

  0
ENDTAB
  0
TABLE
  2
VIEW
  5
7DE1B343D9E4D97
330
0
100
AcDbSymbolTable
 70
     0
  0
ENDTAB
  0
TABLE
  2
UCS
  5
7DE1B343D9E4D98
330
0
100
AcDbSymbolTable
 70
     0
  0
ENDTAB
  0
TABLE
  2
APPID
  5
7DE1B343D9E4D9A
330
0
100
AcDbSymbolTable
 70
     1
  0
APPID
  5
7DE1B343D9E4DA2
330
7DE1B343D9E4D9A
100
AcDbSymbolTableRecord
100
AcDbRegAppTableRecord
  2
ACAD
 70
     0
  0
ENDTAB
  0
TABLE
  2
DIMSTYLE
  5
7DE1B343D9E4D9B
330
0
100
AcDbSymbolTable
 70
     1
  0
DIMSTYLE
105
7DE1B343D9E4DB5
330
7DE1B343D9E4D9B
100
AcDbSymbolTableRecord
100
AcDbDimStyleTableRecord
  2
STANDARD
 70
     0
  3

  4

  5

  6

  7

 40
1.0
 41
0.125
 42
0.125
 43
0.375
 44
0.125
 45
0.0
 46
0.0
 47
0.0
 48
0.0
140
0.125
141
-0.125
142
0.0
143
25.4
144
1.0
145
0.0
146
1.0
147
0.09
 71
     0
 72
     0
 73
     1
 74
     1
 75
     0
 76
     0
 77
     0
 78
     4
170
     0
171
     2
172
     0
173
     0
174
     1
175
     0
176
     0
177
     0
178
     0
270
     2
271
     3
272
     3
273
     2
274
     2
340
7DE1B343D9E4DBD
275
     0
280
     0
281
     0
282
     0
283
     1
284
     4
285
     0
286
     0
287
     3
288
     0
  0
ENDTAB
  0
TABLE
  2
BLOCK_RECORD
  5
7DE1B343D9E4D92
330
0
100
AcDbSymbolTable
 70
     0
  0
BLOCK_RECORD
  5
7DE1B343D9E4DA9
102
{ACAD_XDICTIONARY
360
7DE1B343D9E4DF0
102
}
330
7DE1B343D9E4D92
100
AcDbSymbolTableRecord
100
AcDbBlockTableRecord
  2
*MODEL_SPACE
  0
BLOCK_RECORD
  5
7DE1B343D9E4DA6
102
{ACAD_XDICTIONARY
360
7DE1B343D9E4DEE
102
}
330
7DE1B343D9E4D92
100
AcDbSymbolTableRecord
100
AcDbBlockTableRecord
  2
*PAPER_SPACE
  0
ENDTAB
  0
ENDSEC
  0
SECTION
  2
BLOCKS
  0
BLOCK
  5
7DE1B343D9E4DB3
330
7DE1B343D9E4DA9
100
AcDbEntity
  8
0
100
AcDbBlockBegin
  2
*MODEL_SPACE
 70
     0
 10
0.0
 20
0.0
 30
0.0
  3
*MODEL_SPACE
  1

  0
ENDBLK
  5
7DE1B343D9E4DB4
330
7DE1B343D9E4DA9
100
AcDbEntity
  8
0
100
AcDbBlockEnd
  0
BLOCK
  5
7DE1B343D9E4DB1
330
7DE1B343D9E4DA6
100
AcDbEntity
 67
     1
  8
0
100
AcDbBlockBegin
  2
*PAPER_SPACE
 70
     0
 10
0.0
 20
0.0
 30
0.0
  3
*PAPER_SPACE
  1

  0
ENDBLK
  5
7DE1B343D9E4DB2
330
7DE1B343D9E4DA6
100
AcDbEntity
 67
     1
  8
0
100
AcDbBlockEnd
  0
ENDSEC
  0
SECTION
  2
ENTITIES
  0
LWPOLYLINE
  5
7DE1B343D9E380E
330
7DE1B343D9E4DA9
100
AcDbEntity
  8
0
100
AcDbPolyline
 90
       22
 70
     1
 43
0.0
 10
2.63014040149366
 20
1.856950573306845
 42
0.7673269879789589
 10
2.520977915372271
 20
1.827700573306845
 42
0.7673269879789594
 10
2.630140401493661
 20
1.798450573306844
 10
2.664477915372271
 20
1.778625800425726
 10
2.664477915372271
 20
1.734575573306845
 10
2.654477915372271
 20
1.724575573306845
 10
2.664477915372271
 20
1.714575573306845
 10
2.664477915372271
 20
1.677700573306845
 10
2.969477915372271
 20
1.677700573306845
 42
-0.4142134959636359
 10
2.999477915372271
 20
1.647700580108927
 10
2.999477915372271
 20
0.9577005688957186
 42
-1.0
 10
2.939477915372271
 20
0.9577005692012448
 10
2.939477915372271
 20
1.617700573306845
 10
2.449477915372271
 20
1.617700573306845
 42
-0.4142135623730951
 10
2.429477915372271
 20
1.637700573306844
 10
2.429477915372271
 20
1.827700573306845
 10
2.429477915372271
 20
2.017700573306845
 42
-0.4142135623730951
 10
2.449477915372271
 20
2.037700573306844
 10
2.969477915372271
 20
2.037700573306844
 42
-1.0
 10
2.969477915372271
 20
1.977700573306844
 10
2.664477915372271
 20
1.977700573306844
 10
2.664477915372271
 20
1.876775346187963
  0
TEXT
  5
7DE1B343D9E4C54
330
7DE1B343D9E4DA9
100
AcDbEntity
  8
TEXT
100
AcDbText
 10
1.968406486800843
 20
0.6118336549955002
 30
0.0
 40
0.125
  1
PART #110341
  7
ITALICC
 72
     1
 11
2.709477915372271
 21
0.6118336549955002
 31
0.0
100
AcDbText
  0
TEXT
  5
7DE1B343D9E4C55
330
7DE1B343D9E4DA9
100
AcDbEntity
  8
TEXT
100
AcDbText
 10
3.122783073622592
 20
0.164911012323125
 30
0.0
 40
0.0522247191011236
  1
Phone  1-800-328-2495
 41
1.272321428571429
 72
     5
 11
4.451715657892256
 21
0.164911012323125
 31
0.0
100
AcDbText
  0
TEXT
  5
7DE1B343D9E4C56
330
7DE1B343D9E4DA9
100
AcDbEntity
  8
TEXT
100
AcDbText
 10
3.122783073622592
 20
0.4446862932220015
 30
0.0
 40
0.0522247191011236
  1
Stylmark  Incorporated
 41
1.221428571428573
 72
     5
 11
4.451715657892256
 21
0.4446862932220015
 31
0.0
100
AcDbText
  0
TEXT
  5
7DE1B343D9E4C57
330
7DE1B343D9E4DA9
100
AcDbEntity
  8
TEXT
100
AcDbText
 10
3.122783073622592
 20
0.3514278662557093
 30
0.0
 40
0.0522247191011236
  1
6536 Main St. N.E. * P.O. Box 32008
 41
0.8388932496075366
 72
     5
 11
4.451715657892256
 21
0.3514278662557093
 31
0.0
100
AcDbText
  0
TEXT
  5
7DE1B343D9E4C58
330
7DE1B343D9E4DA9
100
AcDbEntity
  8
TEXT
100
AcDbText
 10
3.122783073622592
 20
0.2581694392894172
 30
0.0
 40
0.0522247191011236
  1
Minneapolis, MN 55432-0008
 41
1.11444212721585
 72
     5
 11
4.451715657892256
 21
0.2581694392894172
 31
0.0
100
AcDbText
  0
LWPOLYLINE
  5
7DE1B343D9E4C59
330
7DE1B343D9E4DA9
100
AcDbEntity
  8
TEXT
100
AcDbPolyline
 90
        3
 70
     0
 43
0.0006660908203125
 10
0.9668293815552848
 20
0.2785557749605598
 10
0.9668293815552848
 20
0.1653203355074322
 10
1.080064821008407
 20
0.1653203355074322
  0
LWPOLYLINE
  5
7DE1B343D9E4C5E
330
7DE1B343D9E4DA9
100
AcDbEntity
  8
TEXT
100
AcDbPolyline
 90
        3
 70
     0
 43
0.0006660908203125
 10
0.9934730143677823
 20
0.2785557749605598
 10
0.9934730143677823
 20
0.1919639683199332
 10
1.080064821008407
 20
0.1919639683199332
  0
LWPOLYLINE
  5
7DE1B343D9E4C63
330
7DE1B343D9E4DA9
100
AcDbEntity
  8
TEXT
100
AcDbPolyline
 90
        2
 70
     0
 43
0.0001332181640625
 10
1.040099371789659
 20
0.2885471372652451
 10
0.9668293815552848
 20
0.2785557749605598
  0
LWPOLYLINE
  5
7DE1B343D9E4C67
330
7DE1B343D9E4DA9
100
AcDbEntity
  8
TEXT
100
AcDbPolyline
 90
        2
 70
     0
 43
0.0001332181640625
 10
0.9934730143677823
 20
0.2785557749605598
 10
1.053421188195909
 20
0.2885471372652451
  0
LWPOLYLINE
  5
7DE1B343D9E4C6B
330
7DE1B343D9E4DA9
100
AcDbEntity
  8
TEXT
100
AcDbPolyline
 90
        2
 70
     0
 43
0.0001332181640625
 10
0.9934730143677823
 20
0.1919639683199332
 10
1.053421188195909
 20
0.2519121421480588
  0
LWPOLYLINE
  5
7DE1B343D9E4C6F
330
7DE1B343D9E4DA9
100
AcDbEntity
  8
TEXT
100
AcDbPolyline
 90
        3
 70
     0
 43
0.0006660908203125
 10
1.080064821008407
 20
0.4317566636324355
 10
0.9668293815552848
 20
0.4317566636324355
 10
0.9668293815552848
 20
0.3185212241793078
  0
LWPOLYLINE
  5
7DE1B343D9E4C74
330
7DE1B343D9E4DA9
100
AcDbEntity
  8
TEXT
100
AcDbPolyline
 90
        3
 70
     0
 43
0.0006660908203125
 10
1.080064821008407
 20
0.4051130308199344
 10
0.9934730143677823
 20
0.4051130308199344
 10
0.9934730143677823
 20
0.3185212241793078
  0
LWPOLYLINE
  5
7DE1B343D9E4C79
330
7DE1B343D9E4DA9
100
AcDbEntity
  8
TEXT
100
AcDbPolyline
 90
        2
 70
     0
 43
0.0001332181640625
 10
0.9934730143677823
 20
0.4051130308199344
 10
1.053421188195907
 20
0.3451648569918089
  0
LWPOLYLINE
  5
7DE1B343D9E4C7D
330
7DE1B343D9E4DA9
100
AcDbEntity
  8
TEXT
100
AcDbPolyline
 90
        2
 70
     0
 43
0.0001332181640625
 10
0.9934730143677823
 20
0.3185212241793078
 10
1.053421188195907
 20
0.3085298618746191
  0
LWPOLYLINE
  5
7DE1B343D9E4C81
330
7DE1B343D9E4DA9
100
AcDbEntity
  8
TEXT
100
AcDbPolyline
 90
        2
 70
     0
 43
0.0001332181640625
 10
0.9668293815552848
 20
0.3185212241793078
 10
1.040099371789659
 20
0.3085298618746191
  0
LWPOLYLINE
  5
7DE1B343D9E4C85
330
7DE1B343D9E4DA9
100
AcDbEntity
  8
TEXT
100
AcDbPolyline
 90
        2
 70
     0
 43
0.0006660908203125
 10
0.9934730143677823
 20
0.2785557749605598
 10
0.9668293815552848
 20
0.2785557749605598
  0
LWPOLYLINE
  5
7DE1B343D9E4C89
330
7DE1B343D9E4DA9
100
AcDbEntity
  8
TEXT
100
AcDbPolyline
 90
        2
 70
     0
 43
0.0006660908203125
 10
0.9934730143677823
 20
0.3185212241793078
 10
0.9668293815552848
 20
0.3185212241793078
  0
LINE
  5
7DE1B343D9E4C8D
330
7DE1B343D9E4DA9
100
AcDbEntity
  8
TEXT
100
AcDbLine
 10
2.482019810681782
 20
0.3674799689756665
 30
0.0
 11
2.374813537294492
 21
0.3674799689756665
 31
0.0
  0
LINE
  5
7DE1B343D9E4C8E
330
7DE1B343D9E4DA9
100
AcDbEntity
  8
TEXT
100
AcDbLine
 10
2.51105070902626
 20
0.4317566636324319
 30
0.0
 11
2.376218799809201
 21
0.4317566636324319
 31
0.0
  0
ARC
  5
7DE1B343D9E4C8F
330
7DE1B343D9E4DA9
100
AcDbEntity
  8
TEXT
100
AcDbCircle
 10
2.435532896202518
 20
0.2625194143694156
 30
0.0
 40
0.0676855811441166
100
AcDbArc
 50
90.0
 51
153.7768192527749
  0
LWPOLYLINE
  5
7DE1B343D9E4C90
330
7DE1B343D9E4DA9
100
AcDbEntity
  8
TEXT
100
AcDbPolyline
 90
        2
 70
     0
 43
0.0
 10
2.373781041839682
 20
0.2087745755943591
 42
0.2901071551932823
 10
2.416856974707318
 20
0.1652836306439209
 42
5.328517124445801
  0
ARC
  5
7DE1B343D9E4C94
330
7DE1B343D9E4DA9
100
AcDbEntity
  8
TEXT
100
AcDbCircle
 10
1.730401518531032
 20
0.2250760219819707
 30
0.0
 40
0.0601160179737537
100
AcDbArc
 50
180.0000000000003
 51
264.0521544866073
  0
LINE
  5
7DE1B343D9E4C95
330
7DE1B343D9E4DA9
100
AcDbEntity
  8
TEXT
100
AcDbLine
 10
1.73391687415658
 20
0.4661445812265701
 30
0.0
 11
1.673874269312573
 21
0.4661445812265701
 31
0.0
  0
ARC
  5
7DE1B343D9E4C96
330
7DE1B343D9E4DA9
100
AcDbEntity
  8
TEXT
100
AcDbCircle
 10
1.498142516414062
 20
0.3496692041859302
 30
0.0
 40
0.0820874594465043
100
AcDbArc
 50
90.0
 51
270.0
  0
LWPOLYLINE
  5
7DE1B343D9E4C97
330
7DE1B343D9E4DA9
100
AcDbEntity
  8
TEXT
100
AcDbPolyline
 90
        2
 70
     0
 43
0.0001332181640625
 10
1.090056183313097
 20
0.3584866733980558
 10
1.080064821008407
 20
0.4317566636324355
  0
LWPOLYLINE
  5
7DE1B343D9E4C9B
330
7DE1B343D9E4DA9
100
AcDbEntity
  8
TEXT
100
AcDbPolyline
 90
        2
 70
     0
 43
0.0001332181640625
 10
1.080064821008407
 20
0.4051130308199344
 10
1.090056183313097
 20
0.3451648569918089
  0
LWPOLYLINE
  5
7DE1B343D9E4C9F
330
7DE1B343D9E4DA9
100
AcDbEntity
  8
TEXT
100
AcDbPolyline
 90
        3
 70
     0
 43
0.0006660908203125
 10
1.233265709680284
 20
0.3185212241793078
 10
1.233265709680284
 20
0.4317566636324355
 10
1.120030270227158
 20
0.4317566636324355
  0
LWPOLYLINE
  5
7DE1B343D9E4CA4
330
7DE1B343D9E4DA9
100
AcDbEntity
  8
TEXT
100
AcDbPolyline
 90
        3
 70
     0
 43
0.0006660908203125
 10
1.206622076867783
 20
0.3185212241793078
 10
1.206622076867783
 20
0.4051130308199344
 10
1.120030270227158
 20
0.4051130308199344
  0
LWPOLYLINE
  5
7DE1B343D9E4CA9
330
7DE1B343D9E4DA9
100
AcDbEntity
  8
TEXT
100
AcDbPolyline
 90
        2
 70
     0
 43
0.0001332181640625
 10
1.206622076867783
 20
0.4051130308199344
 10
1.146673903039659
 20
0.3451648569918089
  0
LWPOLYLINE
  5
7DE1B343D9E4CAD
330
7DE1B343D9E4DA9
100
AcDbEntity
  8
TEXT
100
AcDbPolyline
 90
        2
 70
     0
 43
0.0001332181640625
 10
1.120030270227158
 20
0.4051130308199344
 10
1.110038907922469
 20
0.3451648569918089
  0
LWPOLYLINE
  5
7DE1B343D9E4CB1
330
7DE1B343D9E4DA9
100
AcDbEntity
  8
TEXT
100
AcDbPolyline
 90
        2
 70
     0
 43
0.0001332181640625
 10
1.120030270227158
 20
0.4317566636324355
 10
1.110038907922469
 20
0.3584866733980558
  0
LWPOLYLINE
  5
7DE1B343D9E4CB5
330
7DE1B343D9E4DA9
100
AcDbEntity
  8
TEXT
100
AcDbPolyline
 90
        2
 70
     0
 43
0.0001332181640625
 10
1.159995719445908
 20
0.3085298618746191
 10
1.233265709680284
 20
0.3185212241793078
  0
LWPOLYLINE
  5
7DE1B343D9E4CB9
330
7DE1B343D9E4DA9
100
AcDbEntity
  8
TEXT
100
AcDbPolyline
 90
        2
 70
     0
 43
0.0001332181640625
 10
1.206622076867783
 20
0.3185212241793078
 10
1.146673903039659
 20
0.3085298618746191
  0
LWPOLYLINE
  5
7DE1B343D9E4CBD
330
7DE1B343D9E4DA9
100
AcDbEntity
  8
TEXT
100
AcDbPolyline
 90
        2
 70
     0
 43
0.0001332181640625
 10
1.233265709680284
 20
0.2785557749605598
 10
1.159995719445908
 20
0.2885471372652451
  0
LWPOLYLINE
  5
7DE1B343D9E4CC1
330
7DE1B343D9E4DA9
100
AcDbEntity
  8
TEXT
100
AcDbPolyline
 90
        2
 70
     0
 43
0.0001332181640625
 10
1.206622076867783
 20
0.2785557749605598
 10
1.146673903039659
 20
0.2885471372652451
  0
LWPOLYLINE
  5
7DE1B343D9E4CC5
330
7DE1B343D9E4DA9
100
AcDbEntity
  8
TEXT
100
AcDbPolyline
 90
        2
 70
     0
 43
0.0001332181640625
 10
1.206622076867783
 20
0.1919639683199332
 10
1.146673903039659
 20
0.2519121421480588
  0
LWPOLYLINE
  5
7DE1B343D9E4CC9
330
7DE1B343D9E4DA9
100
AcDbEntity
  8
TEXT
100
AcDbPolyline
 90
        3
 70
     0
 43
0.0006660908203125
 10
1.120030270227158
 20
0.1919639683199332
 10
1.206622076867783
 20
0.1919639683199332
 10
1.206622076867783
 20
0.2785557749605598
  0
LWPOLYLINE
  5
7DE1B343D9E4CCE
330
7DE1B343D9E4DA9
100
AcDbEntity
  8
TEXT
100
AcDbPolyline
 90
        3
 70
     0
 43
0.0006660908203125
 10
1.120030270227158
 20
0.1653203355074322
 10
1.233265709680284
 20
0.1653203355074322
 10
1.233265709680284
 20
0.2785557749605598
  0
LWPOLYLINE
  5
7DE1B343D9E4CD3
330
7DE1B343D9E4DA9
100
AcDbEntity
  8
TEXT
100
AcDbPolyline
 90
        5
 70
     0
 43
0.0001332181640625
 10
1.090056183313097
 20
0.2385903257418083
 10
1.090056183313097
 20
0.2519121421480588
 10
1.053421188195909
 20
0.2519121421480588
 10
1.053421188195909
 20
0.2885471372652451
 10
1.040099371789659
 20
0.2885471372652451
  0
LWPOLYLINE
  5
7DE1B343D9E4CDA
330
7DE1B343D9E4DA9
100
AcDbEntity
  8
TEXT
100
AcDbPolyline
 90
        2
 70
     0
 43
0.0006660908203125
 10
1.080064821008407
 20
0.1919639683199332
 10
1.080064821008407
 20
0.1653203355074322
  0
LWPOLYLINE
  5
7DE1B343D9E4CDE
330
7DE1B343D9E4DA9
100
AcDbEntity
  8
TEXT
100
AcDbPolyline
 90
        2
 70
     0
 43
0.0001332181640625
 10
1.080064821008407
 20
0.1919639683199332
 10
1.090056183313097
 20
0.2519121421480588
  0
LWPOLYLINE
  5
7DE1B343D9E4CE2
330
7DE1B343D9E4DA9
100
AcDbEntity
  8
TEXT
100
AcDbPolyline
 90
        2
 70
     0
 43
0.0001332181640625
 10
1.080064821008407
 20
0.1653203355074322
 10
1.090056183313097
 20
0.2385903257418083
  0
LWPOLYLINE
  5
7DE1B343D9E4CE6
330
7DE1B343D9E4DA9
100
AcDbEntity
  8
TEXT
100
AcDbPolyline
 90
        5
 70
     0
 43
0.0001332181640625
 10
1.040099371789659
 20
0.3085298618746191
 10
1.053421188195907
 20
0.3085298618746191
 10
1.053421188195907
 20
0.3451648569918089
 10
1.090056183313097
 20
0.3451648569918089
 10
1.090056183313097
 20
0.3584866733980558
  0
LWPOLYLINE
  5
7DE1B343D9E4CED
330
7DE1B343D9E4DA9
100
AcDbEntity
  8
TEXT
100
AcDbPolyline
 90
        5
 70
     0
 43
0.0001332181640625
 10
1.110038907922469
 20
0.3584866733980558
 10
1.110038907922469
 20
0.3451648569918089
 10
1.146673903039659
 20
0.3451648569918089
 10
1.146673903039659
 20
0.3085298618746191
 10
1.159995719445908
 20
0.3085298618746191
  0
LWPOLYLINE
  5
7DE1B343D9E4CF4
330
7DE1B343D9E4DA9
100
AcDbEntity
  8
TEXT
100
AcDbPolyline
 90
        2
 70
     0
 43
0.0001332181640625
 10
1.120030270227158
 20
0.1919639683199332
 10
1.110038907922469
 20
0.2519121421480588
  0
LWPOLYLINE
  5
7DE1B343D9E4CF8
330
7DE1B343D9E4DA9
100
AcDbEntity
  8
TEXT
100
AcDbPolyline
 90
        2
 70
     0
 43
0.0001332181640625
 10
1.110038907922469
 20
0.2385903257418083
 10
1.120030270227158
 20
0.1653203355074322
  0
LWPOLYLINE
  5
7DE1B343D9E4CFC
330
7DE1B343D9E4DA9
100
AcDbEntity
  8
TEXT
100
AcDbPolyline
 90
        2
 70
     0
 43
0.0006660908203125
 10
1.120030270227158
 20
0.1919639683199332
 10
1.120030270227158
 20
0.1653203355074322
  0
LWPOLYLINE
  5
7DE1B343D9E4D00
330
7DE1B343D9E4DA9
100
AcDbEntity
  8
TEXT
100
AcDbPolyline
 90
        5
 70
     0
 43
0.0001332181640625
 10
1.159995719445908
 20
0.2885471372652451
 10
1.146673903039659
 20
0.2885471372652451
 10
1.146673903039659
 20
0.2519121421480588
 10
1.110038907922469
 20
0.2519121421480588
 10
1.110038907922469
 20
0.2385903257418083
  0
LWPOLYLINE
  5
7DE1B343D9E4D07
330
7DE1B343D9E4DA9
100
AcDbEntity
  8
TEXT
100
AcDbPolyline
 90
        2
 70
     0
 43
0.0006660908203125
 10
1.206622076867783
 20
0.3185212241793078
 10
1.233265709680284
 20
0.3185212241793078
  0
LWPOLYLINE
  5
7DE1B343D9E4D0B
330
7DE1B343D9E4DA9
100
AcDbEntity
  8
TEXT
100
AcDbPolyline
 90
        2
 70
     0
 43
0.0006660908203125
 10
1.206622076867783
 20
0.2785557749605598
 10
1.233265709680284
 20
0.2785557749605598
  0
LINE
  5
7DE1B343D9E4D0F
330
7DE1B343D9E4DA9
100
AcDbEntity
  8
TEXT
100
AcDbLine
 10
1.503379846528309
 20
0.3674799689756665
 30
0.0
 11
1.67028550055728
 21
0.3674799689756665
 31
0.0
  0
LINE
  5
7DE1B343D9E4D10
330
7DE1B343D9E4DA9
100
AcDbEntity
  8
TEXT
100
AcDbLine
 10
1.56897998277261
 20
0.3316752473650386
 30
0.0
 11
1.503379846528309
 21
0.3316752473650386
 31
0.0
  0
LINE
  5
7DE1B343D9E4D11
330
7DE1B343D9E4DA9
100
AcDbEntity
  8
TEXT
100
AcDbLine
 10
1.416055056967557
 20
0.1652836306439209
 30
0.0
 11
1.56897998277261
 21
0.1652836306439209
 31
0.0
  0
LINE
  5
7DE1B343D9E4D12
330
7DE1B343D9E4DA9
100
AcDbEntity
  8
TEXT
100
AcDbLine
 10
1.57392035667889
 20
0.2336406369773603
 30
0.0
 11
1.416055056967556
 21
0.2336406369773603
 31
0.0
  0
LINE
  5
7DE1B343D9E4D13
330
7DE1B343D9E4DA9
100
AcDbEntity
  8
TEXT
100
AcDbLine
 10
1.498142516414061
 20
0.2675817447394249
 30
0.0
 11
1.57392035667889
 21
0.2675817447394249
 31
0.0
  0
ARC
  5
7DE1B343D9E4D14
330
7DE1B343D9E4DA9
100
AcDbEntity
  8
TEXT
100
AcDbCircle
 10
1.50337984652831
 20
0.3495776081703543
 30
0.0
 40
0.017902360805315
100
AcDbArc
 50
90.0
 51
270.0
  0
LINE
  5
7DE1B343D9E4D15
330
7DE1B343D9E4DA9
100
AcDbEntity
  8
TEXT
100
AcDbLine
 10
1.416055056967556
 20
0.2336406369773603
 30
0.0
 11
1.416055056967557
 21
0.1652836306439209
 31
0.0
  0
LINE
  5
7DE1B343D9E4D16
330
7DE1B343D9E4DA9
100
AcDbEntity
  8
TEXT
100
AcDbLine
 10
1.67028550055728
 20
0.3674799689756665
 30
0.0
 11
1.67028550055728
 21
0.2250760219819707
 31
0.0
  0
ARC
  5
7DE1B343D9E4D17
330
7DE1B343D9E4DA9
100
AcDbEntity
  8
TEXT
100
AcDbCircle
 10
1.568979982772611
 20
0.248479439004478
 30
0.0
 40
0.0831958083605586
100
AcDbArc
 50
270.0
 51
90.0
  0
ARC
  5
7DE1B343D9E4D18
330
7DE1B343D9E4DA9
100
AcDbEntity
  8
TEXT
100
AcDbCircle
 10
1.573920356678891
 20
0.2506111908583943
 30
0.0
 40
0.0169705538810321
100
AcDbArc
 50
270.0
 51
90.0
  0
LWPOLYLINE
  5
7DE1B343D9E4D19
330
7DE1B343D9E4DA9
100
AcDbEntity
  8
TEXT
100
AcDbPolyline
 90
        2
 70
     0
 43
0.0006660908203125
 10
1.080064821008407
 20
0.4051130308199344
 10
1.080064821008407
 20
0.4317566636324355
  0
LWPOLYLINE
  5
7DE1B343D9E4D1D
330
7DE1B343D9E4DA9
100
AcDbEntity
  8
TEXT
100
AcDbPolyline
 90
        2
 70
     0
 43
0.0006660908203125
 10
1.120030270227158
 20
0.4051130308199344
 10
1.120030270227158
 20
0.4317566636324355
  0
LINE
  5
7DE1B343D9E4D21
330
7DE1B343D9E4DA9
100
AcDbEntity
  8
TEXT
100
AcDbLine
 10
1.673874269312573
 20
0.4317566636324319
 30
0.0
 11
1.498142516414061
 21
0.4317566636324319
 31
0.0
  0
LINE
  5
7DE1B343D9E4D22
330
7DE1B343D9E4DA9
100
AcDbEntity
  8
TEXT
100
AcDbLine
 10
1.673874269312573
 20
0.4661445812265701
 30
0.0
 11
1.673874269312573
 21
0.4317566636324319
 31
0.0
  0
LINE
  5
7DE1B343D9E4D23
330
7DE1B343D9E4DA9
100
AcDbEntity
  8
TEXT
100
AcDbLine
 10
1.864346161332425
 20
0.3308846675193113
 30
0.0
 11
1.805715840300488
 21
0.4317566636324319
 31
0.0
  0
LINE
  5
7DE1B343D9E4D24
330
7DE1B343D9E4DA9
100
AcDbEntity
  8
TEXT
100
AcDbLine
 10
1.923094724138291
 20
0.4317566636324319
 30
0.0
 11
1.864346161332425
 21
0.3308846675193113
 31
0.0
  0
LINE
  5
7DE1B343D9E4D25
330
7DE1B343D9E4DA9
100
AcDbEntity
  8
TEXT
100
AcDbLine
 10
2.020025349498032
 20
0.2476714687469201
 30
0.0
 11
2.020025349498032
 21
0.4997681413712425
 31
0.0
  0
LINE
  5
7DE1B343D9E4D26
330
7DE1B343D9E4DA9
100
AcDbEntity
  8
TEXT
100
AcDbLine
 10
2.052337203635692
 20
0.4317566636324319
 30
0.0
 11
2.052337203635692
 21
0.2308924569000237
 31
0.0
  0
LINE
  5
7DE1B343D9E4D27
330
7DE1B343D9E4DA9
100
AcDbEntity
  8
TEXT
100
AcDbLine
 10
2.052337203635692
 20
0.2308924569000237
 30
0.0
 11
2.035343566751091
 21
0.2308924569000237
 31
0.0
  0
LINE
  5
7DE1B343D9E4D28
330
7DE1B343D9E4DA9
100
AcDbEntity
  8
TEXT
100
AcDbLine
 10
2.021164922994227
 20
0.1652836306439209
 30
0.0
 11
2.119168256693662
 21
0.1652836306439209
 31
0.0
  0
LINE
  5
7DE1B343D9E4D29
330
7DE1B343D9E4DA9
100
AcDbEntity
  8
TEXT
100
AcDbLine
 10
1.854745924335471
 20
0.1852421367489339
 30
0.0
 11
1.952045630428916
 21
0.349592347684202
 31
0.0
  0
ARC
  5
7DE1B343D9E4D2A
330
7DE1B343D9E4DA9
100
AcDbEntity
  8
TEXT
100
AcDbCircle
 10
1.820702364423257
 20
0.2048313529176167
 30
0.0
 40
0.0392772371940762
100
AcDbArc
 50
270.1604552698595
 51
330.0831797321295
  0
LINE
  5
7DE1B343D9E4D2B
330
7DE1B343D9E4DA9
100
AcDbEntity
  8
TEXT
100
AcDbLine
 10
1.724172108037386
 20
0.1652836306439209
 30
0.0
 11
1.82081235911238
 21
0.1655542697422032
 31
0.0
  0
LWPOLYLINE
  5
7DE1B343D9E4D2C
330
7DE1B343D9E4DA9
100
AcDbEntity
  8
TEXT
100
AcDbPolyline
 90
        6
 70
     1
 43
0.0
 10
1.766695911612536
 20
0.3674799689756665
 10
1.736379317392327
 20
0.3674799689756665
 10
1.736379317392327
 20
0.2443689709207721
 42
0.407328721240804
 10
1.747922968553804
 20
0.2325500562443861
 10
1.808544667598535
 20
0.2325500562443861
 10
1.826010008005853
 20
0.2653622852878652
  0
LINE
  5
7DE1B343D9E4D34
330
7DE1B343D9E4DA9
100
AcDbEntity
  8
TEXT
100
AcDbLine
 10
1.952045630428916
 20
0.349592347684202
 30
0.0
 11
1.952045630428916
 21
0.2168349728588457
 31
0.0
  0
ARC
  5
7DE1B343D9E4D35
330
7DE1B343D9E4DA9
100
AcDbEntity
  8
TEXT
100
AcDbCircle
 10
2.035343566751089
 20
0.2462742631434491
 30
0.0
 40
0.0153818062434269
100
AcDbArc
 50
174.7883570302258
 51
270.0
  0
LWPOLYLINE
  5
7DE1B343D9E4D36
330
7DE1B343D9E4DA9
100
AcDbEntity
  8
TEXT
100
AcDbPolyline
 90
        2
 70
     0
 43
0.0
 10
1.952045630428914
 20
0.2168349728588492
 42
0.3318488747599744
 10
2.021164922994227
 20
0.1652836306439209
 42
-6.868794160588311
  0
LINE
  5
7DE1B343D9E4D3A
330
7DE1B343D9E4DA9
100
AcDbEntity
  8
TEXT
100
AcDbLine
 10
2.176557325682923
 20
0.1652836306439209
 30
0.0
 11
2.243615372464763
 21
0.1652836306439209
 31
0.0
  0
LINE
  5
7DE1B343D9E4D3B
330
7DE1B343D9E4DA9
100
AcDbEntity
  8
TEXT
100
AcDbLine
 10
2.176557325682923
 20
0.3599261798095565
 30
0.0
 11
2.176557325682923
 21
0.1652836306439209
 31
0.0
  0
LINE
  5
7DE1B343D9E4D3C
330
7DE1B343D9E4DA9
100
AcDbEntity
  8
TEXT
100
AcDbLine
 10
2.119168256693662
 20
0.3674799689756665
 30
0.0
 11
2.169003536516809
 21
0.3674799689756665
 31
0.0
  0
LINE
  5
7DE1B343D9E4D3D
330
7DE1B343D9E4DA9
100
AcDbEntity
  8
TEXT
100
AcDbLine
 10
2.119168256693662
 20
0.1652836306439209
 30
0.0
 11
2.119168256693662
 21
0.3674799689756665
 31
0.0
  0
LWPOLYLINE
  5
7DE1B343D9E4D3E
330
7DE1B343D9E4DA9
100
AcDbEntity
  8
TEXT
100
AcDbPolyline
 90
        2
 70
     0
 43
0.0
 10
2.169003536516807
 20
0.3674799689756665
 42
-0.4142135623731017
 10
2.176557325682921
 20
0.3599261798095565
 42
-0.9999999999999998
  0
LINE
  5
7DE1B343D9E4D42
330
7DE1B343D9E4DA9
100
AcDbEntity
  8
TEXT
100
AcDbLine
 10
2.374813537294492
 20
0.3674799689756665
 30
0.0
 11
2.374813537294492
 21
0.2924275629014599
 31
0.0
  0
LINE
  5
7DE1B343D9E4D43
330
7DE1B343D9E4DA9
100
AcDbEntity
  8
TEXT
100
AcDbLine
 10
2.243615372464763
 20
0.3674799689756665
 30
0.0
 11
2.297748969385713
 21
0.3674799689756665
 31
0.0
  0
LINE
  5
7DE1B343D9E4D44
330
7DE1B343D9E4DA9
100
AcDbEntity
  8
TEXT
100
AcDbLine
 10
2.243615372464763
 20
0.1652836306439209
 30
0.0
 11
2.243615372464763
 21
0.3674799689756665
 31
0.0
  0
LWPOLYLINE
  5
7DE1B343D9E4D45
330
7DE1B343D9E4DA9
100
AcDbEntity
  8
TEXT
100
AcDbPolyline
 90
        2
 70
     0
 43
0.0
 10
2.297748969385711
 20
0.3674799689756665
 42
-0.4142135623731017
 10
2.305302758551825
 20
0.3599261798095565
 42
-0.9999999999999998
  0
LWPOLYLINE
  5
7DE1B343D9E4D49
330
7DE1B343D9E4DA9
100
AcDbEntity
  8
TEXT
100
AcDbPolyline
 90
        4
 70
     0
 43
0.0
 10
2.305302758551825
 20
0.3599261798095565
 10
2.305302758551825
 20
0.1652836306439209
 10
2.373781041839682
 20
0.1652836306439209
 10
2.373781041839682
 20
0.2087745755943591
 42
-1.714843617202739
  0
LINE
  5
7DE1B343D9E4D4F
330
7DE1B343D9E4DA9
100
AcDbEntity
  8
TEXT
100
AcDbLine
 10
1.73391687415658
 20
0.4317566636324319
 30
0.0
 11
1.73391687415658
 21
0.4661445812265701
 31
0.0
  0
LINE
  5
7DE1B343D9E4D50
330
7DE1B343D9E4DA9
100
AcDbEntity
  8
TEXT
100
AcDbLine
 10
1.805715840300488
 20
0.4317566636324319
 30
0.0
 11
1.73391687415658
 21
0.4317566636324319
 31
0.0
  0
LINE
  5
7DE1B343D9E4D51
330
7DE1B343D9E4DA9
100
AcDbEntity
  8
TEXT
100
AcDbLine
 10
1.953216636931667
 20
0.4317566636324319
 30
0.0
 11
1.923094724138291
 21
0.4317566636324319
 31
0.0
  0
LINE
  5
7DE1B343D9E4D52
330
7DE1B343D9E4DA9
100
AcDbEntity
  8
TEXT
100
AcDbLine
 10
1.953216636931667
 20
0.4997681413712425
 30
0.0
 11
1.953216636931667
 21
0.4317566636324319
 31
0.0
  0
LINE
  5
7DE1B343D9E4D53
330
7DE1B343D9E4DA9
100
AcDbEntity
  8
TEXT
100
AcDbLine
 10
2.020025349498032
 20
0.4997681413712425
 30
0.0
 11
1.953216636931667
 21
0.4997681413712425
 31
0.0
  0
LWPOLYLINE
  5
7DE1B343D9E4D54
330
7DE1B343D9E4DA9
100
AcDbEntity
  8
TEXT
100
AcDbPolyline
 90
        3
 70
     0
 43
0.0
 10
2.340437109096034
 20
0.4317566636324355
 10
2.22213695027999
 20
0.4317566636324355
 10
2.22213695027999
 20
0.4045891668715396
 42
-1.960274751411753
  0
LINE
  5
7DE1B343D9E4D59
330
7DE1B343D9E4DA9
100
AcDbEntity
  8
TEXT
100
AcDbLine
 10
2.186355259566829
 20
0.4317566636324319
 30
0.0
 11
2.052337203635692
 21
0.4317566636324319
 31
0.0
  0
LWPOLYLINE
  5
7DE1B343D9E4D5A
330
7DE1B343D9E4DA9
100
AcDbEntity
  8
TEXT
100
AcDbPolyline
 90
        2
 70
     0
 43
0.0
 10
2.186355259566829
 20
0.4317566636324355
 42
-0.3328679258950098
 10
2.22213695027999
 20
0.4045891668715396
 42
6.772930709997214
  0
LINE
  5
7DE1B343D9E4D5E
330
7DE1B343D9E4DA9
100
AcDbEntity
  8
TEXT
100
AcDbLine
 10
2.376218799809201
 20
0.4317566636324319
 30
0.0
 11
2.376218799809201
 21
0.403434117862788
 31
0.0
  0
LWPOLYLINE
  5
7DE1B343D9E4D5F
330
7DE1B343D9E4DA9
100
AcDbEntity
  8
TEXT
100
AcDbPolyline
 90
        2
 70
     0
 43
0.0
 10
2.340437109096034
 20
0.4317566636324355
 42
-0.3277054968067132
 10
2.376218799809199
 20
0.4034341178627916
 42
6.667889725900311
  0
LINE
  5
7DE1B343D9E4D63
330
7DE1B343D9E4DA9
100
AcDbEntity
  8
TEXT
100
AcDbLine
 10
2.590010647901301
 20
0.3265446850790046
 30
0.0
 11
2.5462598767194
 21
0.4087949610751498
 31
0.0
  0
LINE
  5
7DE1B343D9E4D64
330
7DE1B343D9E4DA9
100
AcDbEntity
  8
TEXT
100
AcDbLine
 10
2.590010647901301
 20
0.4317566636324319
 30
0.0
 11
2.590010647901301
 21
0.3265446850790046
 31
0.0
  0
LINE
  5
7DE1B343D9E4D65
330
7DE1B343D9E4DA9
100
AcDbEntity
  8
TEXT
100
AcDbLine
 10
2.81769438683967
 20
0.3558913372208938
 30
0.0
 11
2.81769438683967
 21
0.4972208694000326
 31
0.0
  0
LINE
  5
7DE1B343D9E4D66
330
7DE1B343D9E4DA9
100
AcDbEntity
  8
TEXT
100
AcDbLine
 10
2.864792545395655
 20
0.4317566636324319
 30
0.0
 11
2.81769438683967
 21
0.3558913372208938
 31
0.0
  0
LINE
  5
7DE1B343D9E4D67
330
7DE1B343D9E4DA9
100
AcDbEntity
  8
TEXT
100
AcDbLine
 10
2.875227262159578
 20
0.3218634206914583
 30
0.0
 11
2.939784378125283
 21
0.4317566636324319
 31
0.0
  0
LINE
  5
7DE1B343D9E4D68
330
7DE1B343D9E4DA9
100
AcDbEntity
  8
TEXT
100
AcDbLine
 10
2.753859395616897
 20
0.1652836306439209
 30
0.0
 11
2.818237579935518
 21
0.1652836306439209
 31
0.0
  0
LWPOLYLINE
  5
7DE1B343D9E4D69
330
7DE1B343D9E4DA9
100
AcDbEntity
  8
TEXT
100
AcDbPolyline
 90
        2
 70
     0
 43
0.0
 10
2.593950325206339
 20
0.2087745755943591
 42
-0.2901071551932486
 10
2.550874392338695
 20
0.1652836306439209
 42
-5.328517124445184
  0
ARC
  5
7DE1B343D9E4D6D
330
7DE1B343D9E4DA9
100
AcDbEntity
  8
TEXT
100
AcDbCircle
 10
2.48201981068178
 20
0.3391205939756692
 30
0.0
 40
0.028359375
100
AcDbArc
 50
25.78218179591245
 51
90.0
  0
LINE
  5
7DE1B343D9E4D6E
330
7DE1B343D9E4DA9
100
AcDbEntity
  8
TEXT
100
AcDbLine
 10
2.517820885985903
 20
0.3302049955135342
 30
0.0
 11
2.507556125572339
 21
0.3514555350862285
 31
0.0
  0
LINE
  5
7DE1B343D9E4D6F
330
7DE1B343D9E4DA9
100
AcDbEntity
  8
TEXT
100
AcDbLine
 10
2.43553289620252
 20
0.3302049955135342
 30
0.0
 11
2.517820885985903
 21
0.3302049955135342
 31
0.0
  0
LWPOLYLINE
  5
7DE1B343D9E4D70
330
7DE1B343D9E4DA9
100
AcDbEntity
  8
TEXT
100
AcDbPolyline
 90
        4
 70
     1
 43
0.0
 10
2.530751927268802
 20
0.2682476086279462
 10
2.442091608608944
 20
0.2682476086279462
 42
0.9999999999999998
 10
2.442091608608944
 20
0.2258490681240854
 10
2.530751927268802
 20
0.2258490681240854
 42
1.0
  0
LWPOLYLINE
  5
7DE1B343D9E4D76
330
7DE1B343D9E4DA9
100
AcDbEntity
  8
TEXT
100
AcDbPolyline
 90
        2
 70
     0
 43
0.0
 10
2.416856974707318
 20
0.1652836306439209
 10
2.550874392338695
 20
0.1652836306439209
 42
0.9999999999999998
  0
LINE
  5
7DE1B343D9E4D7A
330
7DE1B343D9E4DA9
100
AcDbEntity
  8
TEXT
100
AcDbLine
 10
2.677211414324334
 20
0.3674799689756665
 30
0.0
 11
2.753859395616892
 21
0.3674799689756665
 31
0.0
  0
LINE
  5
7DE1B343D9E4D7B
330
7DE1B343D9E4DA9
100
AcDbEntity
  8
TEXT
100
AcDbLine
 10
2.753859395616892
 20
0.3674799689756665
 30
0.0
 11
2.753859395616897
 21
0.1652836306439209
 31
0.0
  0
ARC
  5
7DE1B343D9E4D7C
330
7DE1B343D9E4DA9
100
AcDbEntity
  8
TEXT
100
AcDbCircle
 10
2.677211414324332
 20
0.3425740936930037
 30
0.0
 40
0.0249058752826653
100
AcDbArc
 50
89.99971217465335
 51
179.9999999999985
  0
LINE
  5
7DE1B343D9E4D7D
330
7DE1B343D9E4DA9
100
AcDbEntity
  8
TEXT
100
AcDbLine
 10
2.652305539041675
 20
0.1652836306439209
 30
0.0
 11
2.65230553904167
 21
0.3425741360753893
 31
0.0
  0
LWPOLYLINE
  5
7DE1B343D9E4D7E
330
7DE1B343D9E4DA9
100
AcDbEntity
  8
TEXT
100
AcDbPolyline
 90
        2
 70
     0
 43
0.0
 10
2.593950325206339
 20
0.1652836306439209
 10
2.652305539041673
 20
0.1652836306439209
  0
LWPOLYLINE
  5
7DE1B343D9E4D82
330
7DE1B343D9E4DA9
100
AcDbEntity
  8
TEXT
100
AcDbPolyline
 90
        2
 70
     0
 43
0.0
 10
2.593950325206339
 20
0.2087745755943591
 10
2.593950325206339
 20
0.1652836306439209
  0
LINE
  5
7DE1B343D9E4D86
330
7DE1B343D9E4DA9
100
AcDbEntity
  8
TEXT
100
AcDbLine
 10
2.970719485523188
 20
0.1652836306439209
 30
0.0
 11
2.875227262159578
 21
0.3218634206914583
 31
0.0
  0
LINE
  5
7DE1B343D9E4D87
330
7DE1B343D9E4DA9
100
AcDbEntity
  8
TEXT
100
AcDbLine
 10
2.894141113146982
 20
0.1652836306439209
 30
0.0
 11
2.970719485523188
 21
0.1652836306439209
 31
0.0
  0
LINE
  5
7DE1B343D9E4D88
330
7DE1B343D9E4DA9
100
AcDbEntity
  8
TEXT
100
AcDbLine
 10
2.818237579935518
 20
0.2968631991201012
 30
0.0
 11
2.894141113146982
 21
0.1652836306439209
 31
0.0
  0
LINE
  5
7DE1B343D9E4D89
330
7DE1B343D9E4DA9
100
AcDbEntity
  8
TEXT
100
AcDbLine
 10
2.818237579935518
 20
0.1652836306439209
 30
0.0
 11
2.818237579935518
 21
0.2968631991201012
 31
0.0
  0
LINE
  5
7DE1B343D9E4D8A
330
7DE1B343D9E4DA9
100
AcDbEntity
  8
TEXT
100
AcDbLine
 10
2.81769438683967
 20
0.4972208694000326
 30
0.0
 11
2.749379508290397
 21
0.4972208694000326
 31
0.0
  0
ARC
  5
7DE1B343D9E4D8B
330
7DE1B343D9E4DA9
100
AcDbEntity
  8
TEXT
100
AcDbCircle
 10
2.509023769249191
 20
0.3901730965115295
 30
0.0
 40
0.0416329381542859
100
AcDbArc
 50
26.56974201007528
 51
87.20939649401342
  0
LINE
  5
7DE1B343D9E4D8C
330
7DE1B343D9E4DA9
100
AcDbEntity
  8
TEXT
100
AcDbLine
 10
2.653907554200802
 20
0.4317566636324319
 30
0.0
 11
2.590010647901301
 21
0.4317566636324319
 31
0.0
  0
LINE
  5
7DE1B343D9E4D8D
330
7DE1B343D9E4DA9
100
AcDbEntity
  8
TEXT
100
AcDbLine
 10
2.653907554200802
 20
0.4042090137715573
 30
0.0
 11
2.653907554200802
 21
0.4317566636324319
 31
0.0
  0
ARC
  5
7DE1B343D9E4D8E
330
7DE1B343D9E4DA9
100
AcDbEntity
  8
TEXT
100
AcDbCircle
 10
2.68510037126391
 20
0.4005109363501671
 30
0.0
 40
0.0314112657011332
100
AcDbArc
 50
95.88484768694724
 51
173.2388340632136
  0
LINE
  5
7DE1B343D9E4D8F
330
7DE1B343D9E4DA9
100
AcDbEntity
  8
TEXT
100
AcDbLine
 10
2.749379508290392
 20
0.4317566636324319
 30
0.0
 11
2.681879790640875
 21
0.4317566636324319
 31
0.0
  0
LINE
  5
7DE1B343D9E4D90
330
7DE1B343D9E4DA9
100
AcDbEntity
  8
TEXT
100
AcDbLine
 10
2.749379508290397
 20
0.4972208694000326
 30
0.0
 11
2.749379508290392
 21
0.4317566636324319
 31
0.0
  0
LINE
  5
7DE1B343D9E4D91
330
7DE1B343D9E4DA9
100
AcDbEntity
  8
TEXT
100
AcDbLine
 10
2.939784378125283
 20
0.4317566636324319
 30
0.0
 11
2.864792545395657
 21
0.4317566636324319
 31
0.0
  0
ENDSEC
  0
SECTION
  2
OBJECTS
  0
DICTIONARY
  5
7DE1B343D9E4D9D
330
0
100
AcDbDictionary
  3
ACAD_GROUP
350
7DE1B343D9E4D9E
  3
ACAD_LAYOUT
350
7DE1B343D9E4DC3
  3
ACAD_MLINESTYLE
350
7DE1B343D9E4D9F
  3
ACAD_PLOTSETTINGS
350
7DE1B343D9E4DC4
  3
ACAD_PLOTSTYLENAME
350
7DE1B343D9E4DC1
  3
ACDBHEADERROUNDTRIPXREC
350
7DE1B343D9E4DCE
  3
ACDBVARIABLEDICTIONARY
350
7DE1B343D9E4DCB
  0
DICTIONARY
  5
7DE1B343D9E4DF0
330
7DE1B343D9E4DA9
100
AcDbDictionary
280
     1
  3
ACAD_LAYOUTSELFREF
360
7DE1B343D9E4DF1
  0
DICTIONARY
  5
7DE1B343D9E4DEE
330
7DE1B343D9E4DA6
100
AcDbDictionary
280
     1
  3
ACAD_LAYOUTSELFREF
360
7DE1B343D9E4DEF
  0
DICTIONARY
  5
7DE1B343D9E4D9E
102
{ACAD_REACTORS
330
7DE1B343D9E4D9D
102
}
330
7DE1B343D9E4D9D
100
AcDbDictionary
  0
DICTIONARY
  5
7DE1B343D9E4DC3
102
{ACAD_REACTORS
330
7DE1B343D9E4D9D
102
}
330
7DE1B343D9E4D9D
100
AcDbDictionary
  0
DICTIONARY
  5
7DE1B343D9E4D9F
102
{ACAD_REACTORS
330
7DE1B343D9E4D9D
102
}
330
7DE1B343D9E4D9D
100
AcDbDictionary
  3
STANDARD
350
7DE1B343D9E4DAC
  0
DICTIONARY
  5
7DE1B343D9E4DC4
102
{ACAD_REACTORS
330
7DE1B343D9E4D9D
102
}
330
7DE1B343D9E4D9D
100
AcDbDictionary
  0
ACDBDICTIONARYWDFLT
  5
7DE1B343D9E4DC1
102
{ACAD_REACTORS
330
7DE1B343D9E4D9D
102
}
330
7DE1B343D9E4D9D
100
AcDbDictionary
281
     1
  3
Normal
350
7DE1B343D9E4DC2
100
AcDbDictionaryWithDefault
340
7DE1B343D9E4DC2
  0
DICTIONARY
  5
7DE1B343D9E4DCE
102
{ACAD_REACTORS
330
7DE1B343D9E4D9D
102
}
330
7DE1B343D9E4D9D
100
AcDbDictionary
  3
CEPSNTYPE
350
7DE1B343D9E4DD8
  3
FINGERPRINTGUID
350
7DE1B343D9E4DD9
  3
HYPERLINKBASE
350
7DE1B343D9E4DD1
  3
INSUNITS
350
7DE1B343D9E4DD7
  3
LAYOUTDICT
350
7DE1B343D9E4DD3
  3
LWETCUNION
350
7DE1B343D9E4DD6
  3
PLOTSETDICT
350
7DE1B343D9E4DD4
  3
PLOTSTYLNAMDICT
350
7DE1B343D9E4DD5
  3
PSVPSCALE
350
7DE1B343D9E4DDB
  3
PUCSBASE
350
7DE1B343D9E4DDE
  3
PUCSORGBACK
350
7DE1B343D9E4DE4
  3
PUCSORGBOTTOM
350
7DE1B343D9E4DE0
  3
PUCSORGFRONT
350
7DE1B343D9E4DE3
  3
PUCSORGLEFT
350
7DE1B343D9E4DE1
  3
PUCSORGRIGHT
350
7DE1B343D9E4DE2
  3
PUCSORGTOP
350
7DE1B343D9E4DDF
  3
PUCSORTHOREF
350
7DE1B343D9E4DDC
  3
PUCSORTHOVIEW
350
7DE1B343D9E4DDD
  3
STYLESHEET
350
7DE1B343D9E4DD2
  3
TSTACKALIGN
350
7DE1B343D9E4DCF
  3
TSTACKSIZE
350
7DE1B343D9E4DD0
  3
UCSBASE
350
7DE1B343D9E4DE7
  3
UCSORGBACK
350
7DE1B343D9E4DED
  3
UCSORGBOTTOM
350
7DE1B343D9E4DE9
  3
UCSORGFRONT
350
7DE1B343D9E4DEC
  3
UCSORGLEFT
350
7DE1B343D9E4DEA
  3
UCSORGRIGHT
350
7DE1B343D9E4DEB
  3
UCSORGTOP
350
7DE1B343D9E4DE8
  3
UCSORTHOREF
350
7DE1B343D9E4DE5
  3
UCSORTHOVIEW
350
7DE1B343D9E4DE6
  3
VERSIONGUID
350
7DE1B343D9E4DDA
  0
DICTIONARY
  5
7DE1B343D9E4DCB
102
{ACAD_REACTORS
330
7DE1B343D9E4D9D
102
}
330
7DE1B343D9E4D9D
100
AcDbDictionary
  3
DIMASSOC
350
7DE1B343D9E4DCC
  0
XRECORD
  5
7DE1B343D9E4DF1
102
{ACAD_REACTORS
330
7DE1B343D9E4DF0
102
}
330
7DE1B343D9E4DF0
100
AcDbXrecord
340
7DE1B343D9E4DA9
  0
XRECORD
  5
7DE1B343D9E4DEF
102
{ACAD_REACTORS
330
7DE1B343D9E4DEE
102
}
330
7DE1B343D9E4DEE
100
AcDbXrecord
340
7DE1B343D9E4DA6
  0
MLINESTYLE
  5
7DE1B343D9E4DAC
102
{ACAD_REACTORS
330
7DE1B343D9E4D9F
102
}
330
7DE1B343D9E4D9F
100
AcDbMlineStyle
  2
STANDARD
 70
     0
  3

 62
     0
 51
90.0
 52
90.0
 71
     2
 49
0.5
 62
   256
  6
BYLAYER
 49
-0.5
 62
   256
  6
BYLAYER
  0
ACDBPLACEHOLDER
  5
7DE1B343D9E4DC2
102
{ACAD_REACTORS
330
7DE1B343D9E4DC1
102
}
330
7DE1B343D9E4DC1
100
AcDbPlaceHolder
280
     0
  0
XRECORD
  5
7DE1B343D9E4DD8
102
{ACAD_REACTORS
330
7DE1B343D9E4DCE
102
}
330
7DE1B343D9E4DCE
100
AcDbXrecord
 90
        0
  0
XRECORD
  5
7DE1B343D9E4DD9
102
{ACAD_REACTORS
330
7DE1B343D9E4DCE
102
}
330
7DE1B343D9E4DCE
100
AcDbXrecord
  1
{6AA58770-8DB6-11D6-88E6-0090279574E7}
  0
XRECORD
  5
7DE1B343D9E4DD1
102
{ACAD_REACTORS
330
7DE1B343D9E4DCE
102
}
330
7DE1B343D9E4DCE
100
AcDbXrecord
  1

  0
XRECORD
  5
7DE1B343D9E4DD7
102
{ACAD_REACTORS
330
7DE1B343D9E4DCE
102
}
330
7DE1B343D9E4DCE
100
AcDbXrecord
 90
        0
  0
XRECORD
  5
7DE1B343D9E4DD3
102
{ACAD_REACTORS
330
7DE1B343D9E4DCE
102
}
330
7DE1B343D9E4DCE
100
AcDbXrecord
340
7DE1B343D9E4DC3
  0
XRECORD
  5
7DE1B343D9E4DD6
102
{ACAD_REACTORS
330
7DE1B343D9E4DCE
102
}
330
7DE1B343D9E4DCE
100
AcDbXrecord
 90
    14877
  0
XRECORD
  5
7DE1B343D9E4DD4
102
{ACAD_REACTORS
330
7DE1B343D9E4DCE
102
}
330
7DE1B343D9E4DCE
100
AcDbXrecord
340
7DE1B343D9E4DC4
  0
XRECORD
  5
7DE1B343D9E4DD5
102
{ACAD_REACTORS
330
7DE1B343D9E4DCE
102
}
330
7DE1B343D9E4DCE
100
AcDbXrecord
340
7DE1B343D9E4DC1
  0
XRECORD
  5
7DE1B343D9E4DDB
102
{ACAD_REACTORS
330
7DE1B343D9E4DCE
102
}
330
7DE1B343D9E4DCE
100
AcDbXrecord
 40
0.0
  0
XRECORD
  5
7DE1B343D9E4DDE
102
{ACAD_REACTORS
330
7DE1B343D9E4DCE
102
}
330
7DE1B343D9E4DCE
100
AcDbXrecord
340
0
  0
XRECORD
  5
7DE1B343D9E4DE4
102
{ACAD_REACTORS
330
7DE1B343D9E4DCE
102
}
330
7DE1B343D9E4DCE
100
AcDbXrecord
 10
0.0
 20
0.0
 30
0.0
  0
XRECORD
  5
7DE1B343D9E4DE0
102
{ACAD_REACTORS
330
7DE1B343D9E4DCE
102
}
330
7DE1B343D9E4DCE
100
AcDbXrecord
 10
0.0
 20
0.0
 30
0.0
  0
XRECORD
  5
7DE1B343D9E4DE3
102
{ACAD_REACTORS
330
7DE1B343D9E4DCE
102
}
330
7DE1B343D9E4DCE
100
AcDbXrecord
 10
0.0
 20
0.0
 30
0.0
  0
XRECORD
  5
7DE1B343D9E4DE1
102
{ACAD_REACTORS
330
7DE1B343D9E4DCE
102
}
330
7DE1B343D9E4DCE
100
AcDbXrecord
 10
0.0
 20
0.0
 30
0.0
  0
XRECORD
  5
7DE1B343D9E4DE2
102
{ACAD_REACTORS
330
7DE1B343D9E4DCE
102
}
330
7DE1B343D9E4DCE
100
AcDbXrecord
 10
0.0
 20
0.0
 30
0.0
  0
XRECORD
  5
7DE1B343D9E4DDF
102
{ACAD_REACTORS
330
7DE1B343D9E4DCE
102
}
330
7DE1B343D9E4DCE
100
AcDbXrecord
 10
0.0
 20
0.0
 30
0.0
  0
XRECORD
  5
7DE1B343D9E4DDC
102
{ACAD_REACTORS
330
7DE1B343D9E4DCE
102
}
330
7DE1B343D9E4DCE
100
AcDbXrecord
340
0
  0
XRECORD
  5
7DE1B343D9E4DDD
102
{ACAD_REACTORS
330
7DE1B343D9E4DCE
102
}
330
7DE1B343D9E4DCE
100
AcDbXrecord
 70
     0
  0
XRECORD
  5
7DE1B343D9E4DD2
102
{ACAD_REACTORS
330
7DE1B343D9E4DCE
102
}
330
7DE1B343D9E4DCE
100
AcDbXrecord
  1

  0
XRECORD
  5
7DE1B343D9E4DCF
102
{ACAD_REACTORS
330
7DE1B343D9E4DCE
102
}
330
7DE1B343D9E4DCE
100
AcDbXrecord
 90
        1
  0
XRECORD
  5
7DE1B343D9E4DD0
102
{ACAD_REACTORS
330
7DE1B343D9E4DCE
102
}
330
7DE1B343D9E4DCE
100
AcDbXrecord
 90
       70
  0
XRECORD
  5
7DE1B343D9E4DE7
102
{ACAD_REACTORS
330
7DE1B343D9E4DCE
102
}
330
7DE1B343D9E4DCE
100
AcDbXrecord
340
0
  0
XRECORD
  5
7DE1B343D9E4DED
102
{ACAD_REACTORS
330
7DE1B343D9E4DCE
102
}
330
7DE1B343D9E4DCE
100
AcDbXrecord
 10
0.0
 20
0.0
 30
0.0
  0
XRECORD
  5
7DE1B343D9E4DE9
102
{ACAD_REACTORS
330
7DE1B343D9E4DCE
102
}
330
7DE1B343D9E4DCE
100
AcDbXrecord
 10
0.0
 20
0.0
 30
0.0
  0
XRECORD
  5
7DE1B343D9E4DEC
102
{ACAD_REACTORS
330
7DE1B343D9E4DCE
102
}
330
7DE1B343D9E4DCE
100
AcDbXrecord
 10
0.0
 20
0.0
 30
0.0
  0
XRECORD
  5
7DE1B343D9E4DEA
102
{ACAD_REACTORS
330
7DE1B343D9E4DCE
102
}
330
7DE1B343D9E4DCE
100
AcDbXrecord
 10
0.0
 20
0.0
 30
0.0
  0
XRECORD
  5
7DE1B343D9E4DEB
102
{ACAD_REACTORS
330
7DE1B343D9E4DCE
102
}
330
7DE1B343D9E4DCE
100
AcDbXrecord
 10
0.0
 20
0.0
 30
0.0
  0
XRECORD
  5
7DE1B343D9E4DE8
102
{ACAD_REACTORS
330
7DE1B343D9E4DCE
102
}
330
7DE1B343D9E4DCE
100
AcDbXrecord
 10
0.0
 20
0.0
 30
0.0
  0
XRECORD
  5
7DE1B343D9E4DE5
102
{ACAD_REACTORS
330
7DE1B343D9E4DCE
102
}
330
7DE1B343D9E4DCE
100
AcDbXrecord
340
0
  0
XRECORD
  5
7DE1B343D9E4DE6
102
{ACAD_REACTORS
330
7DE1B343D9E4DCE
102
}
330
7DE1B343D9E4DCE
100
AcDbXrecord
 70
     0
  0
XRECORD
  5
7DE1B343D9E4DDA
102
{ACAD_REACTORS
330
7DE1B343D9E4DCE
102
}
330
7DE1B343D9E4DCE
100
AcDbXrecord
  1
{6AA58772-8DB6-11D6-88E6-0090279574E7}
  0
DICTIONARYVAR
  5
7DE1B343D9E4DCC
102
{ACAD_REACTORS
330
7DE1B343D9E4DCB
102
}
330
7DE1B343D9E4DCB
100
DictionaryVariables
280
     0
  1
1
  0
ENDSEC
  0
EOF
