  0
SECTION
  2
HEADER
  9
$ACADVER
  1
AC1014
  9
$ACADMAINTVER
 70
     9
  9
$DWGCODEPAGE
  3
ANSI_1252
  9
$INSBASE
 10
0.0
 20
0.0
 30
0.0
  9
$EXTMIN
 10
-0.5312500030742527
 20
0.4576540399376017
 30
0.0
  9
$EXTMAX
 10
2.953969318672875
 20
1.36387431730898
 30
0.0
  9
$LIMMIN
 10
0.0
 20
0.0
  9
$LIMMAX
 10
8.5
 20
11.0
  9
$ORTHOMODE
 70
     0
  9
$REGENMODE
 70
     1
  9
$FILLMODE
 70
     1
  9
$QTEXTMODE
 70
     0
  9
$MIRRTEXT
 70
     0
  9
$DRAGMODE
 70
     2
  9
$LTSCALE
 40
1.0
  9
$OSMODE
 70
    39
  9
$ATTMODE
 70
     1
  9
$TEXTSIZE
 40
0.125
  9
$TRACEWID
 40
0.05
  9
$TEXTSTYLE
  7
ROMANS
  9
$CLAYER
  8
0
  9
$CELTYPE
  6
BYLAYER
  9
$CECOLOR
 62
   256
  9
$CELTSCALE
 40
1.0
  9
$DELOBJ
 70
     1
  9
$DISPSILH
 70
     1
  9
$DIMSCALE
 40
1.0
  9
$DIMASZ
 40
0.125
  9
$DIMEXO
 40
0.125
  9
$DIMDLI
 40
0.375
  9
$DIMRND
 40
0.0
  9
$DIMDLE
 40
0.0
  9
$DIMEXE
 40
0.125
  9
$DIMTP
 40
0.0
  9
$DIMTM
 40
0.0
  9
$DIMTXT
 40
0.125
  9
$DIMCEN
 40
-0.125
  9
$DIMTSZ
 40
0.0
  9
$DIMTOL
 70
     0
  9
$DIMLIM
 70
     0
  9
$DIMTIH
 70
     1
  9
$DIMTOH
 70
     0
  9
$DIMSE1
 70
     0
  9
$DIMSE2
 70
     1
  9
$DIMTAD
 70
     0
  9
$DIMZIN
 70
     4
  9
$DIMBLK
  1

  9
$DIMASO
 70
     1
  9
$DIMSHO
 70
     1
  9
$DIMPOST
  1

  9
$DIMAPOST
  1

  9
$DIMALT
 70
     0
  9
$DIMALTD
 70
     2
  9
$DIMALTF
 40
25.4
  9
$DIMLFAC
 40
0.5
  9
$DIMTOFL
 70
     0
  9
$DIMTVP
 40
0.0
  9
$DIMTIX
 70
     1
  9
$DIMSOXD
 70
     0
  9
$DIMSAH
 70
     0
  9
$DIMBLK1
  1

  9
$DIMBLK2
  1

  9
$DIMSTYLE
  2
STANDARD
  9
$DIMCLRD
 70
     0
  9
$DIMCLRE
 70
     0
  9
$DIMCLRT
 70
     0
  9
$DIMTFAC
 40
1.0
  9
$DIMGAP
 40
0.09
  9
$DIMJUST
 70
     0
  9
$DIMSD1
 70
     0
  9
$DIMSD2
 70
     0
  9
$DIMTOLJ
 70
     1
  9
$DIMTZIN
 70
     0
  9
$DIMALTZ
 70
     0
  9
$DIMALTTZ
 70
     0
  9
$DIMFIT
 70
     3
  9
$DIMUPT
 70
     0
  9
$DIMUNIT
 70
     2
  9
$DIMDEC
 70
     3
  9
$DIMTDEC
 70
     4
  9
$DIMALTU
 70
     2
  9
$DIMALTTD
 70
     2
  9
$DIMTXSTY
  7
ROMANS
  9
$DIMAUNIT
 70
     0
  9
$LUNITS
 70
     2
  9
$LUPREC
 70
     3
  9
$SKETCHINC
 40
0.1
  9
$FILLETRAD
 40
0.01
  9
$AUNITS
 70
     0
  9
$AUPREC
 70
     0
  9
$MENU
  1
AUTOMSTR
  9
$ELEVATION
 40
0.0
  9
$PELEVATION
 40
0.0
  9
$THICKNESS
 40
0.0
  9
$LIMCHECK
 70
     0
  9
$BLIPMODE
 70
     0
  9
$CHAMFERA
 40
0.0
  9
$CHAMFERB
 40
0.0
  9
$CHAMFERC
 40
0.0
  9
$CHAMFERD
 40
0.0
  9
$SKPOLY
 70
     0
  9
$TDCREATE
 40
2448050.399462152
  9
$TDUPDATE
 40
2452458.307448425
  9
$TDINDWG
 40
0.0339451620
  9
$TDUSRTIMER
 40
0.0339451620
  9
$USRTIMER
 70
     1
  9
$ANGBASE
 50
0.0
  9
$ANGDIR
 70
     0
  9
$PDMODE
 70
     0
  9
$PDSIZE
 40
0.0
  9
$PLINEWID
 40
0.0
  9
$COORDS
 70
     2
  9
$SPLFRAME
 70
     0
  9
$SPLINETYPE
 70
     6
  9
$SPLINESEGS
 70
     8
  9
$ATTDIA
 70
     0
  9
$ATTREQ
 70
     1
  9
$HANDLING
 70
 22529
  9
$HANDSEED
  5
371
  9
$SURFTAB1
 70
     6
  9
$SURFTAB2
 70
     6
  9
$SURFTYPE
 70
     6
  9
$SURFU
 70
     6
  9
$SURFV
 70
     6
  9
$UCSNAME
  2

  9
$UCSORG
 10
0.0
 20
0.0
 30
0.0
  9
$UCSXDIR
 10
1.0
 20
0.0
 30
0.0
  9
$UCSYDIR
 10
0.0
 20
1.0
 30
0.0
  9
$PUCSNAME
  2

  9
$PUCSORG
 10
0.0
 20
0.0
 30
0.0
  9
$PUCSXDIR
 10
1.0
 20
0.0
 30
0.0
  9
$PUCSYDIR
 10
0.0
 20
1.0
 30
0.0
  9
$USERI1
 70
     0
  9
$USERI2
 70
     0
  9
$USERI3
 70
     0
  9
$USERI4
 70
     0
  9
$USERI5
 70
     0
  9
$USERR1
 40
0.0
  9
$USERR2
 40
0.0
  9
$USERR3
 40
0.0
  9
$USERR4
 40
0.0
  9
$USERR5
 40
0.0
  9
$WORLDVIEW
 70
     1
  9
$SHADEDGE
 70
     3
  9
$SHADEDIF
 70
    70
  9
$TILEMODE
 70
     1
  9
$MAXACTVP
 70
    16
  9
$PINSBASE
 10
0.0
 20
0.0
 30
0.0
  9
$PLIMCHECK
 70
     0
  9
$PEXTMIN
 10
1.000000000000000E+20
 20
1.000000000000000E+20
 30
1.000000000000000E+20
  9
$PEXTMAX
 10
-1.000000000000000E+20
 20
-1.000000000000000E+20
 30
-1.000000000000000E+20
  9
$PLIMMIN
 10
0.0
 20
0.0
  9
$PLIMMAX
 10
12.0
 20
9.0
  9
$UNITMODE
 70
     0
  9
$VISRETAIN
 70
     0
  9
$PLINEGEN
 70
     1
  9
$PSLTSCALE
 70
     0
  9
$TREEDEPTH
 70
  3020
  9
$PICKSTYLE
 70
     1
  9
$CMLSTYLE
  2
STANDARD
  9
$CMLJUST
 70
     0
  9
$CMLSCALE
 40
1.0
  9
$PROXYGRAPHICS
 70
     1
  9
$MEASUREMENT
 70
     0
  0
ENDSEC
  0
SECTION
  2
CLASSES
  0
CLASS
  1
LWPOLYLINE
  2
AcDbPolyline
  3
AutoCAD 2000
 90
        0
280
     0
281
     1
  0
CLASS
  1
ACDBDICTIONARYWDFLT
  2
AcDbDictionaryWithDefault
  3
AutoCAD 2000
 90
        0
280
     0
281
     0
  0
CLASS
  1
ACDBPLACEHOLDER
  2
AcDbPlaceHolder
  3
AutoCAD 2000
 90
        0
280
     0
281
     0
  0
CLASS
  1
LAYOUT
  2
AcDbLayout
  3
AutoCAD 2000
 90
        0
280
     0
281
     0
  0
CLASS
  1
DICTIONARYVAR
  2
AcDbDictionaryVar
  3
AutoCAD 2000
 90
        0
280
     0
281
     0
  0
CLASS
  1
LONG_TRANSACTION
  2
AcDbLongTransaction
  3
AutoCAD 2000
 90
        0
280
     0
281
     0
  0
CLASS
  1
LWPOLYLINE
  2
AcDbPolyline
  3
AutoCAD 2000
 90
        0
280
     0
281
     1
  0
CLASS
  1
HATCH
  2
AcDbHatch
  3
AutoCAD 2000
 90
        0
280
     0
281
     1
  0
CLASS
  1
XRECORD
  2
AcDbXrecord
  3
AutoCAD 2000
 90
        0
280
     0
281
     0
  0
ENDSEC
  0
SECTION
  2
TABLES
  0
TABLE
  2
VPORT
  5
8
330
0
100
AcDbSymbolTable
 70
     2
  0
VPORT
  5
34C
330
8
100
AcDbSymbolTableRecord
100
AcDbViewportTableRecord
  2
*ACTIVE
 70
     0
 10
0.0
 20
0.0
 11
1.0
 21
1.0
 12
4.133793494034161
 22
0.9105717480721882
 13
0.0
 23
0.0
 14
0.015625
 24
0.015625
 15
0.0
 25
0.0
 16
0.0
 26
0.0
 36
1.0
 17
0.0
 27
0.0
 37
0.0
 40
2.163783105556754
 41
4.320930232558139
 42
50.0
 43
0.0
 44
0.0
 50
0.0
 51
0.0
 71
     0
 72
  2000
 73
     1
 74
     1
 75
     1
 76
     0
 77
     0
 78
     0
  0
ENDTAB
  0
TABLE
  2
LTYPE
  5
5
330
0
100
AcDbSymbolTable
 70
     1
  0
LTYPE
  5
12
330
5
100
AcDbSymbolTableRecord
100
AcDbLinetypeTableRecord
  2
BYBLOCK
 70
     0
  3

 72
    65
 73
     0
 40
0.0
  0
LTYPE
  5
13
330
5
100
AcDbSymbolTableRecord
100
AcDbLinetypeTableRecord
  2
BYLAYER
 70
     0
  3

 72
    65
 73
     0
 40
0.0
  0
LTYPE
  5
14
330
5
100
AcDbSymbolTableRecord
100
AcDbLinetypeTableRecord
  2
CONTINUOUS
 70
     0
  3
Solid line
 72
    65
 73
     0
 40
0.0
  0
ENDTAB
  0
TABLE
  2
LAYER
  5
2
330
0
100
AcDbSymbolTable
 70
     2
  0
LAYER
  5
F
330
2
100
AcDbSymbolTableRecord
100
AcDbLayerTableRecord
  2
0
 70
     0
 62
     7
  6
CONTINUOUS
  0
LAYER
  5
2E
330
2
100
AcDbSymbolTableRecord
100
AcDbLayerTableRecord
  2
TEXT
 70
     0
 62
     3
  6
CONTINUOUS
  0
ENDTAB
  0
TABLE
  2
STYLE
  5
3
330
0
100
AcDbSymbolTable
 70
     3
  0
STYLE
  5
10
330
3
100
AcDbSymbolTableRecord
100
AcDbTextStyleTableRecord
  2
STANDARD
 70
     0
 40
0.0
 41
1.0
 50
0.0
 71
     0
 42
0.125
  3
txt
  4

  0
STYLE
  5
238
330
3
100
AcDbSymbolTableRecord
100
AcDbTextStyleTableRecord
  2
ITALICC
 70
     0
 40
0.0
 41
1.0
 50
0.0
 71
     0
 42
0.125
  3
italicc
  4

  0
STYLE
  5
348
330
3
100
AcDbSymbolTableRecord
100
AcDbTextStyleTableRecord
  2
ROMANS
 70
     0
 40
0.0
 41
1.0
 50
0.0
 71
     0
 42
0.125
  3
romans.shx
  4

  0
ENDTAB
  0
TABLE
  2
VIEW
  5
6
330
0
100
AcDbSymbolTable
 70
     0
  0
ENDTAB
  0
TABLE
  2
UCS
  5
7
330
0
100
AcDbSymbolTable
 70
     0
  0
ENDTAB
  0
TABLE
  2
APPID
  5
9
330
0
100
AcDbSymbolTable
 70
     1
  0
APPID
  5
11
330
9
100
AcDbSymbolTableRecord
100
AcDbRegAppTableRecord
  2
ACAD
 70
     0
  0
ENDTAB
  0
TABLE
  2
DIMSTYLE
  5
A
330
0
100
AcDbSymbolTable
 70
     1
  0
DIMSTYLE
105
22C
330
A
100
AcDbSymbolTableRecord
100
AcDbDimStyleTableRecord
  2
STANDARD
 70
     0
  3

  4

  5

  6

  7

 40
1.0
 41
0.18
 42
0.0625
 43
0.38
 44
0.18
 45
0.0
 46
0.0
 47
0.0
 48
0.0
140
0.18
141
0.09
142
0.0
143
25.4
144
1.0
145
0.0
146
1.0
147
0.09
 71
     0
 72
     0
 73
     1
 74
     1
 75
     0
 76
     0
 77
     0
 78
     0
170
     0
171
     2
172
     0
173
     0
174
     0
175
     0
176
     0
177
     0
178
     0
270
     2
271
     4
272
     4
273
     2
274
     2
340
10
275
     0
280
     0
281
     0
282
     0
283
     1
284
     0
285
     0
286
     0
287
     3
288
     0
  0
ENDTAB
  0
TABLE
  2
BLOCK_RECORD
  5
1
330
0
100
AcDbSymbolTable
 70
     0
  0
BLOCK_RECORD
  5
18
102
{ACAD_XDICTIONARY
360
36F
102
}
330
1
100
AcDbSymbolTableRecord
100
AcDbBlockTableRecord
  2
*MODEL_SPACE
  0
BLOCK_RECORD
  5
15
102
{ACAD_XDICTIONARY
360
36D
102
}
330
1
100
AcDbSymbolTableRecord
100
AcDbBlockTableRecord
  2
*PAPER_SPACE
  0
ENDTAB
  0
ENDSEC
  0
SECTION
  2
BLOCKS
  0
BLOCK
  5
36
330
18
100
AcDbEntity
  8
0
100
AcDbBlockBegin
  2
*MODEL_SPACE
 70
     0
 10
0.0
 20
0.0
 30
0.0
  3
*MODEL_SPACE
  1

  0
ENDBLK
  5
37
330
18
100
AcDbEntity
  8
0
100
AcDbBlockEnd
  0
BLOCK
  5
34
330
15
100
AcDbEntity
 67
     1
  8
0
100
AcDbBlockBegin
  2
*PAPER_SPACE
 70
     0
 10
0.0
 20
0.0
 30
0.0
  3
*PAPER_SPACE
  1

  0
ENDBLK
  5
35
330
15
100
AcDbEntity
 67
     1
  8
0
100
AcDbBlockEnd
  0
ENDSEC
  0
SECTION
  2
ENTITIES
  0
LWPOLYLINE
  5
1EB
330
18
100
AcDbEntity
  8
0
100
AcDbPolyline
 90
       11
 70
     1
 43
0.0
 10
0.6172436245724278
 20
1.204359899343927
 10
0.643479861752687
 20
1.339333638693579
 42
-0.9999999668795441
 10
0.6925612206090861
 20
1.329793187299154
 10
0.6721117292609425
 20
1.224589674459513
 10
1.263034304158619
 20
1.224589674459513
 10
1.273034304158619
 20
1.214589674459513
 10
1.283034304158619
 20
1.224589674459513
 10
1.848342851845144
 20
1.224589674459513
 10
1.893770068522129
 20
1.192781194902402
 42
-0.7332303362618285
 10
1.888034304158619
 20
1.174589674459512
 10
0.6417843041586194
 20
1.174589674459513
 42
-0.4716306187712222
  0
TEXT
  5
2BE
330
18
100
AcDbEntity
  8
TEXT
100
AcDbText
 10
0.4587553856766999
 20
0.9156726440201833
 30
0.0
 40
0.125
  1
PART #110340
  7
ITALICC
 72
     1
 11
1.21173157615289
 21
0.9156726440201833
 31
0.0
100
AcDbText
  0
LINE
  5
2BF
330
18
100
AcDbEntity
  8
TEXT
100
AcDbLine
 10
1.179465075104952
 20
0.6713189580003496
 30
0.0
 11
1.25611305639751
 21
0.6713189580003496
 31
0.0
  0
LINE
  5
2C0
330
18
100
AcDbEntity
  8
TEXT
100
AcDbLine
 10
1.25163316907101
 20
0.7355956526571151
 30
0.0
 11
1.184133451421494
 21
0.7355956526571151
 31
0.0
  0
LWPOLYLINE
  5
2C1
330
18
100
AcDbEntity
  8
TEXT
100
AcDbPolyline
 90
        5
 70
     0
 43
0.0001332181640625
 10
-0.4576469674297221
 20
0.6123688508993022
 10
-0.4443251510234734
 20
0.6123688508993022
 10
-0.4443251510234734
 20
0.649003846016492
 10
-0.4076901559062836
 20
0.649003846016492
 10
-0.4076901559062836
 20
0.662325662422739
  0
LWPOLYLINE
  5
2C2
330
18
100
AcDbEntity
  8
TEXT
100
AcDbPolyline
 90
        3
 70
     0
 43
0.0006660908203125
 10
-0.4176815182109741
 20
0.7089520198446176
 10
-0.504273324851599
 20
0.7089520198446176
 10
-0.504273324851599
 20
0.622360213203991
  0
LWPOLYLINE
  5
2C3
330
18
100
AcDbEntity
  8
TEXT
100
AcDbPolyline
 90
        3
 70
     0
 43
0.0006660908203125
 10
-0.4176815182109741
 20
0.7355956526571186
 10
-0.5309169576640965
 20
0.7355956526571186
 10
-0.5309169576640965
 20
0.622360213203991
  0
LWPOLYLINE
  5
2C4
330
18
100
AcDbEntity
  8
TEXT
100
AcDbPolyline
 90
        5
 70
     0
 43
0.0001332181640625
 10
-0.4076901559062836
 20
0.5424293147664914
 10
-0.4076901559062836
 20
0.5557511311727419
 10
-0.4443251510234716
 20
0.5557511311727419
 10
-0.4443251510234716
 20
0.5923861262899282
 10
-0.4576469674297221
 20
0.5923861262899282
  0
LWPOLYLINE
  5
2C5
330
18
100
AcDbEntity
  8
TEXT
100
AcDbPolyline
 90
        3
 70
     0
 43
0.0006660908203125
 10
-0.504273324851599
 20
0.582394763985243
 10
-0.504273324851599
 20
0.4958029573446164
 10
-0.4176815182109741
 20
0.4958029573446164
  0
LWPOLYLINE
  5
2C6
330
18
100
AcDbEntity
  8
TEXT
100
AcDbPolyline
 90
        3
 70
     0
 43
0.0006660908203125
 10
-0.5309169576640965
 20
0.582394763985243
 10
-0.5309169576640965
 20
0.4691593245321153
 10
-0.4176815182109741
 20
0.4691593245321153
  0
LWPOLYLINE
  5
2C7
330
18
100
AcDbEntity
  8
TEXT
100
AcDbPolyline
 90
        2
 70
     0
 43
0.0001332181640625
 10
-0.504273324851599
 20
0.582394763985243
 10
-0.4443251510234716
 20
0.5923861262899282
  0
LWPOLYLINE
  5
2C8
330
18
100
AcDbEntity
  8
TEXT
100
AcDbPolyline
 90
        2
 70
     0
 43
0.0001332181640625
 10
-0.4576469674297221
 20
0.5923861262899282
 10
-0.5309169576640965
 20
0.582394763985243
  0
LWPOLYLINE
  5
2C9
330
18
100
AcDbEntity
  8
TEXT
100
AcDbPolyline
 90
        2
 70
     0
 43
0.0006660908203125
 10
-0.504273324851599
 20
0.582394763985243
 10
-0.5309169576640965
 20
0.582394763985243
  0
LWPOLYLINE
  5
2CA
330
18
100
AcDbEntity
  8
TEXT
100
AcDbPolyline
 90
        2
 70
     0
 43
0.0001332181640625
 10
-0.504273324851599
 20
0.4958029573446164
 10
-0.4443251510234716
 20
0.5557511311727419
  0
LWPOLYLINE
  5
2CB
330
18
100
AcDbEntity
  8
TEXT
100
AcDbPolyline
 90
        2
 70
     0
 43
0.0006660908203125
 10
-0.504273324851599
 20
0.622360213203991
 10
-0.5309169576640965
 20
0.622360213203991
  0
LWPOLYLINE
  5
2CC
330
18
100
AcDbEntity
  8
TEXT
100
AcDbPolyline
 90
        2
 70
     0
 43
0.0001332181640625
 10
-0.5309169576640965
 20
0.622360213203991
 10
-0.4576469674297221
 20
0.6123688508993022
  0
LWPOLYLINE
  5
2CD
330
18
100
AcDbEntity
  8
TEXT
100
AcDbPolyline
 90
        2
 70
     0
 43
0.0001332181640625
 10
-0.504273324851599
 20
0.622360213203991
 10
-0.4443251510234734
 20
0.6123688508993022
  0
LWPOLYLINE
  5
2CE
330
18
100
AcDbEntity
  8
TEXT
100
AcDbPolyline
 90
        2
 70
     0
 43
0.0001332181640625
 10
-0.504273324851599
 20
0.7089520198446176
 10
-0.4443251510234734
 20
0.649003846016492
  0
LWPOLYLINE
  5
2CF
330
18
100
AcDbEntity
  8
TEXT
100
AcDbPolyline
 90
        5
 70
     0
 43
0.0001332181640625
 10
-0.3377506197734728
 20
0.5923861262899282
 10
-0.3510724361797215
 20
0.5923861262899282
 10
-0.3510724361797215
 20
0.5557511311727419
 10
-0.3877074312969113
 20
0.5557511311727419
 10
-0.3877074312969113
 20
0.5424293147664914
  0
LWPOLYLINE
  5
2D0
330
18
100
AcDbEntity
  8
TEXT
100
AcDbPolyline
 90
        2
 70
     0
 43
0.0001332181640625
 10
-0.2911242623515977
 20
0.582394763985243
 10
-0.3510724361797215
 20
0.5923861262899282
  0
LWPOLYLINE
  5
2D1
330
18
100
AcDbEntity
  8
TEXT
100
AcDbPolyline
 90
        2
 70
     0
 43
0.0001332181640625
 10
-0.2644806295390967
 20
0.582394763985243
 10
-0.3377506197734728
 20
0.5923861262899282
  0
LWPOLYLINE
  5
2D2
330
18
100
AcDbEntity
  8
TEXT
100
AcDbPolyline
 90
        3
 70
     0
 43
0.0006660908203125
 10
-0.3777160689922225
 20
0.4691593245321153
 10
-0.2644806295390967
 20
0.4691593245321153
 10
-0.2644806295390967
 20
0.582394763985243
  0
LWPOLYLINE
  5
2D3
330
18
100
AcDbEntity
  8
TEXT
100
AcDbPolyline
 90
        3
 70
     0
 43
0.0006660908203125
 10
-0.3777160689922225
 20
0.4958029573446164
 10
-0.2911242623515977
 20
0.4958029573446164
 10
-0.2911242623515977
 20
0.582394763985243
  0
LWPOLYLINE
  5
2D4
330
18
100
AcDbEntity
  8
TEXT
100
AcDbPolyline
 90
        2
 70
     0
 43
0.0001332181640625
 10
-0.2911242623515977
 20
0.4958029573446164
 10
-0.3510724361797215
 20
0.5557511311727419
  0
LWPOLYLINE
  5
2D5
330
18
100
AcDbEntity
  8
TEXT
100
AcDbPolyline
 90
        2
 70
     0
 43
0.0006660908203125
 10
-0.3777160689922225
 20
0.4958029573446164
 10
-0.3777160689922225
 20
0.4691593245321153
  0
LWPOLYLINE
  5
2D6
330
18
100
AcDbEntity
  8
TEXT
100
AcDbPolyline
 90
        2
 70
     0
 43
0.0001332181640625
 10
-0.3877074312969113
 20
0.5424293147664914
 10
-0.3777160689922225
 20
0.4691593245321153
  0
LWPOLYLINE
  5
2D7
330
18
100
AcDbEntity
  8
TEXT
100
AcDbPolyline
 90
        2
 70
     0
 43
0.0001332181640625
 10
-0.3777160689922225
 20
0.4958029573446164
 10
-0.3877074312969113
 20
0.5557511311727419
  0
LWPOLYLINE
  5
2D8
330
18
100
AcDbEntity
  8
TEXT
100
AcDbPolyline
 90
        2
 70
     0
 43
0.0001332181640625
 10
-0.4176815182109741
 20
0.4691593245321153
 10
-0.4076901559062836
 20
0.5424293147664914
  0
LWPOLYLINE
  5
2D9
330
18
100
AcDbEntity
  8
TEXT
100
AcDbPolyline
 90
        2
 70
     0
 43
0.0001332181640625
 10
-0.4176815182109741
 20
0.4958029573446164
 10
-0.4076901559062836
 20
0.5557511311727419
  0
LWPOLYLINE
  5
2DA
330
18
100
AcDbEntity
  8
TEXT
100
AcDbPolyline
 90
        2
 70
     0
 43
0.0006660908203125
 10
-0.4176815182109741
 20
0.4958029573446164
 10
-0.4176815182109741
 20
0.4691593245321153
  0
LWPOLYLINE
  5
2DB
330
18
100
AcDbEntity
  8
TEXT
100
AcDbPolyline
 90
        2
 70
     0
 43
0.0006660908203125
 10
-0.2911242623515977
 20
0.582394763985243
 10
-0.2644806295390967
 20
0.582394763985243
  0
LWPOLYLINE
  5
2DC
330
18
100
AcDbEntity
  8
TEXT
100
AcDbPolyline
 90
        2
 70
     0
 43
0.0001332181640625
 10
-0.2911242623515977
 20
0.7089520198446176
 10
-0.3510724361797215
 20
0.649003846016492
  0
LWPOLYLINE
  5
2DD
330
18
100
AcDbEntity
  8
TEXT
100
AcDbPolyline
 90
        2
 70
     0
 43
0.0001332181640625
 10
-0.2911242623515977
 20
0.622360213203991
 10
-0.3510724361797215
 20
0.6123688508993022
  0
LWPOLYLINE
  5
2DE
330
18
100
AcDbEntity
  8
TEXT
100
AcDbPolyline
 90
        2
 70
     0
 43
0.0001332181640625
 10
-0.3377506197734728
 20
0.6123688508993022
 10
-0.2644806295390967
 20
0.622360213203991
  0
LWPOLYLINE
  5
2DF
330
18
100
AcDbEntity
  8
TEXT
100
AcDbPolyline
 90
        3
 70
     0
 43
0.0006660908203125
 10
-0.2911242623515977
 20
0.622360213203991
 10
-0.2911242623515977
 20
0.7089520198446176
 10
-0.3777160689922225
 20
0.7089520198446176
  0
LWPOLYLINE
  5
2E0
330
18
100
AcDbEntity
  8
TEXT
100
AcDbPolyline
 90
        3
 70
     0
 43
0.0006660908203125
 10
-0.2644806295390967
 20
0.622360213203991
 10
-0.2644806295390967
 20
0.7355956526571186
 10
-0.3777160689922225
 20
0.7355956526571186
  0
LWPOLYLINE
  5
2E1
330
18
100
AcDbEntity
  8
TEXT
100
AcDbPolyline
 90
        2
 70
     0
 43
0.0001332181640625
 10
-0.3777160689922225
 20
0.7355956526571186
 10
-0.3877074312969113
 20
0.662325662422739
  0
LWPOLYLINE
  5
2E2
330
18
100
AcDbEntity
  8
TEXT
100
AcDbPolyline
 90
        2
 70
     0
 43
0.0001332181640625
 10
-0.3777160689922225
 20
0.7089520198446176
 10
-0.3877074312969113
 20
0.649003846016492
  0
LWPOLYLINE
  5
2E3
330
18
100
AcDbEntity
  8
TEXT
100
AcDbPolyline
 90
        2
 70
     0
 43
0.0006660908203125
 10
-0.3777160689922225
 20
0.7089520198446176
 10
-0.3777160689922225
 20
0.7355956526571186
  0
LWPOLYLINE
  5
2E4
330
18
100
AcDbEntity
  8
TEXT
100
AcDbPolyline
 90
        5
 70
     0
 43
0.0001332181640625
 10
-0.3877074312969113
 20
0.662325662422739
 10
-0.3877074312969113
 20
0.649003846016492
 10
-0.3510724361797215
 20
0.649003846016492
 10
-0.3510724361797215
 20
0.6123688508993022
 10
-0.3377506197734728
 20
0.6123688508993022
  0
LWPOLYLINE
  5
2E5
330
18
100
AcDbEntity
  8
TEXT
100
AcDbPolyline
 90
        2
 70
     0
 43
0.0001332181640625
 10
-0.4176815182109741
 20
0.7089520198446176
 10
-0.4076901559062836
 20
0.649003846016492
  0
LWPOLYLINE
  5
2E6
330
18
100
AcDbEntity
  8
TEXT
100
AcDbPolyline
 90
        2
 70
     0
 43
0.0001332181640625
 10
-0.4076901559062836
 20
0.662325662422739
 10
-0.4176815182109741
 20
0.7355956526571186
  0
LWPOLYLINE
  5
2E7
330
18
100
AcDbEntity
  8
TEXT
100
AcDbPolyline
 90
        2
 70
     0
 43
0.0006660908203125
 10
-0.4176815182109741
 20
0.7089520198446176
 10
-0.4176815182109741
 20
0.7355956526571186
  0
LWPOLYLINE
  5
2E8
330
18
100
AcDbEntity
  8
TEXT
100
AcDbPolyline
 90
        2
 70
     0
 43
0.0006660908203125
 10
-0.2911242623515977
 20
0.622360213203991
 10
-0.2644806295390967
 20
0.622360213203991
  0
LWPOLYLINE
  5
2E9
330
18
100
AcDbEntity
  8
TEXT
100
AcDbPolyline
 90
        2
 70
     0
 43
0.0
 10
0.4542992912095336
 20
0.5206739618835324
 42
0.3318488747599744
 10
0.5234185837748467
 20
0.4691226196686041
 42
-6.868794160588311
  0
LINE
  5
2EA
330
18
100
AcDbEntity
  8
TEXT
100
AcDbLine
 10
0.522279010278651
 20
0.8036071303959255
 30
0.0
 11
0.455470297712286
 21
0.8036071303959255
 31
0.0
  0
LINE
  5
2EB
330
18
100
AcDbEntity
  8
TEXT
100
AcDbLine
 10
0.1761279300931919
 20
0.7355956526571151
 30
0.0
 11
0.0003961771946805
 21
0.7355956526571151
 31
0.0
  0
ARC
  5
2EC
330
18
100
AcDbEntity
  8
TEXT
100
AcDbCircle
 10
0.0712336435532302
 20
0.5523184280291611
 30
0.0
 40
0.0831958083605586
100
AcDbArc
 50
270.0
 51
90.0
  0
LINE
  5
2ED
330
18
100
AcDbEntity
  8
TEXT
100
AcDbLine
 10
0.0056335073089286
 20
0.6713189580003496
 30
0.0
 11
0.172539161337899
 21
0.6713189580003496
 31
0.0
  0
LINE
  5
2EE
330
18
100
AcDbEntity
  8
TEXT
100
AcDbLine
 10
0.0761740174595094
 20
0.5374796260020434
 30
0.0
 11
-0.0816912822518248
 21
0.5374796260020434
 31
0.0
  0
LINE
  5
2EF
330
18
100
AcDbEntity
  8
TEXT
100
AcDbLine
 10
-0.081691282251823
 20
0.4691226196686041
 30
0.0
 11
0.0712336435532297
 21
0.4691226196686041
 31
0.0
  0
ARC
  5
2F0
330
18
100
AcDbEntity
  8
TEXT
100
AcDbCircle
 10
0.000396177194681
 20
0.6535081932106133
 30
0.0
 40
0.0820874594465043
100
AcDbArc
 50
90.0
 51
270.0
  0
LINE
  5
2F1
330
18
100
AcDbEntity
  8
TEXT
100
AcDbLine
 10
-0.0816912822518248
 20
0.5374796260020434
 30
0.0
 11
-0.081691282251823
 21
0.4691226196686041
 31
0.0
  0
LINE
  5
2F2
330
18
100
AcDbEntity
  8
TEXT
100
AcDbLine
 10
0.0003961771946805
 20
0.571420733764108
 30
0.0
 11
0.0761740174595094
 21
0.571420733764108
 31
0.0
  0
ARC
  5
2F3
330
18
100
AcDbEntity
  8
TEXT
100
AcDbCircle
 10
0.0761740174595098
 20
0.5544501798830775
 30
0.0
 40
0.0169705538810321
100
AcDbArc
 50
270.0
 51
90.0
  0
LINE
  5
2F4
330
18
100
AcDbEntity
  8
TEXT
100
AcDbLine
 10
0.0712336435532297
 20
0.6355142363897217
 30
0.0
 11
0.0056335073089286
 21
0.6355142363897217
 31
0.0
  0
ARC
  5
2F5
330
18
100
AcDbEntity
  8
TEXT
100
AcDbCircle
 10
0.0056335073089291
 20
0.6534165971950375
 30
0.0
 40
0.017902360805315
100
AcDbArc
 50
90.0
 51
270.0
  0
LINE
  5
2F6
330
18
100
AcDbEntity
  8
TEXT
100
AcDbLine
 10
0.3665998221130442
 20
0.6347236565439945
 30
0.0
 11
0.3079695010811063
 21
0.7355956526571151
 31
0.0
  0
LINE
  5
2F7
330
18
100
AcDbEntity
  8
TEXT
100
AcDbLine
 10
0.2264257688180047
 20
0.4691226196686041
 30
0.0
 11
0.3230660198929991
 21
0.4693932587668864
 31
0.0
  0
LWPOLYLINE
  5
2F8
330
18
100
AcDbEntity
  8
TEXT
100
AcDbPolyline
 90
        6
 70
     1
 43
0.0
 10
0.2689495723931548
 20
0.6713189580003496
 10
0.2386329781729466
 20
0.6713189580003496
 10
0.2386329781729466
 20
0.5482079599454553
 42
0.407328721240804
 10
0.250176629334423
 20
0.5363890452690692
 10
0.3107983283791538
 20
0.5363890452690692
 10
0.3282636687864717
 20
0.5692012743125483
  0
LINE
  5
2F9
330
18
100
AcDbEntity
  8
TEXT
100
AcDbLine
 10
0.172539161337899
 20
0.6713189580003496
 30
0.0
 11
0.172539161337899
 21
0.5289150110066539
 31
0.0
  0
ARC
  5
2FA
330
18
100
AcDbEntity
  8
TEXT
100
AcDbCircle
 10
0.2326551793116516
 20
0.5289150110066539
 30
0.0
 40
0.0601160179737537
100
AcDbArc
 50
180.0000000000003
 51
264.0521544866073
  0
LINE
  5
2FB
330
18
100
AcDbEntity
  8
TEXT
100
AcDbLine
 10
0.236170534937199
 20
0.7699835702512532
 30
0.0
 11
0.1761279300931919
 21
0.7699835702512532
 31
0.0
  0
LINE
  5
2FC
330
18
100
AcDbEntity
  8
TEXT
100
AcDbLine
 10
0.1761279300931919
 20
0.7699835702512532
 30
0.0
 11
0.1761279300931919
 21
0.7355956526571151
 31
0.0
  0
LINE
  5
2FD
330
18
100
AcDbEntity
  8
TEXT
100
AcDbLine
 10
0.236170534937199
 20
0.7355956526571151
 30
0.0
 11
0.236170534937199
 21
0.7699835702512532
 31
0.0
  0
LINE
  5
2FE
330
18
100
AcDbEntity
  8
TEXT
100
AcDbLine
 10
0.3079695010811063
 20
0.7355956526571151
 30
0.0
 11
0.236170534937199
 21
0.7355956526571151
 31
0.0
  0
LINE
  5
2FF
330
18
100
AcDbEntity
  8
TEXT
100
AcDbLine
 10
0.3569995851160899
 20
0.489081125773617
 30
0.0
 11
0.4542992912095345
 21
0.6534313367088851
 31
0.0
  0
LINE
  5
300
330
18
100
AcDbEntity
  8
TEXT
100
AcDbLine
 10
0.4542992912095345
 20
0.6534313367088851
 30
0.0
 11
0.4542992912095345
 21
0.5206739618835288
 31
0.0
  0
ARC
  5
301
330
18
100
AcDbEntity
  8
TEXT
100
AcDbCircle
 10
0.3229560252038763
 20
0.5086703419422998
 30
0.0
 40
0.0392772371940762
100
AcDbArc
 50
270.1604552698595
 51
330.0831797321295
  0
LINE
  5
302
330
18
100
AcDbEntity
  8
TEXT
100
AcDbLine
 10
0.4253483849189097
 20
0.7355956526571151
 30
0.0
 11
0.3665998221130442
 21
0.6347236565439945
 31
0.0
  0
LINE
  5
303
330
18
100
AcDbEntity
  8
TEXT
100
AcDbLine
 10
0.455470297712286
 20
0.8036071303959255
 30
0.0
 11
0.455470297712286
 21
0.7355956526571151
 31
0.0
  0
LINE
  5
304
330
18
100
AcDbEntity
  8
TEXT
100
AcDbLine
 10
0.455470297712286
 20
0.7355956526571151
 30
0.0
 11
0.4253483849189097
 21
0.7355956526571151
 31
0.0
  0
LWPOLYLINE
  5
305
330
18
100
AcDbEntity
  8
TEXT
100
AcDbPolyline
 90
        4
 70
     0
 43
0.0
 10
0.8075564193324442
 20
0.6637651688342397
 10
0.8075564193324442
 20
0.4691226196686041
 10
0.8760347026203021
 20
0.4691226196686041
 10
0.8760347026203021
 20
0.5126135646190422
 42
-1.714843617202739
  0
LWPOLYLINE
  5
306
330
18
100
AcDbEntity
  8
TEXT
100
AcDbPolyline
 90
        2
 70
     0
 43
0.0
 10
0.8426907698766541
 20
0.7355956526571186
 42
-0.3277054968067132
 10
0.878472460589819
 20
0.7072731068874747
 42
6.667889725900311
  0
LWPOLYLINE
  5
307
330
18
100
AcDbEntity
  8
TEXT
100
AcDbPolyline
 90
        2
 70
     0
 43
0.0
 10
0.6712571972974271
 20
0.6713189580003496
 42
-0.4142135623731017
 10
0.6788109864635406
 20
0.6637651688342397
 42
-0.9999999999999998
  0
LINE
  5
308
330
18
100
AcDbEntity
  8
TEXT
100
AcDbLine
 10
0.6886089203474475
 20
0.7355956526571151
 30
0.0
 11
0.5545908644163112
 21
0.7355956526571151
 31
0.0
  0
LINE
  5
309
330
18
100
AcDbEntity
  8
TEXT
100
AcDbLine
 10
0.6214219174742804
 20
0.4691226196686041
 30
0.0
 11
0.6214219174742804
 21
0.6713189580003496
 31
0.0
  0
LINE
  5
30A
330
18
100
AcDbEntity
  8
TEXT
100
AcDbLine
 10
0.5545908644163112
 20
0.7355956526571151
 30
0.0
 11
0.5545908644163112
 21
0.5347314459247068
 31
0.0
  0
LINE
  5
30B
330
18
100
AcDbEntity
  8
TEXT
100
AcDbLine
 10
0.522279010278651
 20
0.5515104577716033
 30
0.0
 11
0.522279010278651
 21
0.8036071303959255
 31
0.0
  0
LINE
  5
30C
330
18
100
AcDbEntity
  8
TEXT
100
AcDbLine
 10
0.5234185837748458
 20
0.4691226196686041
 30
0.0
 11
0.6214219174742804
 21
0.4691226196686041
 31
0.0
  0
LINE
  5
30D
330
18
100
AcDbEntity
  8
TEXT
100
AcDbLine
 10
0.5545908644163112
 20
0.5347314459247068
 30
0.0
 11
0.5375972275317098
 21
0.5347314459247068
 31
0.0
  0
ARC
  5
30E
330
18
100
AcDbEntity
  8
TEXT
100
AcDbCircle
 10
0.5375972275317089
 20
0.5501132521681323
 30
0.0
 40
0.0153818062434269
100
AcDbArc
 50
174.7883570302258
 51
270.0
  0
LINE
  5
30F
330
18
100
AcDbEntity
  8
TEXT
100
AcDbLine
 10
0.6214219174742804
 20
0.6713189580003496
 30
0.0
 11
0.671257197297428
 21
0.6713189580003496
 31
0.0
  0
LINE
  5
310
330
18
100
AcDbEntity
  8
TEXT
100
AcDbLine
 10
0.6788109864635415
 20
0.6637651688342397
 30
0.0
 11
0.6788109864635415
 21
0.4691226196686041
 31
0.0
  0
LINE
  5
311
330
18
100
AcDbEntity
  8
TEXT
100
AcDbLine
 10
0.7458690332453815
 20
0.4691226196686041
 30
0.0
 11
0.7458690332453815
 21
0.6713189580003496
 31
0.0
  0
LINE
  5
312
330
18
100
AcDbEntity
  8
TEXT
100
AcDbLine
 10
0.6788109864635415
 20
0.4691226196686041
 30
0.0
 11
0.7458690332453815
 21
0.4691226196686041
 31
0.0
  0
LWPOLYLINE
  5
313
330
18
100
AcDbEntity
  8
TEXT
100
AcDbPolyline
 90
        3
 70
     0
 43
0.0
 10
0.8426907698766541
 20
0.7355956526571186
 10
0.7243906110606098
 20
0.7355956526571186
 10
0.7243906110606098
 20
0.7084281558962227
 42
-1.960274751411753
  0
LINE
  5
314
330
18
100
AcDbEntity
  8
TEXT
100
AcDbLine
 10
0.7458690332453815
 20
0.6713189580003496
 30
0.0
 11
0.8000026301663316
 21
0.6713189580003496
 31
0.0
  0
LWPOLYLINE
  5
315
330
18
100
AcDbEntity
  8
TEXT
100
AcDbPolyline
 90
        2
 70
     0
 43
0.0
 10
0.6886089203474484
 20
0.7355956526571186
 42
-0.3328679258950098
 10
0.7243906110606098
 20
0.7084281558962227
 42
6.772930709997214
  0
LWPOLYLINE
  5
316
330
18
100
AcDbEntity
  8
TEXT
100
AcDbPolyline
 90
        2
 70
     0
 43
0.0
 10
0.8000026301663307
 20
0.6713189580003496
 42
-0.4142135623731017
 10
0.8075564193324442
 20
0.6637651688342397
 42
-0.9999999999999998
  0
ARC
  5
317
330
18
100
AcDbEntity
  8
TEXT
100
AcDbCircle
 10
1.01127743002981
 20
0.6940120855362127
 30
0.0
 40
0.0416329381542859
100
AcDbArc
 50
26.56974201007528
 51
87.20939649401342
  0
LWPOLYLINE
  5
318
330
18
100
AcDbEntity
  8
TEXT
100
AcDbPolyline
 90
        2
 70
     0
 43
0.0
 10
0.9191106354879376
 20
0.4691226196686041
 10
1.053128053119314
 20
0.4691226196686041
 42
0.9999999999999998
  0
LWPOLYLINE
  5
319
330
18
100
AcDbEntity
  8
TEXT
100
AcDbPolyline
 90
        4
 70
     1
 43
0.0
 10
1.033005588049421
 20
0.5720865976526293
 10
0.9443452693895633
 20
0.5720865976526293
 42
0.9999999999999998
 10
0.9443452693895633
 20
0.5296880571487686
 10
1.033005588049421
 20
0.5296880571487686
 42
1.0
  0
LWPOLYLINE
  5
31A
330
18
100
AcDbEntity
  8
TEXT
100
AcDbPolyline
 90
        2
 70
     0
 43
0.0
 10
0.8760347026203021
 20
0.5126135646190422
 42
0.2901071551932823
 10
0.9191106354879376
 20
0.4691226196686041
 42
5.328517124445801
  0
LINE
  5
31B
330
18
100
AcDbEntity
  8
TEXT
100
AcDbLine
 10
1.013304369806879
 20
0.7355956526571151
 30
0.0
 11
0.8784724605898199
 21
0.7355956526571151
 31
0.0
  0
LINE
  5
31C
330
18
100
AcDbEntity
  8
TEXT
100
AcDbLine
 10
0.9377865569831387
 20
0.6340439845382173
 30
0.0
 11
1.020074546766521
 21
0.6340439845382173
 31
0.0
  0
LINE
  5
31D
330
18
100
AcDbEntity
  8
TEXT
100
AcDbLine
 10
0.9842734714624006
 20
0.6713189580003496
 30
0.0
 11
0.8770671980751112
 21
0.6713189580003496
 31
0.0
  0
LINE
  5
31E
330
18
100
AcDbEntity
  8
TEXT
100
AcDbLine
 10
0.8784724605898199
 20
0.7355956526571151
 30
0.0
 11
0.8784724605898199
 21
0.7072731068874712
 31
0.0
  0
ARC
  5
31F
330
18
100
AcDbEntity
  8
TEXT
100
AcDbCircle
 10
0.9377865569831378
 20
0.5663584033940987
 30
0.0
 40
0.0676855811441166
100
AcDbArc
 50
90.0
 51
153.7768192527749
  0
LINE
  5
320
330
18
100
AcDbEntity
  8
TEXT
100
AcDbLine
 10
0.8770671980751112
 20
0.6713189580003496
 30
0.0
 11
0.8770671980751112
 21
0.596266551926143
 31
0.0
  0
LINE
  5
321
330
18
100
AcDbEntity
  8
TEXT
100
AcDbLine
 10
1.020074546766521
 20
0.6340439845382173
 30
0.0
 11
1.009809786352957
 21
0.6552945241109116
 31
0.0
  0
ARC
  5
322
330
18
100
AcDbEntity
  8
TEXT
100
AcDbCircle
 10
0.9842734714623997
 20
0.6429595830003523
 30
0.0
 40
0.028359375
100
AcDbArc
 50
25.78218179591245
 51
90.0
  0
LINE
  5
323
330
18
100
AcDbEntity
  8
TEXT
100
AcDbLine
 10
1.154559199822293
 20
0.4691226196686041
 30
0.0
 11
1.154559199822288
 21
0.6464131251000725
 31
0.0
  0
LWPOLYLINE
  5
324
330
18
100
AcDbEntity
  8
TEXT
100
AcDbPolyline
 90
        2
 70
     0
 43
0.0
 10
1.096203985986958
 20
0.4691226196686041
 10
1.154559199822292
 20
0.4691226196686041
  0
LWPOLYLINE
  5
325
330
18
100
AcDbEntity
  8
TEXT
100
AcDbPolyline
 90
        2
 70
     0
 43
0.0
 10
1.096203985986958
 20
0.5126135646190422
 42
-0.2901071551932486
 10
1.053128053119314
 20
0.4691226196686041
 42
-5.328517124445184
  0
LWPOLYLINE
  5
326
330
18
100
AcDbEntity
  8
TEXT
100
AcDbPolyline
 90
        2
 70
     0
 43
0.0
 10
1.096203985986958
 20
0.5126135646190422
 10
1.096203985986958
 20
0.4691226196686041
  0
LINE
  5
327
330
18
100
AcDbEntity
  8
TEXT
100
AcDbLine
 10
1.156161214981421
 20
0.7355956526571151
 30
0.0
 11
1.09226430868192
 21
0.7355956526571151
 31
0.0
  0
LINE
  5
328
330
18
100
AcDbEntity
  8
TEXT
100
AcDbLine
 10
1.09226430868192
 20
0.7355956526571151
 30
0.0
 11
1.09226430868192
 21
0.6303836741036877
 31
0.0
  0
LINE
  5
329
330
18
100
AcDbEntity
  8
TEXT
100
AcDbLine
 10
1.09226430868192
 20
0.6303836741036877
 30
0.0
 11
1.048513537500018
 21
0.7126339500998329
 31
0.0
  0
ARC
  5
32A
330
18
100
AcDbEntity
  8
TEXT
100
AcDbCircle
 10
1.179465075104952
 20
0.6464130827176869
 30
0.0
 40
0.0249058752826653
100
AcDbArc
 50
89.99971217465335
 51
179.9999999999985
  0
ARC
  5
32B
330
18
100
AcDbEntity
  8
TEXT
100
AcDbCircle
 10
1.187354032044529
 20
0.7043499253748502
 30
0.0
 40
0.0314112657011332
100
AcDbArc
 50
95.88484768694724
 51
173.2388340632136
  0
LINE
  5
32C
330
18
100
AcDbEntity
  8
TEXT
100
AcDbLine
 10
1.156161214981421
 20
0.7080480027962404
 30
0.0
 11
1.156161214981421
 21
0.7355956526571151
 31
0.0
  0
TEXT
  5
32D
330
18
100
AcDbEntity
  8
TEXT
100
AcDbText
 10
1.625036734403211
 20
0.5620084283141003
 30
0.0
 40
0.0522247191011236
  1
Minneapolis, MN 55432-0008
 41
1.11444212721585
 72
     5
 11
2.953969318672875
 21
0.5620084283141003
 31
0.0
100
AcDbText
  0
TEXT
  5
32E
330
18
100
AcDbEntity
  8
TEXT
100
AcDbText
 10
1.625036734403211
 20
0.6552668552803925
 30
0.0
 40
0.0522247191011236
  1
6536 Main St. N.E. * P.O. Box 32008
 41
0.8388932496075369
 72
     5
 11
2.953969318672875
 21
0.6552668552803925
 31
0.0
100
AcDbText
  0
TEXT
  5
32F
330
18
100
AcDbEntity
  8
TEXT
100
AcDbText
 10
1.625036734403211
 20
0.7485252822466846
 30
0.0
 40
0.0522247191011236
  1
Stylmark  Incorporated
 41
1.221428571428571
 72
     5
 11
2.953969318672875
 21
0.7485252822466846
 31
0.0
100
AcDbText
  0
TEXT
  5
330
330
18
100
AcDbEntity
  8
TEXT
100
AcDbText
 10
1.625036734403211
 20
0.4687500013478081
 30
0.0
 40
0.0522247191011236
  1
Phone  1-800-328-2495
 41
1.272321428571429
 72
     5
 11
2.953969318672875
 21
0.4687500013478081
 31
0.0
100
AcDbText
  0
LINE
  5
331
330
18
100
AcDbEntity
  8
TEXT
100
AcDbLine
 10
1.377480922940196
 20
0.6257024097161415
 30
0.0
 11
1.442038038905901
 21
0.7355956526571151
 31
0.0
  0
LINE
  5
332
330
18
100
AcDbEntity
  8
TEXT
100
AcDbLine
 10
1.442038038905901
 20
0.7355956526571151
 30
0.0
 11
1.367046206176275
 21
0.7355956526571151
 31
0.0
  0
LINE
  5
333
330
18
100
AcDbEntity
  8
TEXT
100
AcDbLine
 10
1.396394773927601
 20
0.4691226196686041
 30
0.0
 11
1.472973146303806
 21
0.4691226196686041
 31
0.0
  0
LINE
  5
334
330
18
100
AcDbEntity
  8
TEXT
100
AcDbLine
 10
1.472973146303806
 20
0.4691226196686041
 30
0.0
 11
1.377480922940196
 21
0.6257024097161415
 31
0.0
  0
LINE
  5
335
330
18
100
AcDbEntity
  8
TEXT
100
AcDbLine
 10
1.320491240716136
 20
0.4691226196686041
 30
0.0
 11
1.320491240716136
 21
0.6007021881447843
 31
0.0
  0
LINE
  5
336
330
18
100
AcDbEntity
  8
TEXT
100
AcDbLine
 10
1.320491240716136
 20
0.6007021881447843
 30
0.0
 11
1.396394773927601
 21
0.4691226196686041
 31
0.0
  0
LINE
  5
337
330
18
100
AcDbEntity
  8
TEXT
100
AcDbLine
 10
1.25611305639751
 20
0.6713189580003496
 30
0.0
 11
1.256113056397516
 21
0.4691226196686041
 31
0.0
  0
LINE
  5
338
330
18
100
AcDbEntity
  8
TEXT
100
AcDbLine
 10
1.256113056397516
 20
0.4691226196686041
 30
0.0
 11
1.320491240716136
 21
0.4691226196686041
 31
0.0
  0
LINE
  5
339
330
18
100
AcDbEntity
  8
TEXT
100
AcDbLine
 10
1.319948047620289
 20
0.8010598584247157
 30
0.0
 11
1.251633169071015
 21
0.8010598584247157
 31
0.0
  0
LINE
  5
33A
330
18
100
AcDbEntity
  8
TEXT
100
AcDbLine
 10
1.251633169071015
 20
0.8010598584247157
 30
0.0
 11
1.25163316907101
 21
0.7355956526571151
 31
0.0
  0
LINE
  5
33B
330
18
100
AcDbEntity
  8
TEXT
100
AcDbLine
 10
1.367046206176273
 20
0.7355956526571151
 30
0.0
 11
1.319948047620289
 21
0.659730326245577
 31
0.0
  0
LINE
  5
33C
330
18
100
AcDbEntity
  8
TEXT
100
AcDbLine
 10
1.319948047620289
 20
0.659730326245577
 30
0.0
 11
1.319948047620289
 21
0.8010598584247157
 31
0.0
  0
ENDSEC
  0
SECTION
  2
OBJECTS
  0
DICTIONARY
  5
C
330
0
100
AcDbDictionary
  3
ACAD_GROUP
350
D
  3
ACAD_LAYOUT
350
341
  3
ACAD_MLINESTYLE
350
E
  3
ACAD_PLOTSETTINGS
350
342
  3
ACAD_PLOTSTYLENAME
350
33F
  3
ACDBHEADERROUNDTRIPXREC
350
34D
  3
ACDBVARIABLEDICTIONARY
350
34A
  0
DICTIONARY
  5
36F
330
18
100
AcDbDictionary
280
     1
  3
ACAD_LAYOUTSELFREF
360
370
  0
DICTIONARY
  5
36D
330
15
100
AcDbDictionary
280
     1
  3
ACAD_LAYOUTSELFREF
360
36E
  0
DICTIONARY
  5
D
102
{ACAD_REACTORS
330
C
102
}
330
C
100
AcDbDictionary
  0
DICTIONARY
  5
341
102
{ACAD_REACTORS
330
C
102
}
330
C
100
AcDbDictionary
  0
DICTIONARY
  5
E
102
{ACAD_REACTORS
330
C
102
}
330
C
100
AcDbDictionary
  3
STANDARD
350
1B
  0
DICTIONARY
  5
342
102
{ACAD_REACTORS
330
C
102
}
330
C
100
AcDbDictionary
  0
ACDBDICTIONARYWDFLT
  5
33F
102
{ACAD_REACTORS
330
C
102
}
330
C
100
AcDbDictionary
281
     1
  3
Normal
350
340
100
AcDbDictionaryWithDefault
340
340
  0
DICTIONARY
  5
34D
102
{ACAD_REACTORS
330
C
102
}
330
C
100
AcDbDictionary
  3
CEPSNTYPE
350
357
  3
FINGERPRINTGUID
350
358
  3
HYPERLINKBASE
350
350
  3
INSUNITS
350
356
  3
LAYOUTDICT
350
352
  3
LWETCUNION
350
355
  3
PLOTSETDICT
350
353
  3
PLOTSTYLNAMDICT
350
354
  3
PSVPSCALE
350
35A
  3
PUCSBASE
350
35D
  3
PUCSORGBACK
350
363
  3
PUCSORGBOTTOM
350
35F
  3
PUCSORGFRONT
350
362
  3
PUCSORGLEFT
350
360
  3
PUCSORGRIGHT
350
361
  3
PUCSORGTOP
350
35E
  3
PUCSORTHOREF
350
35B
  3
PUCSORTHOVIEW
350
35C
  3
STYLESHEET
350
351
  3
TSTACKALIGN
350
34E
  3
TSTACKSIZE
350
34F
  3
UCSBASE
350
366
  3
UCSORGBACK
350
36C
  3
UCSORGBOTTOM
350
368
  3
UCSORGFRONT
350
36B
  3
UCSORGLEFT
350
369
  3
UCSORGRIGHT
350
36A
  3
UCSORGTOP
350
367
  3
UCSORTHOREF
350
364
  3
UCSORTHOVIEW
350
365
  3
VERSIONGUID
350
359
  0
DICTIONARY
  5
34A
102
{ACAD_REACTORS
330
C
102
}
330
C
100
AcDbDictionary
  3
DIMASSOC
350
34B
  0
XRECORD
  5
370
102
{ACAD_REACTORS
330
36F
102
}
330
36F
100
AcDbXrecord
340
18
  0
XRECORD
  5
36E
102
{ACAD_REACTORS
330
36D
102
}
330
36D
100
AcDbXrecord
340
15
  0
MLINESTYLE
  5
1B
102
{ACAD_REACTORS
330
E
102
}
330
E
100
AcDbMlineStyle
  2
STANDARD
 70
     0
  3

 62
     0
 51
90.0
 52
90.0
 71
     2
 49
0.5
 62
   256
  6
BYLAYER
 49
-0.5
 62
   256
  6
BYLAYER
  0
ACDBPLACEHOLDER
  5
340
102
{ACAD_REACTORS
330
33F
102
}
330
33F
100
AcDbPlaceHolder
280
     0
  0
XRECORD
  5
357
102
{ACAD_REACTORS
330
34D
102
}
330
34D
100
AcDbXrecord
 90
        0
  0
XRECORD
  5
358
102
{ACAD_REACTORS
330
34D
102
}
330
34D
100
AcDbXrecord
  1
{66319590-8DB6-11D6-88E6-0090279574E7}
  0
XRECORD
  5
350
102
{ACAD_REACTORS
330
34D
102
}
330
34D
100
AcDbXrecord
  1

  0
XRECORD
  5
356
102
{ACAD_REACTORS
330
34D
102
}
330
34D
100
AcDbXrecord
 90
        0
  0
XRECORD
  5
352
102
{ACAD_REACTORS
330
34D
102
}
330
34D
100
AcDbXrecord
340
341
  0
XRECORD
  5
355
102
{ACAD_REACTORS
330
34D
102
}
330
34D
100
AcDbXrecord
 90
    14877
  0
XRECORD
  5
353
102
{ACAD_REACTORS
330
34D
102
}
330
34D
100
AcDbXrecord
340
342
  0
XRECORD
  5
354
102
{ACAD_REACTORS
330
34D
102
}
330
34D
100
AcDbXrecord
340
33F
  0
XRECORD
  5
35A
102
{ACAD_REACTORS
330
34D
102
}
330
34D
100
AcDbXrecord
 40
0.0
  0
XRECORD
  5
35D
102
{ACAD_REACTORS
330
34D
102
}
330
34D
100
AcDbXrecord
340
0
  0
XRECORD
  5
363
102
{ACAD_REACTORS
330
34D
102
}
330
34D
100
AcDbXrecord
 10
0.0
 20
0.0
 30
0.0
  0
XRECORD
  5
35F
102
{ACAD_REACTORS
330
34D
102
}
330
34D
100
AcDbXrecord
 10
0.0
 20
0.0
 30
0.0
  0
XRECORD
  5
362
102
{ACAD_REACTORS
330
34D
102
}
330
34D
100
AcDbXrecord
 10
0.0
 20
0.0
 30
0.0
  0
XRECORD
  5
360
102
{ACAD_REACTORS
330
34D
102
}
330
34D
100
AcDbXrecord
 10
0.0
 20
0.0
 30
0.0
  0
XRECORD
  5
361
102
{ACAD_REACTORS
330
34D
102
}
330
34D
100
AcDbXrecord
 10
0.0
 20
0.0
 30
0.0
  0
XRECORD
  5
35E
102
{ACAD_REACTORS
330
34D
102
}
330
34D
100
AcDbXrecord
 10
0.0
 20
0.0
 30
0.0
  0
XRECORD
  5
35B
102
{ACAD_REACTORS
330
34D
102
}
330
34D
100
AcDbXrecord
340
0
  0
XRECORD
  5
35C
102
{ACAD_REACTORS
330
34D
102
}
330
34D
100
AcDbXrecord
 70
     0
  0
XRECORD
  5
351
102
{ACAD_REACTORS
330
34D
102
}
330
34D
100
AcDbXrecord
  1

  0
XRECORD
  5
34E
102
{ACAD_REACTORS
330
34D
102
}
330
34D
100
AcDbXrecord
 90
        1
  0
XRECORD
  5
34F
102
{ACAD_REACTORS
330
34D
102
}
330
34D
100
AcDbXrecord
 90
       70
  0
XRECORD
  5
366
102
{ACAD_REACTORS
330
34D
102
}
330
34D
100
AcDbXrecord
340
0
  0
XRECORD
  5
36C
102
{ACAD_REACTORS
330
34D
102
}
330
34D
100
AcDbXrecord
 10
0.0
 20
0.0
 30
0.0
  0
XRECORD
  5
368
102
{ACAD_REACTORS
330
34D
102
}
330
34D
100
AcDbXrecord
 10
0.0
 20
0.0
 30
0.0
  0
XRECORD
  5
36B
102
{ACAD_REACTORS
330
34D
102
}
330
34D
100
AcDbXrecord
 10
0.0
 20
0.0
 30
0.0
  0
XRECORD
  5
369
102
{ACAD_REACTORS
330
34D
102
}
330
34D
100
AcDbXrecord
 10
0.0
 20
0.0
 30
0.0
  0
XRECORD
  5
36A
102
{ACAD_REACTORS
330
34D
102
}
330
34D
100
AcDbXrecord
 10
0.0
 20
0.0
 30
0.0
  0
XRECORD
  5
367
102
{ACAD_REACTORS
330
34D
102
}
330
34D
100
AcDbXrecord
 10
0.0
 20
0.0
 30
0.0
  0
XRECORD
  5
364
102
{ACAD_REACTORS
330
34D
102
}
330
34D
100
AcDbXrecord
340
0
  0
XRECORD
  5
365
102
{ACAD_REACTORS
330
34D
102
}
330
34D
100
AcDbXrecord
 70
     0
  0
XRECORD
  5
359
102
{ACAD_REACTORS
330
34D
102
}
330
34D
100
AcDbXrecord
  1
{66319592-8DB6-11D6-88E6-0090279574E7}
  0
DICTIONARYVAR
  5
34B
102
{ACAD_REACTORS
330
34A
102
}
330
34A
100
DictionaryVariables
280
     0
  1
1
  0
ENDSEC
  0
EOF
