  0
SECTION
  2
HEADER
  9
$ACADVER
  1
AC1014
  9
$ACADMAINTVER
 70
     9
  9
$DWGCODEPAGE
  3
ANSI_1252
  9
$INSBASE
 10
0.0
 20
0.0
 30
0.0
  9
$EXTMIN
 10
13.24505758261438
 20
4.276359655516089
 30
0.0
  9
$EXTMAX
 10
16.73027690436153
 20
5.46875
 30
0.0
  9
$LIMMIN
 10
0.0
 20
0.0
  9
$LIMMAX
 10
8.5
 20
11.0
  9
$ORTHOMODE
 70
     1
  9
$REGENMODE
 70
     1
  9
$FILLMODE
 70
     1
  9
$QTEXTMODE
 70
     0
  9
$MIRRTEXT
 70
     0
  9
$DRAGMODE
 70
     2
  9
$LTSCALE
 40
1.0
  9
$OSMODE
 70
    39
  9
$ATTMODE
 70
     1
  9
$TEXTSIZE
 40
0.125
  9
$TRACEWID
 40
0.05
  9
$TEXTSTYLE
  7
ROMANS
  9
$CLAYER
  8
TEXT
  9
$CELTYPE
  6
BYLAYER
  9
$CECOLOR
 62
   256
  9
$CELTSCALE
 40
1.0
  9
$DELOBJ
 70
     1
  9
$DISPSILH
 70
     1
  9
$DIMSCALE
 40
0.125
  9
$DIMASZ
 40
0.125
  9
$DIMEXO
 40
0.125
  9
$DIMDLI
 40
0.375
  9
$DIMRND
 40
0.0
  9
$DIMDLE
 40
0.0
  9
$DIMEXE
 40
0.125
  9
$DIMTP
 40
0.017
  9
$DIMTM
 40
0.0
  9
$DIMTXT
 40
0.125
  9
$DIMCEN
 40
-0.125
  9
$DIMTSZ
 40
0.0
  9
$DIMTOL
 70
     0
  9
$DIMLIM
 70
     0
  9
$DIMTIH
 70
     1
  9
$DIMTOH
 70
     1
  9
$DIMSE1
 70
     0
  9
$DIMSE2
 70
     0
  9
$DIMTAD
 70
     0
  9
$DIMZIN
 70
     4
  9
$DIMBLK
  1

  9
$DIMASO
 70
     1
  9
$DIMSHO
 70
     1
  9
$DIMPOST
  1

  9
$DIMAPOST
  1

  9
$DIMALT
 70
     0
  9
$DIMALTD
 70
     2
  9
$DIMALTF
 40
25.4
  9
$DIMLFAC
 40
1.0
  9
$DIMTOFL
 70
     0
  9
$DIMTVP
 40
0.0
  9
$DIMTIX
 70
     1
  9
$DIMSOXD
 70
     0
  9
$DIMSAH
 70
     0
  9
$DIMBLK1
  1

  9
$DIMBLK2
  1

  9
$DIMSTYLE
  2
STANDARD
  9
$DIMCLRD
 70
     0
  9
$DIMCLRE
 70
     0
  9
$DIMCLRT
 70
     0
  9
$DIMTFAC
 40
1.0
  9
$DIMGAP
 40
0.09
  9
$DIMJUST
 70
     0
  9
$DIMSD1
 70
     0
  9
$DIMSD2
 70
     0
  9
$DIMTOLJ
 70
     1
  9
$DIMTZIN
 70
     4
  9
$DIMALTZ
 70
     0
  9
$DIMALTTZ
 70
     0
  9
$DIMFIT
 70
     3
  9
$DIMUPT
 70
     0
  9
$DIMUNIT
 70
     2
  9
$DIMDEC
 70
     3
  9
$DIMTDEC
 70
     3
  9
$DIMALTU
 70
     2
  9
$DIMALTTD
 70
     2
  9
$DIMTXSTY
  7
ROMANS
  9
$DIMAUNIT
 70
     0
  9
$LUNITS
 70
     2
  9
$LUPREC
 70
     3
  9
$SKETCHINC
 40
0.1
  9
$FILLETRAD
 40
0.03125
  9
$AUNITS
 70
     0
  9
$AUPREC
 70
     0
  9
$MENU
  1
C:\R13\COM\SUPPORT\ACAD
  9
$ELEVATION
 40
0.0
  9
$PELEVATION
 40
0.0
  9
$THICKNESS
 40
0.0
  9
$LIMCHECK
 70
     0
  9
$BLIPMODE
 70
     0
  9
$CHAMFERA
 40
0.0
  9
$CHAMFERB
 40
0.0
  9
$CHAMFERC
 40
0.0
  9
$CHAMFERD
 40
0.0
  9
$SKPOLY
 70
     0
  9
$TDCREATE
 40
2448356.435439004
  9
$TDUPDATE
 40
2452458.307343646
  9
$TDINDWG
 40
0.1904257523
  9
$TDUSRTIMER
 40
0.1904257523
  9
$USRTIMER
 70
     1
  9
$ANGBASE
 50
0.0
  9
$ANGDIR
 70
     0
  9
$PDMODE
 70
     0
  9
$PDSIZE
 40
0.0
  9
$PLINEWID
 40
0.0
  9
$COORDS
 70
     2
  9
$SPLFRAME
 70
     0
  9
$SPLINETYPE
 70
     6
  9
$SPLINESEGS
 70
     8
  9
$ATTDIA
 70
     0
  9
$ATTREQ
 70
     1
  9
$HANDLING
 70
 22529
  9
$HANDSEED
  5
8DF
  9
$SURFTAB1
 70
     6
  9
$SURFTAB2
 70
     6
  9
$SURFTYPE
 70
     6
  9
$SURFU
 70
     6
  9
$SURFV
 70
     6
  9
$UCSNAME
  2

  9
$UCSORG
 10
0.0
 20
0.0
 30
0.0
  9
$UCSXDIR
 10
1.0
 20
0.0
 30
0.0
  9
$UCSYDIR
 10
0.0
 20
1.0
 30
0.0
  9
$PUCSNAME
  2

  9
$PUCSORG
 10
0.0
 20
0.0
 30
0.0
  9
$PUCSXDIR
 10
1.0
 20
0.0
 30
0.0
  9
$PUCSYDIR
 10
0.0
 20
1.0
 30
0.0
  9
$USERI1
 70
     0
  9
$USERI2
 70
     0
  9
$USERI3
 70
     0
  9
$USERI4
 70
     0
  9
$USERI5
 70
     0
  9
$USERR1
 40
0.0
  9
$USERR2
 40
0.0
  9
$USERR3
 40
0.0
  9
$USERR4
 40
0.0
  9
$USERR5
 40
0.0
  9
$WORLDVIEW
 70
     1
  9
$SHADEDGE
 70
     3
  9
$SHADEDIF
 70
    70
  9
$TILEMODE
 70
     1
  9
$MAXACTVP
 70
    16
  9
$PINSBASE
 10
0.0
 20
0.0
 30
0.0
  9
$PLIMCHECK
 70
     0
  9
$PEXTMIN
 10
1.000000000000000E+20
 20
1.000000000000000E+20
 30
1.000000000000000E+20
  9
$PEXTMAX
 10
-1.000000000000000E+20
 20
-1.000000000000000E+20
 30
-1.000000000000000E+20
  9
$PLIMMIN
 10
0.0
 20
0.0
  9
$PLIMMAX
 10
12.0
 20
9.0
  9
$UNITMODE
 70
     0
  9
$VISRETAIN
 70
     0
  9
$PLINEGEN
 70
     1
  9
$PSLTSCALE
 70
     0
  9
$TREEDEPTH
 70
  3020
  9
$PICKSTYLE
 70
     1
  9
$CMLSTYLE
  2
STANDARD
  9
$CMLJUST
 70
     0
  9
$CMLSCALE
 40
1.0
  9
$PROXYGRAPHICS
 70
     1
  9
$MEASUREMENT
 70
     0
  0
ENDSEC
  0
SECTION
  2
CLASSES
  0
CLASS
  1
LWPOLYLINE
  2
AcDbPolyline
  3
AutoCAD 2000
 90
        0
280
     0
281
     1
  0
CLASS
  1
ACDBDICTIONARYWDFLT
  2
AcDbDictionaryWithDefault
  3
AutoCAD 2000
 90
        0
280
     0
281
     0
  0
CLASS
  1
ACDBPLACEHOLDER
  2
AcDbPlaceHolder
  3
AutoCAD 2000
 90
        0
280
     0
281
     0
  0
CLASS
  1
LAYOUT
  2
AcDbLayout
  3
AutoCAD 2000
 90
        0
280
     0
281
     0
  0
CLASS
  1
DICTIONARYVAR
  2
AcDbDictionaryVar
  3
AutoCAD 2000
 90
        0
280
     0
281
     0
  0
CLASS
  1
LONG_TRANSACTION
  2
AcDbLongTransaction
  3
AutoCAD 2000
 90
        0
280
     0
281
     0
  0
CLASS
  1
LWPOLYLINE
  2
AcDbPolyline
  3
AutoCAD 2000
 90
        0
280
     0
281
     1
  0
CLASS
  1
HATCH
  2
AcDbHatch
  3
AutoCAD 2000
 90
        0
280
     0
281
     1
  0
CLASS
  1
XRECORD
  2
AcDbXrecord
  3
AutoCAD 2000
 90
        0
280
     0
281
     0
  0
ENDSEC
  0
SECTION
  2
TABLES
  0
TABLE
  2
VPORT
  5
8
330
0
100
AcDbSymbolTable
 70
     2
  0
VPORT
  5
8BA
330
8
100
AcDbSymbolTableRecord
100
AcDbViewportTableRecord
  2
*ACTIVE
 70
     0
 10
0.0
 20
0.0
 11
1.0
 21
1.0
 12
17.91012421128414
 22
4.872403286961159
 13
0.0
 23
0.0
 14
0.015625
 24
0.015625
 15
0.0
 25
0.0
 16
0.0
 26
0.0
 36
1.0
 17
0.0
 27
0.0
 37
0.0
 40
2.163851761031391
 41
4.320930232558139
 42
50.0
 43
0.0
 44
0.0
 50
0.0
 51
0.0
 71
     0
 72
  2000
 73
     1
 74
     1
 75
     0
 76
     0
 77
     0
 78
     0
  0
ENDTAB
  0
TABLE
  2
LTYPE
  5
5
330
0
100
AcDbSymbolTable
 70
     1
  0
LTYPE
  5
12
330
5
100
AcDbSymbolTableRecord
100
AcDbLinetypeTableRecord
  2
BYBLOCK
 70
     0
  3

 72
    65
 73
     0
 40
0.0
  0
LTYPE
  5
13
330
5
100
AcDbSymbolTableRecord
100
AcDbLinetypeTableRecord
  2
BYLAYER
 70
     0
  3

 72
    65
 73
     0
 40
0.0
  0
LTYPE
  5
14
330
5
100
AcDbSymbolTableRecord
100
AcDbLinetypeTableRecord
  2
CONTINUOUS
 70
     0
  3
Solid line
 72
    65
 73
     0
 40
0.0
  0
ENDTAB
  0
TABLE
  2
LAYER
  5
2
330
0
100
AcDbSymbolTable
 70
     2
  0
LAYER
  5
F
330
2
100
AcDbSymbolTableRecord
100
AcDbLayerTableRecord
  2
0
 70
     0
 62
     7
  6
CONTINUOUS
  0
LAYER
  5
2D
330
2
100
AcDbSymbolTableRecord
100
AcDbLayerTableRecord
  2
TEXT
 70
     0
 62
     3
  6
CONTINUOUS
  0
ENDTAB
  0
TABLE
  2
STYLE
  5
3
330
0
100
AcDbSymbolTable
 70
     3
  0
STYLE
  5
10
330
3
100
AcDbSymbolTableRecord
100
AcDbTextStyleTableRecord
  2
STANDARD
 70
     0
 40
0.0
 41
1.0
 50
0.0
 71
     0
 42
0.125
  3
txt
  4

  0
STYLE
  5
409
330
3
100
AcDbSymbolTableRecord
100
AcDbTextStyleTableRecord
  2
ROMANS
 70
     0
 40
0.0
 41
1.0
 50
0.0
 71
     0
 42
0.125
  3
romans.shx
  4

  0
STYLE
  5
7A8
330
3
100
AcDbSymbolTableRecord
100
AcDbTextStyleTableRecord
  2
ITALICC
 70
     0
 40
0.0
 41
1.0
 50
0.0
 71
     0
 42
0.125
  3
italicc
  4

  0
ENDTAB
  0
TABLE
  2
VIEW
  5
6
330
0
100
AcDbSymbolTable
 70
     0
  0
ENDTAB
  0
TABLE
  2
UCS
  5
7
330
0
100
AcDbSymbolTable
 70
     0
  0
ENDTAB
  0
TABLE
  2
APPID
  5
9
330
0
100
AcDbSymbolTable
 70
     1
  0
APPID
  5
11
330
9
100
AcDbSymbolTableRecord
100
AcDbRegAppTableRecord
  2
ACAD
 70
     0
  0
ENDTAB
  0
TABLE
  2
DIMSTYLE
  5
A
330
0
100
AcDbSymbolTable
 70
     1
  0
DIMSTYLE
105
3FE
330
A
100
AcDbSymbolTableRecord
100
AcDbDimStyleTableRecord
  2
STANDARD
 70
     0
  3

  4

  5

  6

  7

 40
1.0
 41
0.125
 42
0.125
 43
0.375
 44
0.125
 45
0.0
 46
0.0
 47
0.017
 48
0.0
140
0.125
141
-0.125
142
0.0
143
25.4
144
1.0
145
0.0
146
1.0
147
0.09
 71
     0
 72
     0
 73
     1
 74
     1
 75
     0
 76
     0
 77
     0
 78
     4
170
     0
171
     2
172
     0
173
     0
174
     1
175
     0
176
     0
177
     0
178
     0
270
     2
271
     3
272
     3
273
     2
274
     2
340
409
275
     0
280
     0
281
     0
282
     0
283
     1
284
     4
285
     0
286
     0
287
     3
288
     0
  0
ENDTAB
  0
TABLE
  2
BLOCK_RECORD
  5
1
330
0
100
AcDbSymbolTable
 70
     0
  0
BLOCK_RECORD
  5
18
102
{ACAD_XDICTIONARY
360
8DD
102
}
330
1
100
AcDbSymbolTableRecord
100
AcDbBlockTableRecord
  2
*MODEL_SPACE
  0
BLOCK_RECORD
  5
15
102
{ACAD_XDICTIONARY
360
8DB
102
}
330
1
100
AcDbSymbolTableRecord
100
AcDbBlockTableRecord
  2
*PAPER_SPACE
  0
ENDTAB
  0
ENDSEC
  0
SECTION
  2
BLOCKS
  0
BLOCK
  5
36
330
18
100
AcDbEntity
  8
0
100
AcDbBlockBegin
  2
*MODEL_SPACE
 70
     0
 10
0.0
 20
0.0
 30
0.0
  3
*MODEL_SPACE
  1

  0
ENDBLK
  5
37
330
18
100
AcDbEntity
  8
0
100
AcDbBlockEnd
  0
BLOCK
  5
34
330
15
100
AcDbEntity
 67
     1
  8
0
100
AcDbBlockBegin
  2
*PAPER_SPACE
 70
     0
 10
0.0
 20
0.0
 30
0.0
  3
*PAPER_SPACE
  1

  0
ENDBLK
  5
35
330
15
100
AcDbEntity
 67
     1
  8
0
100
AcDbBlockEnd
  0
ENDSEC
  0
SECTION
  2
ENTITIES
  0
LWPOLYLINE
  5
352
330
18
100
AcDbEntity
  8
0
100
AcDbPolyline
 90
       32
 70
     1
 43
0.0
 10
13.44573926755542
 20
5.268749999999999
 10
13.49305333216093
 20
5.268749999999999
 10
13.51448926755542
 20
5.348749999999999
 10
13.46448926755542
 20
5.348749999999999
 10
13.53377129985818
 20
5.46875
 10
13.60448926755542
 20
5.46875
 10
13.55893790484213
 20
5.29875
 10
13.84448926755542
 20
5.29875
 10
13.84448926755542
 20
5.125
 42
0.4142135623730957
 10
13.87573926755542
 20
5.09375
 10
14.34823926755542
 20
5.09375
 10
14.35823926755542
 20
5.08375
 10
14.36823926755542
 20
5.09375
 10
15.66073926755542
 20
5.09375
 10
15.67073926755542
 20
5.08375
 10
15.68073926755542
 20
5.09375
 10
16.15323926755542
 20
5.09375
 42
0.4142135623730951
 10
16.18448926755542
 20
5.125
 10
16.18448926755542
 20
5.29875
 10
16.47004063026871
 20
5.29875
 10
16.42448926755542
 20
5.46875
 10
16.49520723525267
 20
5.46875
 10
16.56448926755542
 20
5.348749999999999
 10
16.51448926755542
 20
5.348749999999999
 10
16.53592520294991
 20
5.268749999999999
 10
16.58323926755542
 20
5.268749999999999
 42
-1.0
 10
16.58323926755542
 20
5.21875
 10
16.26448926755542
 20
5.21875
 10
16.26448926755542
 20
5.03125
 10
13.76448926755542
 20
5.03125
 10
13.76448926755542
 20
5.21875
 10
13.44573926755542
 20
5.21875
 42
-1.0
  0
TEXT
  5
82D
330
18
100
AcDbEntity
  8
TEXT
100
AcDbText
 10
14.23208678088914
 20
4.73437825959867
 30
0.0
 40
0.125
  1
PART #110337
  7
ITALICC
 72
     1
 11
14.98803916184152
 21
4.73437825959867
 31
0.0
100
AcDbText
  0
LINE
  5
82E
330
18
100
AcDbEntity
  8
TEXT
100
AcDbLine
 10
14.95577266079359
 20
4.490024573578836
 30
0.0
 11
15.03242064208614
 21
4.490024573578836
 31
0.0
  0
LINE
  5
82F
330
18
100
AcDbEntity
  8
TEXT
100
AcDbLine
 10
15.02794075475964
 20
4.554301268235602
 30
0.0
 11
14.96044103711013
 21
4.554301268235602
 31
0.0
  0
LWPOLYLINE
  5
830
330
18
100
AcDbEntity
  8
TEXT
100
AcDbPolyline
 90
        5
 70
     0
 43
0.0001332181640625
 10
13.31866061825891
 20
4.431074466477789
 10
13.33198243466516
 20
4.431074466477789
 10
13.33198243466516
 20
4.467709461594979
 10
13.36861742978235
 20
4.467709461594979
 10
13.36861742978235
 20
4.481031278001226
  0
LWPOLYLINE
  5
831
330
18
100
AcDbEntity
  8
TEXT
100
AcDbPolyline
 90
        3
 70
     0
 43
0.0006660908203125
 10
13.35862606747766
 20
4.527657635423104
 10
13.27203426083704
 20
4.527657635423104
 10
13.27203426083704
 20
4.441065828782478
  0
LWPOLYLINE
  5
832
330
18
100
AcDbEntity
  8
TEXT
100
AcDbPolyline
 90
        3
 70
     0
 43
0.0006660908203125
 10
13.35862606747766
 20
4.554301268235605
 10
13.24539062802454
 20
4.554301268235605
 10
13.24539062802454
 20
4.441065828782478
  0
LWPOLYLINE
  5
833
330
18
100
AcDbEntity
  8
TEXT
100
AcDbPolyline
 90
        5
 70
     0
 43
0.0001332181640625
 10
13.36861742978235
 20
4.361134930344978
 10
13.36861742978235
 20
4.374456746751229
 10
13.33198243466516
 20
4.374456746751229
 10
13.33198243466516
 20
4.411091741868415
 10
13.31866061825891
 20
4.411091741868415
  0
LWPOLYLINE
  5
834
330
18
100
AcDbEntity
  8
TEXT
100
AcDbPolyline
 90
        3
 70
     0
 43
0.0006660908203125
 10
13.27203426083704
 20
4.40110037956373
 10
13.27203426083704
 20
4.314508572923103
 10
13.35862606747766
 20
4.314508572923103
  0
LWPOLYLINE
  5
835
330
18
100
AcDbEntity
  8
TEXT
100
AcDbPolyline
 90
        3
 70
     0
 43
0.0006660908203125
 10
13.24539062802454
 20
4.40110037956373
 10
13.24539062802454
 20
4.287864940110602
 10
13.35862606747766
 20
4.287864940110602
  0
LWPOLYLINE
  5
836
330
18
100
AcDbEntity
  8
TEXT
100
AcDbPolyline
 90
        2
 70
     0
 43
0.0001332181640625
 10
13.27203426083704
 20
4.40110037956373
 10
13.33198243466516
 20
4.411091741868415
  0
LWPOLYLINE
  5
837
330
18
100
AcDbEntity
  8
TEXT
100
AcDbPolyline
 90
        2
 70
     0
 43
0.0001332181640625
 10
13.31866061825891
 20
4.411091741868415
 10
13.24539062802454
 20
4.40110037956373
  0
LWPOLYLINE
  5
838
330
18
100
AcDbEntity
  8
TEXT
100
AcDbPolyline
 90
        2
 70
     0
 43
0.0006660908203125
 10
13.27203426083704
 20
4.40110037956373
 10
13.24539062802454
 20
4.40110037956373
  0
LWPOLYLINE
  5
839
330
18
100
AcDbEntity
  8
TEXT
100
AcDbPolyline
 90
        2
 70
     0
 43
0.0001332181640625
 10
13.27203426083704
 20
4.314508572923103
 10
13.33198243466516
 20
4.374456746751229
  0
LWPOLYLINE
  5
83A
330
18
100
AcDbEntity
  8
TEXT
100
AcDbPolyline
 90
        2
 70
     0
 43
0.0006660908203125
 10
13.27203426083704
 20
4.441065828782478
 10
13.24539062802454
 20
4.441065828782478
  0
LWPOLYLINE
  5
83B
330
18
100
AcDbEntity
  8
TEXT
100
AcDbPolyline
 90
        2
 70
     0
 43
0.0001332181640625
 10
13.24539062802454
 20
4.441065828782478
 10
13.31866061825891
 20
4.431074466477789
  0
LWPOLYLINE
  5
83C
330
18
100
AcDbEntity
  8
TEXT
100
AcDbPolyline
 90
        2
 70
     0
 43
0.0001332181640625
 10
13.27203426083704
 20
4.441065828782478
 10
13.33198243466516
 20
4.431074466477789
  0
LWPOLYLINE
  5
83D
330
18
100
AcDbEntity
  8
TEXT
100
AcDbPolyline
 90
        2
 70
     0
 43
0.0001332181640625
 10
13.27203426083704
 20
4.527657635423104
 10
13.33198243466516
 20
4.467709461594979
  0
LWPOLYLINE
  5
83E
330
18
100
AcDbEntity
  8
TEXT
100
AcDbPolyline
 90
        5
 70
     0
 43
0.0001332181640625
 10
13.43855696591516
 20
4.411091741868415
 10
13.42523514950891
 20
4.411091741868415
 10
13.42523514950891
 20
4.374456746751229
 10
13.38860015439172
 20
4.374456746751229
 10
13.38860015439172
 20
4.361134930344978
  0
LWPOLYLINE
  5
83F
330
18
100
AcDbEntity
  8
TEXT
100
AcDbPolyline
 90
        2
 70
     0
 43
0.0001332181640625
 10
13.48518332333703
 20
4.40110037956373
 10
13.42523514950891
 20
4.411091741868415
  0
LWPOLYLINE
  5
840
330
18
100
AcDbEntity
  8
TEXT
100
AcDbPolyline
 90
        2
 70
     0
 43
0.0001332181640625
 10
13.51182695614954
 20
4.40110037956373
 10
13.43855696591516
 20
4.411091741868415
  0
LWPOLYLINE
  5
841
330
18
100
AcDbEntity
  8
TEXT
100
AcDbPolyline
 90
        3
 70
     0
 43
0.0006660908203125
 10
13.39859151669641
 20
4.287864940110602
 10
13.51182695614954
 20
4.287864940110602
 10
13.51182695614954
 20
4.40110037956373
  0
LWPOLYLINE
  5
842
330
18
100
AcDbEntity
  8
TEXT
100
AcDbPolyline
 90
        3
 70
     0
 43
0.0006660908203125
 10
13.39859151669641
 20
4.314508572923103
 10
13.48518332333703
 20
4.314508572923103
 10
13.48518332333703
 20
4.40110037956373
  0
LWPOLYLINE
  5
843
330
18
100
AcDbEntity
  8
TEXT
100
AcDbPolyline
 90
        2
 70
     0
 43
0.0001332181640625
 10
13.48518332333703
 20
4.314508572923103
 10
13.42523514950891
 20
4.374456746751229
  0
LWPOLYLINE
  5
844
330
18
100
AcDbEntity
  8
TEXT
100
AcDbPolyline
 90
        2
 70
     0
 43
0.0006660908203125
 10
13.39859151669641
 20
4.314508572923103
 10
13.39859151669641
 20
4.287864940110602
  0
LWPOLYLINE
  5
845
330
18
100
AcDbEntity
  8
TEXT
100
AcDbPolyline
 90
        2
 70
     0
 43
0.0001332181640625
 10
13.38860015439172
 20
4.361134930344978
 10
13.39859151669641
 20
4.287864940110602
  0
LWPOLYLINE
  5
846
330
18
100
AcDbEntity
  8
TEXT
100
AcDbPolyline
 90
        2
 70
     0
 43
0.0001332181640625
 10
13.39859151669641
 20
4.314508572923103
 10
13.38860015439172
 20
4.374456746751229
  0
LWPOLYLINE
  5
847
330
18
100
AcDbEntity
  8
TEXT
100
AcDbPolyline
 90
        2
 70
     0
 43
0.0001332181640625
 10
13.35862606747766
 20
4.287864940110602
 10
13.36861742978235
 20
4.361134930344978
  0
LWPOLYLINE
  5
848
330
18
100
AcDbEntity
  8
TEXT
100
AcDbPolyline
 90
        2
 70
     0
 43
0.0001332181640625
 10
13.35862606747766
 20
4.314508572923103
 10
13.36861742978235
 20
4.374456746751229
  0
LWPOLYLINE
  5
849
330
18
100
AcDbEntity
  8
TEXT
100
AcDbPolyline
 90
        2
 70
     0
 43
0.0006660908203125
 10
13.35862606747766
 20
4.314508572923103
 10
13.35862606747766
 20
4.287864940110602
  0
LWPOLYLINE
  5
84A
330
18
100
AcDbEntity
  8
TEXT
100
AcDbPolyline
 90
        2
 70
     0
 43
0.0006660908203125
 10
13.48518332333703
 20
4.40110037956373
 10
13.51182695614954
 20
4.40110037956373
  0
LWPOLYLINE
  5
84B
330
18
100
AcDbEntity
  8
TEXT
100
AcDbPolyline
 90
        2
 70
     0
 43
0.0001332181640625
 10
13.48518332333703
 20
4.527657635423104
 10
13.42523514950891
 20
4.467709461594979
  0
LWPOLYLINE
  5
84C
330
18
100
AcDbEntity
  8
TEXT
100
AcDbPolyline
 90
        2
 70
     0
 43
0.0001332181640625
 10
13.48518332333703
 20
4.441065828782478
 10
13.42523514950891
 20
4.431074466477789
  0
LWPOLYLINE
  5
84D
330
18
100
AcDbEntity
  8
TEXT
100
AcDbPolyline
 90
        2
 70
     0
 43
0.0001332181640625
 10
13.43855696591516
 20
4.431074466477789
 10
13.51182695614954
 20
4.441065828782478
  0
LWPOLYLINE
  5
84E
330
18
100
AcDbEntity
  8
TEXT
100
AcDbPolyline
 90
        3
 70
     0
 43
0.0006660908203125
 10
13.48518332333703
 20
4.441065828782478
 10
13.48518332333703
 20
4.527657635423104
 10
13.39859151669641
 20
4.527657635423104
  0
LWPOLYLINE
  5
84F
330
18
100
AcDbEntity
  8
TEXT
100
AcDbPolyline
 90
        3
 70
     0
 43
0.0006660908203125
 10
13.51182695614954
 20
4.441065828782478
 10
13.51182695614954
 20
4.554301268235605
 10
13.39859151669641
 20
4.554301268235605
  0
LWPOLYLINE
  5
850
330
18
100
AcDbEntity
  8
TEXT
100
AcDbPolyline
 90
        2
 70
     0
 43
0.0001332181640625
 10
13.39859151669641
 20
4.554301268235605
 10
13.38860015439172
 20
4.481031278001226
  0
LWPOLYLINE
  5
851
330
18
100
AcDbEntity
  8
TEXT
100
AcDbPolyline
 90
        2
 70
     0
 43
0.0001332181640625
 10
13.39859151669641
 20
4.527657635423104
 10
13.38860015439172
 20
4.467709461594979
  0
LWPOLYLINE
  5
852
330
18
100
AcDbEntity
  8
TEXT
100
AcDbPolyline
 90
        2
 70
     0
 43
0.0006660908203125
 10
13.39859151669641
 20
4.527657635423104
 10
13.39859151669641
 20
4.554301268235605
  0
LWPOLYLINE
  5
853
330
18
100
AcDbEntity
  8
TEXT
100
AcDbPolyline
 90
        5
 70
     0
 43
0.0001332181640625
 10
13.38860015439172
 20
4.481031278001226
 10
13.38860015439172
 20
4.467709461594979
 10
13.42523514950891
 20
4.467709461594979
 10
13.42523514950891
 20
4.431074466477789
 10
13.43855696591516
 20
4.431074466477789
  0
LWPOLYLINE
  5
854
330
18
100
AcDbEntity
  8
TEXT
100
AcDbPolyline
 90
        2
 70
     0
 43
0.0001332181640625
 10
13.35862606747766
 20
4.527657635423104
 10
13.36861742978235
 20
4.467709461594979
  0
LWPOLYLINE
  5
855
330
18
100
AcDbEntity
  8
TEXT
100
AcDbPolyline
 90
        2
 70
     0
 43
0.0001332181640625
 10
13.36861742978235
 20
4.481031278001226
 10
13.35862606747766
 20
4.554301268235605
  0
LWPOLYLINE
  5
856
330
18
100
AcDbEntity
  8
TEXT
100
AcDbPolyline
 90
        2
 70
     0
 43
0.0006660908203125
 10
13.35862606747766
 20
4.527657635423104
 10
13.35862606747766
 20
4.554301268235605
  0
LWPOLYLINE
  5
857
330
18
100
AcDbEntity
  8
TEXT
100
AcDbPolyline
 90
        2
 70
     0
 43
0.0006660908203125
 10
13.48518332333703
 20
4.441065828782478
 10
13.51182695614954
 20
4.441065828782478
  0
LWPOLYLINE
  5
858
330
18
100
AcDbEntity
  8
TEXT
100
AcDbPolyline
 90
        2
 70
     0
 43
0.0
 10
14.23060687689817
 20
4.339379577462019
 42
0.3318488747599744
 10
14.29972616946348
 20
4.287828235247091
 42
-6.868794160588311
  0
LINE
  5
859
330
18
100
AcDbEntity
  8
TEXT
100
AcDbLine
 10
14.29858659596729
 20
4.622312745974412
 30
0.0
 11
14.23177788340092
 21
4.622312745974412
 31
0.0
  0
LINE
  5
85A
330
18
100
AcDbEntity
  8
TEXT
100
AcDbLine
 10
13.95243551578182
 20
4.554301268235602
 30
0.0
 11
13.77670376288331
 21
4.554301268235602
 31
0.0
  0
ARC
  5
85B
330
18
100
AcDbEntity
  8
TEXT
100
AcDbCircle
 10
13.84754122924186
 20
4.371024043607648
 30
0.0
 40
0.0831958083605586
100
AcDbArc
 50
270.0
 51
90.0
  0
LINE
  5
85C
330
18
100
AcDbEntity
  8
TEXT
100
AcDbLine
 10
13.78194109299756
 20
4.490024573578836
 30
0.0
 11
13.94884674702653
 21
4.490024573578836
 31
0.0
  0
LINE
  5
85D
330
18
100
AcDbEntity
  8
TEXT
100
AcDbLine
 10
13.85248160314814
 20
4.35618524158053
 30
0.0
 11
13.69461630343681
 21
4.35618524158053
 31
0.0
  0
LINE
  5
85E
330
18
100
AcDbEntity
  8
TEXT
100
AcDbLine
 10
13.69461630343681
 20
4.287828235247091
 30
0.0
 11
13.84754122924186
 21
4.287828235247091
 31
0.0
  0
ARC
  5
85F
330
18
100
AcDbEntity
  8
TEXT
100
AcDbCircle
 10
13.77670376288331
 20
4.4722138087891
 30
0.0
 40
0.0820874594465043
100
AcDbArc
 50
90.0
 51
270.0
  0
LINE
  5
860
330
18
100
AcDbEntity
  8
TEXT
100
AcDbLine
 10
13.69461630343681
 20
4.35618524158053
 30
0.0
 11
13.69461630343681
 21
4.287828235247091
 31
0.0
  0
LINE
  5
861
330
18
100
AcDbEntity
  8
TEXT
100
AcDbLine
 10
13.77670376288331
 20
4.390126349342595
 30
0.0
 11
13.85248160314814
 21
4.390126349342595
 31
0.0
  0
ARC
  5
862
330
18
100
AcDbEntity
  8
TEXT
100
AcDbCircle
 10
13.85248160314814
 20
4.373155795461564
 30
0.0
 40
0.0169705538810321
100
AcDbArc
 50
270.0
 51
90.0
  0
LINE
  5
863
330
18
100
AcDbEntity
  8
TEXT
100
AcDbLine
 10
13.84754122924186
 20
4.454219851968209
 30
0.0
 11
13.78194109299756
 21
4.454219851968209
 31
0.0
  0
ARC
  5
864
330
18
100
AcDbEntity
  8
TEXT
100
AcDbCircle
 10
13.78194109299756
 20
4.472122212773524
 30
0.0
 40
0.017902360805315
100
AcDbArc
 50
90.0
 51
270.0
  0
LINE
  5
865
330
18
100
AcDbEntity
  8
TEXT
100
AcDbLine
 10
14.14290740780168
 20
4.453429272122481
 30
0.0
 11
14.08427708676974
 21
4.554301268235602
 31
0.0
  0
LINE
  5
866
330
18
100
AcDbEntity
  8
TEXT
100
AcDbLine
 10
14.00273335450664
 20
4.287828235247091
 30
0.0
 11
14.09937360558163
 21
4.288098874345373
 31
0.0
  0
LWPOLYLINE
  5
867
330
18
100
AcDbEntity
  8
TEXT
100
AcDbPolyline
 90
        6
 70
     1
 43
0.0
 10
14.04525715808179
 20
4.490024573578836
 10
14.01494056386158
 20
4.490024573578836
 10
14.01494056386158
 20
4.366913575523942
 42
0.407328721240804
 10
14.02648421502306
 20
4.355094660847556
 10
14.08710591406779
 20
4.355094660847556
 10
14.10457125447511
 20
4.387906889891035
  0
LINE
  5
868
330
18
100
AcDbEntity
  8
TEXT
100
AcDbLine
 10
13.94884674702653
 20
4.490024573578836
 30
0.0
 11
13.94884674702653
 21
4.347620626585141
 31
0.0
  0
ARC
  5
869
330
18
100
AcDbEntity
  8
TEXT
100
AcDbCircle
 10
14.00896276500029
 20
4.347620626585141
 30
0.0
 40
0.0601160179737537
100
AcDbArc
 50
180.0000000000003
 51
264.0521544866073
  0
LINE
  5
86A
330
18
100
AcDbEntity
  8
TEXT
100
AcDbLine
 10
14.01247812062583
 20
4.58868918582974
 30
0.0
 11
13.95243551578182
 21
4.58868918582974
 31
0.0
  0
LINE
  5
86B
330
18
100
AcDbEntity
  8
TEXT
100
AcDbLine
 10
13.95243551578182
 20
4.58868918582974
 30
0.0
 11
13.95243551578182
 21
4.554301268235602
 31
0.0
  0
LINE
  5
86C
330
18
100
AcDbEntity
  8
TEXT
100
AcDbLine
 10
14.01247812062583
 20
4.554301268235602
 30
0.0
 11
14.01247812062583
 21
4.58868918582974
 31
0.0
  0
LINE
  5
86D
330
18
100
AcDbEntity
  8
TEXT
100
AcDbLine
 10
14.08427708676974
 20
4.554301268235602
 30
0.0
 11
14.01247812062583
 21
4.554301268235602
 31
0.0
  0
LINE
  5
86E
330
18
100
AcDbEntity
  8
TEXT
100
AcDbLine
 10
14.13330717080472
 20
4.307786741352104
 30
0.0
 11
14.23060687689817
 21
4.472136952287372
 31
0.0
  0
LINE
  5
86F
330
18
100
AcDbEntity
  8
TEXT
100
AcDbLine
 10
14.23060687689817
 20
4.472136952287372
 30
0.0
 11
14.23060687689817
 21
4.339379577462016
 31
0.0
  0
ARC
  5
870
330
18
100
AcDbEntity
  8
TEXT
100
AcDbCircle
 10
14.09926361089251
 20
4.327375957520787
 30
0.0
 40
0.0392772371940762
100
AcDbArc
 50
270.1604552698595
 51
330.0831797321295
  0
LINE
  5
871
330
18
100
AcDbEntity
  8
TEXT
100
AcDbLine
 10
14.20165597060754
 20
4.554301268235602
 30
0.0
 11
14.14290740780168
 21
4.453429272122481
 31
0.0
  0
LINE
  5
872
330
18
100
AcDbEntity
  8
TEXT
100
AcDbLine
 10
14.23177788340092
 20
4.622312745974412
 30
0.0
 11
14.23177788340092
 21
4.554301268235602
 31
0.0
  0
LINE
  5
873
330
18
100
AcDbEntity
  8
TEXT
100
AcDbLine
 10
14.23177788340092
 20
4.554301268235602
 30
0.0
 11
14.20165597060754
 21
4.554301268235602
 31
0.0
  0
LWPOLYLINE
  5
874
330
18
100
AcDbEntity
  8
TEXT
100
AcDbPolyline
 90
        4
 70
     0
 43
0.0
 10
14.58386400502108
 20
4.482470784412726
 10
14.58386400502108
 20
4.287828235247091
 10
14.65234228830894
 20
4.287828235247091
 10
14.65234228830894
 20
4.331319180197529
 42
-1.714843617202739
  0
LWPOLYLINE
  5
875
330
18
100
AcDbEntity
  8
TEXT
100
AcDbPolyline
 90
        2
 70
     0
 43
0.0
 10
14.61899835556529
 20
4.554301268235605
 42
-0.3277054968067132
 10
14.65478004627845
 20
4.525978722465962
 42
6.667889725900311
  0
LWPOLYLINE
  5
876
330
18
100
AcDbEntity
  8
TEXT
100
AcDbPolyline
 90
        2
 70
     0
 43
0.0
 10
14.44756478298606
 20
4.490024573578836
 42
-0.4142135623731017
 10
14.45511857215217
 20
4.482470784412726
 42
-0.9999999999999998
  0
LINE
  5
877
330
18
100
AcDbEntity
  8
TEXT
100
AcDbLine
 10
14.46491650603608
 20
4.554301268235602
 30
0.0
 11
14.33089845010495
 21
4.554301268235602
 31
0.0
  0
LINE
  5
878
330
18
100
AcDbEntity
  8
TEXT
100
AcDbLine
 10
14.39772950316291
 20
4.287828235247091
 30
0.0
 11
14.39772950316291
 21
4.490024573578836
 31
0.0
  0
LINE
  5
879
330
18
100
AcDbEntity
  8
TEXT
100
AcDbLine
 10
14.33089845010495
 20
4.554301268235602
 30
0.0
 11
14.33089845010495
 21
4.353437061503194
 31
0.0
  0
LINE
  5
87A
330
18
100
AcDbEntity
  8
TEXT
100
AcDbLine
 10
14.29858659596729
 20
4.37021607335009
 30
0.0
 11
14.29858659596729
 21
4.622312745974412
 31
0.0
  0
LINE
  5
87B
330
18
100
AcDbEntity
  8
TEXT
100
AcDbLine
 10
14.29972616946348
 20
4.287828235247091
 30
0.0
 11
14.39772950316291
 21
4.287828235247091
 31
0.0
  0
LINE
  5
87C
330
18
100
AcDbEntity
  8
TEXT
100
AcDbLine
 10
14.33089845010495
 20
4.353437061503194
 30
0.0
 11
14.31390481322034
 21
4.353437061503194
 31
0.0
  0
ARC
  5
87D
330
18
100
AcDbEntity
  8
TEXT
100
AcDbCircle
 10
14.31390481322034
 20
4.368818867746619
 30
0.0
 40
0.0153818062434269
100
AcDbArc
 50
174.7883570302258
 51
270.0
  0
LINE
  5
87E
330
18
100
AcDbEntity
  8
TEXT
100
AcDbLine
 10
14.39772950316291
 20
4.490024573578836
 30
0.0
 11
14.44756478298606
 21
4.490024573578836
 31
0.0
  0
LINE
  5
87F
330
18
100
AcDbEntity
  8
TEXT
100
AcDbLine
 10
14.45511857215218
 20
4.482470784412726
 30
0.0
 11
14.45511857215218
 21
4.287828235247091
 31
0.0
  0
LINE
  5
880
330
18
100
AcDbEntity
  8
TEXT
100
AcDbLine
 10
14.52217661893401
 20
4.287828235247091
 30
0.0
 11
14.52217661893401
 21
4.490024573578836
 31
0.0
  0
LINE
  5
881
330
18
100
AcDbEntity
  8
TEXT
100
AcDbLine
 10
14.45511857215218
 20
4.287828235247091
 30
0.0
 11
14.52217661893401
 21
4.287828235247091
 31
0.0
  0
LWPOLYLINE
  5
882
330
18
100
AcDbEntity
  8
TEXT
100
AcDbPolyline
 90
        3
 70
     0
 43
0.0
 10
14.61899835556529
 20
4.554301268235605
 10
14.50069819674924
 20
4.554301268235605
 10
14.50069819674924
 20
4.527133771474709
 42
-1.960274751411753
  0
LINE
  5
883
330
18
100
AcDbEntity
  8
TEXT
100
AcDbLine
 10
14.52217661893401
 20
4.490024573578836
 30
0.0
 11
14.57631021585497
 21
4.490024573578836
 31
0.0
  0
LWPOLYLINE
  5
884
330
18
100
AcDbEntity
  8
TEXT
100
AcDbPolyline
 90
        2
 70
     0
 43
0.0
 10
14.46491650603608
 20
4.554301268235605
 42
-0.3328679258950098
 10
14.50069819674924
 20
4.527133771474709
 42
6.772930709997214
  0
LWPOLYLINE
  5
885
330
18
100
AcDbEntity
  8
TEXT
100
AcDbPolyline
 90
        2
 70
     0
 43
0.0
 10
14.57631021585497
 20
4.490024573578836
 42
-0.4142135623731017
 10
14.58386400502108
 20
4.482470784412726
 42
-0.9999999999999998
  0
ARC
  5
886
330
18
100
AcDbEntity
  8
TEXT
100
AcDbCircle
 10
14.78758501571844
 20
4.512717701114699
 30
0.0
 40
0.0416329381542859
100
AcDbArc
 50
26.56974201007528
 51
87.20939649401342
  0
LWPOLYLINE
  5
887
330
18
100
AcDbEntity
  8
TEXT
100
AcDbPolyline
 90
        2
 70
     0
 43
0.0
 10
14.69541822117657
 20
4.287828235247091
 10
14.82943563880795
 20
4.287828235247091
 42
0.9999999999999998
  0
LWPOLYLINE
  5
888
330
18
100
AcDbEntity
  8
TEXT
100
AcDbPolyline
 90
        4
 70
     1
 43
0.0
 10
14.80931317373806
 20
4.390792213231116
 10
14.7206528550782
 20
4.390792213231116
 42
0.9999999999999998
 10
14.7206528550782
 20
4.348393672727255
 10
14.80931317373806
 20
4.348393672727255
 42
1.0
  0
LWPOLYLINE
  5
889
330
18
100
AcDbEntity
  8
TEXT
100
AcDbPolyline
 90
        2
 70
     0
 43
0.0
 10
14.65234228830894
 20
4.331319180197529
 42
0.2901071551932823
 10
14.69541822117657
 20
4.287828235247091
 42
5.328517124445801
  0
LINE
  5
88A
330
18
100
AcDbEntity
  8
TEXT
100
AcDbLine
 10
14.78961195549551
 20
4.554301268235602
 30
0.0
 11
14.65478004627845
 21
4.554301268235602
 31
0.0
  0
LINE
  5
88B
330
18
100
AcDbEntity
  8
TEXT
100
AcDbLine
 10
14.71409414267177
 20
4.452749600116704
 30
0.0
 11
14.79638213245516
 21
4.452749600116704
 31
0.0
  0
LINE
  5
88C
330
18
100
AcDbEntity
  8
TEXT
100
AcDbLine
 10
14.76058105715104
 20
4.490024573578836
 30
0.0
 11
14.65337478376374
 21
4.490024573578836
 31
0.0
  0
LINE
  5
88D
330
18
100
AcDbEntity
  8
TEXT
100
AcDbLine
 10
14.65478004627845
 20
4.554301268235602
 30
0.0
 11
14.65478004627845
 21
4.525978722465958
 31
0.0
  0
ARC
  5
88E
330
18
100
AcDbEntity
  8
TEXT
100
AcDbCircle
 10
14.71409414267177
 20
4.385064018972586
 30
0.0
 40
0.0676855811441166
100
AcDbArc
 50
90.0
 51
153.7768192527749
  0
LINE
  5
88F
330
18
100
AcDbEntity
  8
TEXT
100
AcDbLine
 10
14.65337478376374
 20
4.490024573578836
 30
0.0
 11
14.65337478376374
 21
4.41497216750463
 31
0.0
  0
LINE
  5
890
330
18
100
AcDbEntity
  8
TEXT
100
AcDbLine
 10
14.79638213245516
 20
4.452749600116704
 30
0.0
 11
14.78611737204159
 21
4.474000139689398
 31
0.0
  0
ARC
  5
891
330
18
100
AcDbEntity
  8
TEXT
100
AcDbCircle
 10
14.76058105715103
 20
4.461665198578839
 30
0.0
 40
0.028359375
100
AcDbArc
 50
25.78218179591245
 51
90.0
  0
LINE
  5
892
330
18
100
AcDbEntity
  8
TEXT
100
AcDbLine
 10
14.93086678551093
 20
4.287828235247091
 30
0.0
 11
14.93086678551092
 21
4.465118740678559
 31
0.0
  0
LWPOLYLINE
  5
893
330
18
100
AcDbEntity
  8
TEXT
100
AcDbPolyline
 90
        2
 70
     0
 43
0.0
 10
14.87251157167559
 20
4.287828235247091
 10
14.93086678551093
 20
4.287828235247091
  0
LWPOLYLINE
  5
894
330
18
100
AcDbEntity
  8
TEXT
100
AcDbPolyline
 90
        2
 70
     0
 43
0.0
 10
14.87251157167559
 20
4.331319180197529
 42
-0.2901071551932486
 10
14.82943563880795
 20
4.287828235247091
 42
-5.328517124445184
  0
LWPOLYLINE
  5
895
330
18
100
AcDbEntity
  8
TEXT
100
AcDbPolyline
 90
        2
 70
     0
 43
0.0
 10
14.87251157167559
 20
4.331319180197529
 10
14.87251157167559
 20
4.287828235247091
  0
LINE
  5
896
330
18
100
AcDbEntity
  8
TEXT
100
AcDbLine
 10
14.93246880067006
 20
4.554301268235602
 30
0.0
 11
14.86857189437055
 21
4.554301268235602
 31
0.0
  0
LINE
  5
897
330
18
100
AcDbEntity
  8
TEXT
100
AcDbLine
 10
14.86857189437055
 20
4.554301268235602
 30
0.0
 11
14.86857189437055
 21
4.449089289682174
 31
0.0
  0
LINE
  5
898
330
18
100
AcDbEntity
  8
TEXT
100
AcDbLine
 10
14.86857189437055
 20
4.449089289682174
 30
0.0
 11
14.82482112318865
 21
4.53133956567832
 31
0.0
  0
ARC
  5
899
330
18
100
AcDbEntity
  8
TEXT
100
AcDbCircle
 10
14.95577266079359
 20
4.465118698296174
 30
0.0
 40
0.0249058752826653
100
AcDbArc
 50
89.99971217465335
 51
179.9999999999985
  0
ARC
  5
89A
330
18
100
AcDbEntity
  8
TEXT
100
AcDbCircle
 10
14.96366161773316
 20
4.523055540953337
 30
0.0
 40
0.0314112657011332
100
AcDbArc
 50
95.88484768694724
 51
173.2388340632136
  0
LINE
  5
89B
330
18
100
AcDbEntity
  8
TEXT
100
AcDbLine
 10
14.93246880067006
 20
4.526753618374727
 30
0.0
 11
14.93246880067006
 21
4.554301268235602
 31
0.0
  0
TEXT
  5
89C
330
18
100
AcDbEntity
  8
TEXT
100
AcDbText
 10
15.40134432009184
 20
4.380714043892587
 30
0.0
 40
0.0522247191011236
  1
Minneapolis, MN 55432-0008
 41
1.11444212721585
 72
     5
 11
16.73027690436151
 21
4.380714043892587
 31
0.0
100
AcDbText
  0
TEXT
  5
89D
330
18
100
AcDbEntity
  8
TEXT
100
AcDbText
 10
15.40134432009184
 20
4.473972470858879
 30
0.0
 40
0.0522247191011236
  1
6536 Main St. N.E. * P.O. Box 32008
 41
0.8388932496075369
 72
     5
 11
16.73027690436151
 21
4.473972470858879
 31
0.0
100
AcDbText
  0
TEXT
  5
89E
330
18
100
AcDbEntity
  8
TEXT
100
AcDbText
 10
15.40134432009184
 20
4.567230897825171
 30
0.0
 40
0.0522247191011236
  1
Stylmark  Incorporated
 41
1.221428571428571
 72
     5
 11
16.73027690436151
 21
4.567230897825171
 31
0.0
100
AcDbText
  0
TEXT
  5
89F
330
18
100
AcDbEntity
  8
TEXT
100
AcDbText
 10
15.40134432009184
 20
4.287455616926295
 30
0.0
 40
0.0522247191011236
  1
Phone  1-800-328-2495
 41
1.272321428571429
 72
     5
 11
16.73027690436151
 21
4.287455616926295
 31
0.0
100
AcDbText
  0
LINE
  5
8A0
330
18
100
AcDbEntity
  8
TEXT
100
AcDbLine
 10
15.15378850862883
 20
4.444408025294628
 30
0.0
 11
15.21834562459454
 21
4.554301268235602
 31
0.0
  0
LINE
  5
8A1
330
18
100
AcDbEntity
  8
TEXT
100
AcDbLine
 10
15.21834562459454
 20
4.554301268235602
 30
0.0
 11
15.14335379186491
 21
4.554301268235602
 31
0.0
  0
LINE
  5
8A2
330
18
100
AcDbEntity
  8
TEXT
100
AcDbLine
 10
15.17270235961623
 20
4.287828235247091
 30
0.0
 11
15.24928073199244
 21
4.287828235247091
 31
0.0
  0
LINE
  5
8A3
330
18
100
AcDbEntity
  8
TEXT
100
AcDbLine
 10
15.24928073199244
 20
4.287828235247091
 30
0.0
 11
15.15378850862883
 21
4.444408025294628
 31
0.0
  0
LINE
  5
8A4
330
18
100
AcDbEntity
  8
TEXT
100
AcDbLine
 10
15.09679882640477
 20
4.287828235247091
 30
0.0
 11
15.09679882640477
 21
4.419407803723271
 31
0.0
  0
LINE
  5
8A5
330
18
100
AcDbEntity
  8
TEXT
100
AcDbLine
 10
15.09679882640477
 20
4.419407803723271
 30
0.0
 11
15.17270235961623
 21
4.287828235247091
 31
0.0
  0
LINE
  5
8A6
330
18
100
AcDbEntity
  8
TEXT
100
AcDbLine
 10
15.03242064208614
 20
4.490024573578836
 30
0.0
 11
15.03242064208615
 21
4.287828235247091
 31
0.0
  0
LINE
  5
8A7
330
18
100
AcDbEntity
  8
TEXT
100
AcDbLine
 10
15.03242064208615
 20
4.287828235247091
 30
0.0
 11
15.09679882640477
 21
4.287828235247091
 31
0.0
  0
LINE
  5
8A8
330
18
100
AcDbEntity
  8
TEXT
100
AcDbLine
 10
15.09625563330892
 20
4.619765474003203
 30
0.0
 11
15.02794075475965
 21
4.619765474003203
 31
0.0
  0
LINE
  5
8A9
330
18
100
AcDbEntity
  8
TEXT
100
AcDbLine
 10
15.02794075475965
 20
4.619765474003203
 30
0.0
 11
15.02794075475964
 21
4.554301268235602
 31
0.0
  0
LINE
  5
8AA
330
18
100
AcDbEntity
  8
TEXT
100
AcDbLine
 10
15.14335379186491
 20
4.554301268235602
 30
0.0
 11
15.09625563330892
 21
4.478435941824064
 31
0.0
  0
LINE
  5
8AB
330
18
100
AcDbEntity
  8
TEXT
100
AcDbLine
 10
15.09625563330892
 20
4.478435941824064
 30
0.0
 11
15.09625563330892
 21
4.619765474003203
 31
0.0
  0
ENDSEC
  0
SECTION
  2
OBJECTS
  0
DICTIONARY
  5
C
330
0
100
AcDbDictionary
  3
ACAD_GROUP
350
D
  3
ACAD_LAYOUT
350
8B0
  3
ACAD_MLINESTYLE
350
E
  3
ACAD_PLOTSETTINGS
350
8B1
  3
ACAD_PLOTSTYLENAME
350
8AE
  3
ACDBHEADERROUNDTRIPXREC
350
8BB
  3
ACDBVARIABLEDICTIONARY
350
8B8
  0
DICTIONARY
  5
8DD
330
18
100
AcDbDictionary
280
     1
  3
ACAD_LAYOUTSELFREF
360
8DE
  0
DICTIONARY
  5
8DB
330
15
100
AcDbDictionary
280
     1
  3
ACAD_LAYOUTSELFREF
360
8DC
  0
DICTIONARY
  5
D
102
{ACAD_REACTORS
330
C
102
}
330
C
100
AcDbDictionary
  3
*A1
350
40A
  3
*A2
350
773
  0
DICTIONARY
  5
8B0
102
{ACAD_REACTORS
330
C
102
}
330
C
100
AcDbDictionary
  0
DICTIONARY
  5
E
102
{ACAD_REACTORS
330
C
102
}
330
C
100
AcDbDictionary
  3
STANDARD
350
1B
  0
DICTIONARY
  5
8B1
102
{ACAD_REACTORS
330
C
102
}
330
C
100
AcDbDictionary
  0
ACDBDICTIONARYWDFLT
  5
8AE
102
{ACAD_REACTORS
330
C
102
}
330
C
100
AcDbDictionary
281
     1
  3
Normal
350
8AF
100
AcDbDictionaryWithDefault
340
8AF
  0
DICTIONARY
  5
8BB
102
{ACAD_REACTORS
330
C
102
}
330
C
100
AcDbDictionary
  3
CEPSNTYPE
350
8C5
  3
FINGERPRINTGUID
350
8C6
  3
HYPERLINKBASE
350
8BE
  3
INSUNITS
350
8C4
  3
LAYOUTDICT
350
8C0
  3
LWETCUNION
350
8C3
  3
PLOTSETDICT
350
8C1
  3
PLOTSTYLNAMDICT
350
8C2
  3
PSVPSCALE
350
8C8
  3
PUCSBASE
350
8CB
  3
PUCSORGBACK
350
8D1
  3
PUCSORGBOTTOM
350
8CD
  3
PUCSORGFRONT
350
8D0
  3
PUCSORGLEFT
350
8CE
  3
PUCSORGRIGHT
350
8CF
  3
PUCSORGTOP
350
8CC
  3
PUCSORTHOREF
350
8C9
  3
PUCSORTHOVIEW
350
8CA
  3
STYLESHEET
350
8BF
  3
TSTACKALIGN
350
8BC
  3
TSTACKSIZE
350
8BD
  3
UCSBASE
350
8D4
  3
UCSORGBACK
350
8DA
  3
UCSORGBOTTOM
350
8D6
  3
UCSORGFRONT
350
8D9
  3
UCSORGLEFT
350
8D7
  3
UCSORGRIGHT
350
8D8
  3
UCSORGTOP
350
8D5
  3
UCSORTHOREF
350
8D2
  3
UCSORTHOVIEW
350
8D3
  3
VERSIONGUID
350
8C7
  0
DICTIONARY
  5
8B8
102
{ACAD_REACTORS
330
C
102
}
330
C
100
AcDbDictionary
  3
DIMASSOC
350
8B9
  0
XRECORD
  5
8DE
102
{ACAD_REACTORS
330
8DD
102
}
330
8DD
100
AcDbXrecord
340
18
  0
XRECORD
  5
8DC
102
{ACAD_REACTORS
330
8DB
102
}
330
8DB
100
AcDbXrecord
340
15
  0
GROUP
  5
40A
102
{ACAD_REACTORS
330
D
102
}
330
D
100
AcDbGroup
300
BORDER FRAME 10-1-95
 70
     3
 71
     1
  0
GROUP
  5
773
102
{ACAD_REACTORS
330
D
102
}
330
D
100
AcDbGroup
300

 70
     1
 71
     1
  0
MLINESTYLE
  5
1B
102
{ACAD_REACTORS
330
E
102
}
330
E
100
AcDbMlineStyle
  2
STANDARD
 70
     0
  3

 62
     0
 51
90.0
 52
90.0
 71
     2
 49
0.5
 62
   256
  6
BYLAYER
 49
-0.5
 62
   256
  6
BYLAYER
  0
ACDBPLACEHOLDER
  5
8AF
102
{ACAD_REACTORS
330
8AE
102
}
330
8AE
100
AcDbPlaceHolder
280
     0
  0
XRECORD
  5
8C5
102
{ACAD_REACTORS
330
8BB
102
}
330
8BB
100
AcDbXrecord
 90
        0
  0
XRECORD
  5
8C6
102
{ACAD_REACTORS
330
8BB
102
}
330
8BB
100
AcDbXrecord
  1
{61C6CED0-8DB6-11D6-88E6-0090279574E7}
  0
XRECORD
  5
8BE
102
{ACAD_REACTORS
330
8BB
102
}
330
8BB
100
AcDbXrecord
  1

  0
XRECORD
  5
8C4
102
{ACAD_REACTORS
330
8BB
102
}
330
8BB
100
AcDbXrecord
 90
        0
  0
XRECORD
  5
8C0
102
{ACAD_REACTORS
330
8BB
102
}
330
8BB
100
AcDbXrecord
340
8B0
  0
XRECORD
  5
8C3
102
{ACAD_REACTORS
330
8BB
102
}
330
8BB
100
AcDbXrecord
 90
    14877
  0
XRECORD
  5
8C1
102
{ACAD_REACTORS
330
8BB
102
}
330
8BB
100
AcDbXrecord
340
8B1
  0
XRECORD
  5
8C2
102
{ACAD_REACTORS
330
8BB
102
}
330
8BB
100
AcDbXrecord
340
8AE
  0
XRECORD
  5
8C8
102
{ACAD_REACTORS
330
8BB
102
}
330
8BB
100
AcDbXrecord
 40
0.0
  0
XRECORD
  5
8CB
102
{ACAD_REACTORS
330
8BB
102
}
330
8BB
100
AcDbXrecord
340
0
  0
XRECORD
  5
8D1
102
{ACAD_REACTORS
330
8BB
102
}
330
8BB
100
AcDbXrecord
 10
0.0
 20
0.0
 30
0.0
  0
XRECORD
  5
8CD
102
{ACAD_REACTORS
330
8BB
102
}
330
8BB
100
AcDbXrecord
 10
0.0
 20
0.0
 30
0.0
  0
XRECORD
  5
8D0
102
{ACAD_REACTORS
330
8BB
102
}
330
8BB
100
AcDbXrecord
 10
0.0
 20
0.0
 30
0.0
  0
XRECORD
  5
8CE
102
{ACAD_REACTORS
330
8BB
102
}
330
8BB
100
AcDbXrecord
 10
0.0
 20
0.0
 30
0.0
  0
XRECORD
  5
8CF
102
{ACAD_REACTORS
330
8BB
102
}
330
8BB
100
AcDbXrecord
 10
0.0
 20
0.0
 30
0.0
  0
XRECORD
  5
8CC
102
{ACAD_REACTORS
330
8BB
102
}
330
8BB
100
AcDbXrecord
 10
0.0
 20
0.0
 30
0.0
  0
XRECORD
  5
8C9
102
{ACAD_REACTORS
330
8BB
102
}
330
8BB
100
AcDbXrecord
340
0
  0
XRECORD
  5
8CA
102
{ACAD_REACTORS
330
8BB
102
}
330
8BB
100
AcDbXrecord
 70
     0
  0
XRECORD
  5
8BF
102
{ACAD_REACTORS
330
8BB
102
}
330
8BB
100
AcDbXrecord
  1

  0
XRECORD
  5
8BC
102
{ACAD_REACTORS
330
8BB
102
}
330
8BB
100
AcDbXrecord
 90
        1
  0
XRECORD
  5
8BD
102
{ACAD_REACTORS
330
8BB
102
}
330
8BB
100
AcDbXrecord
 90
       70
  0
XRECORD
  5
8D4
102
{ACAD_REACTORS
330
8BB
102
}
330
8BB
100
AcDbXrecord
340
0
  0
XRECORD
  5
8DA
102
{ACAD_REACTORS
330
8BB
102
}
330
8BB
100
AcDbXrecord
 10
0.0
 20
0.0
 30
0.0
  0
XRECORD
  5
8D6
102
{ACAD_REACTORS
330
8BB
102
}
330
8BB
100
AcDbXrecord
 10
0.0
 20
0.0
 30
0.0
  0
XRECORD
  5
8D9
102
{ACAD_REACTORS
330
8BB
102
}
330
8BB
100
AcDbXrecord
 10
0.0
 20
0.0
 30
0.0
  0
XRECORD
  5
8D7
102
{ACAD_REACTORS
330
8BB
102
}
330
8BB
100
AcDbXrecord
 10
0.0
 20
0.0
 30
0.0
  0
XRECORD
  5
8D8
102
{ACAD_REACTORS
330
8BB
102
}
330
8BB
100
AcDbXrecord
 10
0.0
 20
0.0
 30
0.0
  0
XRECORD
  5
8D5
102
{ACAD_REACTORS
330
8BB
102
}
330
8BB
100
AcDbXrecord
 10
0.0
 20
0.0
 30
0.0
  0
XRECORD
  5
8D2
102
{ACAD_REACTORS
330
8BB
102
}
330
8BB
100
AcDbXrecord
340
0
  0
XRECORD
  5
8D3
102
{ACAD_REACTORS
330
8BB
102
}
330
8BB
100
AcDbXrecord
 70
     0
  0
XRECORD
  5
8C7
102
{ACAD_REACTORS
330
8BB
102
}
330
8BB
100
AcDbXrecord
  1
{61C6CED2-8DB6-11D6-88E6-0090279574E7}
  0
DICTIONARYVAR
  5
8B9
102
{ACAD_REACTORS
330
8B8
102
}
330
8B8
100
DictionaryVariables
280
     0
  1
1
  0
ENDSEC
  0
EOF
