  0
SECTION
  2
HEADER
  9
$ACADVER
  1
AC1014
  9
$ACADMAINTVER
 70
     9
  9
$DWGCODEPAGE
  3
ANSI_1252
  9
$INSBASE
 10
0.0
 20
0.0
 30
0.0
  9
$EXTMIN
 10
-0.7187500030742528
 20
-0.3079709600623983
 30
0.0
  9
$EXTMAX
 10
2.766469318672875
 20
1.781249999999999
 30
0.0
  9
$LIMMIN
 10
0.0
 20
0.0
  9
$LIMMAX
 10
8.5
 20
11.0
  9
$ORTHOMODE
 70
     0
  9
$REGENMODE
 70
     1
  9
$FILLMODE
 70
     1
  9
$QTEXTMODE
 70
     0
  9
$MIRRTEXT
 70
     0
  9
$DRAGMODE
 70
     2
  9
$LTSCALE
 40
1.0
  9
$OSMODE
 70
    39
  9
$ATTMODE
 70
     1
  9
$TEXTSIZE
 40
0.125
  9
$TRACEWID
 40
0.05
  9
$TEXTSTYLE
  7
ROMANS
  9
$CLAYER
  8
DIM
  9
$CELTYPE
  6
BYLAYER
  9
$CECOLOR
 62
   256
  9
$CELTSCALE
 40
1.0
  9
$DELOBJ
 70
     1
  9
$DISPSILH
 70
     1
  9
$DIMSCALE
 40
1.0
  9
$DIMASZ
 40
0.125
  9
$DIMEXO
 40
0.125
  9
$DIMDLI
 40
0.375
  9
$DIMRND
 40
0.0
  9
$DIMDLE
 40
0.0
  9
$DIMEXE
 40
0.125
  9
$DIMTP
 40
0.0
  9
$DIMTM
 40
0.0
  9
$DIMTXT
 40
0.125
  9
$DIMCEN
 40
-0.125
  9
$DIMTSZ
 40
0.0
  9
$DIMTOL
 70
     0
  9
$DIMLIM
 70
     0
  9
$DIMTIH
 70
     1
  9
$DIMTOH
 70
     1
  9
$DIMSE1
 70
     0
  9
$DIMSE2
 70
     0
  9
$DIMTAD
 70
     0
  9
$DIMZIN
 70
     4
  9
$DIMBLK
  1

  9
$DIMASO
 70
     1
  9
$DIMSHO
 70
     1
  9
$DIMPOST
  1

  9
$DIMAPOST
  1

  9
$DIMALT
 70
     0
  9
$DIMALTD
 70
     2
  9
$DIMALTF
 40
25.4
  9
$DIMLFAC
 40
0.5
  9
$DIMTOFL
 70
     0
  9
$DIMTVP
 40
0.0
  9
$DIMTIX
 70
     0
  9
$DIMSOXD
 70
     0
  9
$DIMSAH
 70
     0
  9
$DIMBLK1
  1

  9
$DIMBLK2
  1

  9
$DIMSTYLE
  2
STANDARD
  9
$DIMCLRD
 70
     0
  9
$DIMCLRE
 70
     0
  9
$DIMCLRT
 70
     0
  9
$DIMTFAC
 40
1.0
  9
$DIMGAP
 40
0.09
  9
$DIMJUST
 70
     0
  9
$DIMSD1
 70
     0
  9
$DIMSD2
 70
     0
  9
$DIMTOLJ
 70
     1
  9
$DIMTZIN
 70
     0
  9
$DIMALTZ
 70
     0
  9
$DIMALTTZ
 70
     0
  9
$DIMFIT
 70
     3
  9
$DIMUPT
 70
     0
  9
$DIMUNIT
 70
     2
  9
$DIMDEC
 70
     3
  9
$DIMTDEC
 70
     4
  9
$DIMALTU
 70
     2
  9
$DIMALTTD
 70
     2
  9
$DIMTXSTY
  7
ROMANS
  9
$DIMAUNIT
 70
     0
  9
$LUNITS
 70
     2
  9
$LUPREC
 70
     3
  9
$SKETCHINC
 40
0.1
  9
$FILLETRAD
 40
0.03125
  9
$AUNITS
 70
     0
  9
$AUPREC
 70
     0
  9
$MENU
  1
AUTOMSTR
  9
$ELEVATION
 40
0.0
  9
$PELEVATION
 40
0.0
  9
$THICKNESS
 40
0.0
  9
$LIMCHECK
 70
     0
  9
$BLIPMODE
 70
     0
  9
$CHAMFERA
 40
0.0
  9
$CHAMFERB
 40
0.0
  9
$CHAMFERC
 40
0.0
  9
$CHAMFERD
 40
0.0
  9
$SKPOLY
 70
     0
  9
$TDCREATE
 40
2448355.525247801
  9
$TDUPDATE
 40
2452458.307255208
  9
$TDINDWG
 40
0.0668250579
  9
$TDUSRTIMER
 40
0.0668250579
  9
$USRTIMER
 70
     1
  9
$ANGBASE
 50
0.0
  9
$ANGDIR
 70
     0
  9
$PDMODE
 70
     0
  9
$PDSIZE
 40
0.0
  9
$PLINEWID
 40
0.0
  9
$COORDS
 70
     2
  9
$SPLFRAME
 70
     0
  9
$SPLINETYPE
 70
     6
  9
$SPLINESEGS
 70
     8
  9
$ATTDIA
 70
     0
  9
$ATTREQ
 70
     1
  9
$HANDLING
 70
 22529
  9
$HANDSEED
  5
586
  9
$SURFTAB1
 70
     6
  9
$SURFTAB2
 70
     6
  9
$SURFTYPE
 70
     6
  9
$SURFU
 70
     6
  9
$SURFV
 70
     6
  9
$UCSNAME
  2

  9
$UCSORG
 10
0.0
 20
0.0
 30
0.0
  9
$UCSXDIR
 10
1.0
 20
0.0
 30
0.0
  9
$UCSYDIR
 10
0.0
 20
1.0
 30
0.0
  9
$PUCSNAME
  2

  9
$PUCSORG
 10
0.0
 20
0.0
 30
0.0
  9
$PUCSXDIR
 10
1.0
 20
0.0
 30
0.0
  9
$PUCSYDIR
 10
0.0
 20
1.0
 30
0.0
  9
$USERI1
 70
     0
  9
$USERI2
 70
     0
  9
$USERI3
 70
     0
  9
$USERI4
 70
     0
  9
$USERI5
 70
     0
  9
$USERR1
 40
0.0
  9
$USERR2
 40
0.0
  9
$USERR3
 40
0.0
  9
$USERR4
 40
0.0
  9
$USERR5
 40
0.0
  9
$WORLDVIEW
 70
     1
  9
$SHADEDGE
 70
     3
  9
$SHADEDIF
 70
    70
  9
$TILEMODE
 70
     1
  9
$MAXACTVP
 70
    16
  9
$PINSBASE
 10
0.0
 20
0.0
 30
0.0
  9
$PLIMCHECK
 70
     0
  9
$PEXTMIN
 10
1.000000000000000E+20
 20
1.000000000000000E+20
 30
1.000000000000000E+20
  9
$PEXTMAX
 10
-1.000000000000000E+20
 20
-1.000000000000000E+20
 30
-1.000000000000000E+20
  9
$PLIMMIN
 10
0.0
 20
0.0
  9
$PLIMMAX
 10
12.0
 20
9.0
  9
$UNITMODE
 70
     0
  9
$VISRETAIN
 70
     0
  9
$PLINEGEN
 70
     1
  9
$PSLTSCALE
 70
     0
  9
$TREEDEPTH
 70
  3020
  9
$PICKSTYLE
 70
     1
  9
$CMLSTYLE
  2
STANDARD
  9
$CMLJUST
 70
     0
  9
$CMLSCALE
 40
1.0
  9
$PROXYGRAPHICS
 70
     1
  9
$MEASUREMENT
 70
     0
  0
ENDSEC
  0
SECTION
  2
CLASSES
  0
CLASS
  1
LWPOLYLINE
  2
AcDbPolyline
  3
AutoCAD 2000
 90
        0
280
     0
281
     1
  0
CLASS
  1
ACDBDICTIONARYWDFLT
  2
AcDbDictionaryWithDefault
  3
AutoCAD 2000
 90
        0
280
     0
281
     0
  0
CLASS
  1
ACDBPLACEHOLDER
  2
AcDbPlaceHolder
  3
AutoCAD 2000
 90
        0
280
     0
281
     0
  0
CLASS
  1
LAYOUT
  2
AcDbLayout
  3
AutoCAD 2000
 90
        0
280
     0
281
     0
  0
CLASS
  1
DICTIONARYVAR
  2
AcDbDictionaryVar
  3
AutoCAD 2000
 90
        0
280
     0
281
     0
  0
CLASS
  1
LONG_TRANSACTION
  2
AcDbLongTransaction
  3
AutoCAD 2000
 90
        0
280
     0
281
     0
  0
CLASS
  1
LWPOLYLINE
  2
AcDbPolyline
  3
AutoCAD 2000
 90
        0
280
     0
281
     1
  0
CLASS
  1
HATCH
  2
AcDbHatch
  3
AutoCAD 2000
 90
        0
280
     0
281
     1
  0
CLASS
  1
XRECORD
  2
AcDbXrecord
  3
AutoCAD 2000
 90
        0
280
     0
281
     0
  0
ENDSEC
  0
SECTION
  2
TABLES
  0
TABLE
  2
VPORT
  5
8
330
0
100
AcDbSymbolTable
 70
     2
  0
VPORT
  5
561
330
8
100
AcDbSymbolTableRecord
100
AcDbViewportTableRecord
  2
*ACTIVE
 70
     0
 10
0.0
 20
0.0
 11
1.0
 21
1.0
 12
3.945561159699825
 22
0.7365740595761709
 13
0.0
 23
0.0
 14
0.015625
 24
0.015625
 15
0.0
 25
0.0
 16
0.0
 26
0.0
 36
1.0
 17
0.0
 27
0.0
 37
0.0
 40
2.16331827567219
 41
4.320930232558139
 42
50.0
 43
0.0
 44
0.0
 50
0.0
 51
0.0
 71
     0
 72
  2000
 73
     1
 74
     1
 75
     1
 76
     0
 77
     0
 78
     0
  0
ENDTAB
  0
TABLE
  2
LTYPE
  5
5
330
0
100
AcDbSymbolTable
 70
     1
  0
LTYPE
  5
12
330
5
100
AcDbSymbolTableRecord
100
AcDbLinetypeTableRecord
  2
BYBLOCK
 70
     0
  3

 72
    65
 73
     0
 40
0.0
  0
LTYPE
  5
13
330
5
100
AcDbSymbolTableRecord
100
AcDbLinetypeTableRecord
  2
BYLAYER
 70
     0
  3

 72
    65
 73
     0
 40
0.0
  0
LTYPE
  5
14
330
5
100
AcDbSymbolTableRecord
100
AcDbLinetypeTableRecord
  2
CONTINUOUS
 70
     0
  3
Solid line
 72
    65
 73
     0
 40
0.0
  0
ENDTAB
  0
TABLE
  2
LAYER
  5
2
330
0
100
AcDbSymbolTable
 70
     3
  0
LAYER
  5
F
330
2
100
AcDbSymbolTableRecord
100
AcDbLayerTableRecord
  2
0
 70
     0
 62
     7
  6
CONTINUOUS
  0
LAYER
  5
2C
330
2
100
AcDbSymbolTableRecord
100
AcDbLayerTableRecord
  2
DIM
 70
     0
 62
     4
  6
CONTINUOUS
  0
LAYER
  5
2D
330
2
100
AcDbSymbolTableRecord
100
AcDbLayerTableRecord
  2
TEXT
 70
     0
 62
     3
  6
CONTINUOUS
  0
ENDTAB
  0
TABLE
  2
STYLE
  5
3
330
0
100
AcDbSymbolTable
 70
     3
  0
STYLE
  5
10
330
3
100
AcDbSymbolTableRecord
100
AcDbTextStyleTableRecord
  2
STANDARD
 70
     0
 40
0.0
 41
1.0
 50
0.0
 71
     0
 42
0.125
  3
txt
  4

  0
STYLE
  5
44D
330
3
100
AcDbSymbolTableRecord
100
AcDbTextStyleTableRecord
  2
ITALICC
 70
     0
 40
0.0
 41
1.0
 50
0.0
 71
     0
 42
0.125
  3
italicc
  4

  0
STYLE
  5
55D
330
3
100
AcDbSymbolTableRecord
100
AcDbTextStyleTableRecord
  2
ROMANS
 70
     0
 40
0.0
 41
1.0
 50
0.0
 71
     0
 42
0.125
  3
romans.shx
  4

  0
ENDTAB
  0
TABLE
  2
VIEW
  5
6
330
0
100
AcDbSymbolTable
 70
     0
  0
ENDTAB
  0
TABLE
  2
UCS
  5
7
330
0
100
AcDbSymbolTable
 70
     0
  0
ENDTAB
  0
TABLE
  2
APPID
  5
9
330
0
100
AcDbSymbolTable
 70
     1
  0
APPID
  5
11
330
9
100
AcDbSymbolTableRecord
100
AcDbRegAppTableRecord
  2
ACAD
 70
     0
  0
ENDTAB
  0
TABLE
  2
DIMSTYLE
  5
A
330
0
100
AcDbSymbolTable
 70
     1
  0
DIMSTYLE
105
440
330
A
100
AcDbSymbolTableRecord
100
AcDbDimStyleTableRecord
  2
STANDARD
 70
     0
  3

  4

  5

  6

  7

 40
1.0
 41
0.18
 42
0.0625
 43
0.38
 44
0.18
 45
0.0
 46
0.0
 47
0.0
 48
0.0
140
0.18
141
0.09
142
0.0
143
25.4
144
1.0
145
0.0
146
1.0
147
0.09
 71
     0
 72
     0
 73
     1
 74
     1
 75
     0
 76
     0
 77
     0
 78
     0
170
     0
171
     2
172
     0
173
     0
174
     0
175
     0
176
     0
177
     0
178
     0
270
     2
271
     4
272
     4
273
     2
274
     2
340
10
275
     0
280
     0
281
     0
282
     0
283
     1
284
     0
285
     0
286
     0
287
     3
288
     0
  0
ENDTAB
  0
TABLE
  2
BLOCK_RECORD
  5
1
330
0
100
AcDbSymbolTable
 70
     0
  0
BLOCK_RECORD
  5
18
102
{ACAD_XDICTIONARY
360
584
102
}
330
1
100
AcDbSymbolTableRecord
100
AcDbBlockTableRecord
  2
*MODEL_SPACE
  0
BLOCK_RECORD
  5
15
102
{ACAD_XDICTIONARY
360
582
102
}
330
1
100
AcDbSymbolTableRecord
100
AcDbBlockTableRecord
  2
*PAPER_SPACE
  0
ENDTAB
  0
ENDSEC
  0
SECTION
  2
BLOCKS
  0
BLOCK
  5
36
330
18
100
AcDbEntity
  8
0
100
AcDbBlockBegin
  2
*MODEL_SPACE
 70
     0
 10
0.0
 20
0.0
 30
0.0
  3
*MODEL_SPACE
  1

  0
ENDBLK
  5
37
330
18
100
AcDbEntity
  8
0
100
AcDbBlockEnd
  0
BLOCK
  5
34
330
15
100
AcDbEntity
 67
     1
  8
0
100
AcDbBlockBegin
  2
*PAPER_SPACE
 70
     0
 10
0.0
 20
0.0
 30
0.0
  3
*PAPER_SPACE
  1

  0
ENDBLK
  5
35
330
15
100
AcDbEntity
 67
     1
  8
0
100
AcDbBlockEnd
  0
ENDSEC
  0
SECTION
  2
ENTITIES
  0
LWPOLYLINE
  5
1D7
330
18
100
AcDbEntity
  8
0
100
AcDbPolyline
 90
       37
 70
     1
 43
0.0
 10
0.8906250000000003
 20
1.21875
 10
0.890625
 20
0.7187500000000002
 10
1.099375
 20
0.7187500000000002
 10
1.109375
 20
0.7087500000000003
 10
1.119374999999999
 20
0.7187500000000002
 10
1.328125
 20
0.7187500000000002
 10
1.328124999999999
 20
1.21875
 10
1.646875
 20
1.21875
 10
1.646875
 20
1.53125
 10
1.59236229810778
 20
1.53125
 10
1.525374999999999
 20
1.781249999999999
 10
1.56038164283184
 20
1.781249999999999
 10
1.629375
 20
1.66175
 10
1.606875
 20
1.661749999999999
 10
1.62831093539449
 20
1.581749999999999
 10
1.678125
 20
1.581749999999999
 42
-0.4142135623730951
 10
1.709375
 20
1.550499999999999
 10
1.709375
 20
1.21875
 10
1.928125
 20
1.21875
 42
-1.0
 10
1.928125
 20
1.15625
 10
1.390624999999999
 20
1.15625
 10
1.390625
 20
0.6562500000000002
 10
0.828125
 20
0.65625
 10
0.8281250000000003
 20
1.15625
 10
0.2906249999999999
 20
1.15625
 42
-1.0
 10
0.2906249999999999
 20
1.21875
 10
0.509375
 20
1.21875
 10
0.509375
 20
1.550499999999999
 42
-0.4142135623730951
 10
0.540625
 20
1.581749999999999
 10
0.5904390646055098
 20
1.581749999999999
 10
0.6118749999999995
 20
1.661749999999999
 10
0.589375
 20
1.66175
 10
0.6583683571681598
 20
1.781249999999999
 10
0.6933750000000001
 20
1.781249999999999
 10
0.6263877018922197
 20
1.53125
 10
0.571875
 20
1.53125
 10
0.571875
 20
1.21875
  0
TEXT
  5
4D3
330
18
100
AcDbEntity
  8
TEXT
100
AcDbText
 10
0.268279195200509
 20
0.1500476440201832
 30
0.0
 40
0.125
  1
PART #110335
  7
ITALICC
 72
     1
 11
1.02423157615289
 21
0.1500476440201832
 31
0.0
100
AcDbText
  0
LINE
  5
4D4
330
18
100
AcDbEntity
  8
TEXT
100
AcDbLine
 10
0.9919650751049529
 20
-0.0943060419996504
 30
0.0
 11
1.06861305639751
 21
-0.0943060419996504
 31
0.0
  0
LINE
  5
4D5
330
18
100
AcDbEntity
  8
TEXT
100
AcDbLine
 10
1.06413316907101
 20
-0.030029347342885
 30
0.0
 11
0.996633451421494
 21
-0.030029347342885
 31
0.0
  0
LWPOLYLINE
  5
4D6
330
18
100
AcDbEntity
  8
TEXT
100
AcDbPolyline
 90
        5
 70
     0
 43
0.0001332181640625
 10
-0.6451469674297221
 20
-0.1532561491006978
 10
-0.6318251510234734
 20
-0.1532561491006978
 10
-0.6318251510234734
 20
-0.116621153983508
 10
-0.5951901559062836
 20
-0.116621153983508
 10
-0.5951901559062836
 20
-0.1032993375772611
  0
LWPOLYLINE
  5
4D7
330
18
100
AcDbEntity
  8
TEXT
100
AcDbPolyline
 90
        3
 70
     0
 43
0.0006660908203125
 10
-0.6051815182109741
 20
-0.0566729801553825
 10
-0.691773324851599
 20
-0.0566729801553825
 10
-0.691773324851599
 20
-0.1432647867960091
  0
LWPOLYLINE
  5
4D8
330
18
100
AcDbEntity
  8
TEXT
100
AcDbPolyline
 90
        3
 70
     0
 43
0.0006660908203125
 10
-0.6051815182109741
 20
-0.0300293473428814
 10
-0.7184169576640965
 20
-0.0300293473428814
 10
-0.7184169576640965
 20
-0.1432647867960091
  0
LWPOLYLINE
  5
4D9
330
18
100
AcDbEntity
  8
TEXT
100
AcDbPolyline
 90
        5
 70
     0
 43
0.0001332181640625
 10
-0.5951901559062836
 20
-0.2231956852335086
 10
-0.5951901559062836
 20
-0.2098738688272581
 10
-0.6318251510234716
 20
-0.2098738688272581
 10
-0.6318251510234716
 20
-0.1732388737100718
 10
-0.6451469674297221
 20
-0.1732388737100718
  0
LWPOLYLINE
  5
4DA
330
18
100
AcDbEntity
  8
TEXT
100
AcDbPolyline
 90
        3
 70
     0
 43
0.0006660908203125
 10
-0.691773324851599
 20
-0.1832302360147571
 10
-0.691773324851599
 20
-0.2698220426553837
 10
-0.6051815182109741
 20
-0.2698220426553837
  0
LWPOLYLINE
  5
4DB
330
18
100
AcDbEntity
  8
TEXT
100
AcDbPolyline
 90
        3
 70
     0
 43
0.0006660908203125
 10
-0.7184169576640965
 20
-0.1832302360147571
 10
-0.7184169576640965
 20
-0.2964656754678847
 10
-0.6051815182109741
 20
-0.2964656754678847
  0
LWPOLYLINE
  5
4DC
330
18
100
AcDbEntity
  8
TEXT
100
AcDbPolyline
 90
        2
 70
     0
 43
0.0001332181640625
 10
-0.691773324851599
 20
-0.1832302360147571
 10
-0.6318251510234716
 20
-0.1732388737100718
  0
LWPOLYLINE
  5
4DD
330
18
100
AcDbEntity
  8
TEXT
100
AcDbPolyline
 90
        2
 70
     0
 43
0.0001332181640625
 10
-0.6451469674297221
 20
-0.1732388737100718
 10
-0.7184169576640965
 20
-0.1832302360147571
  0
LWPOLYLINE
  5
4DE
330
18
100
AcDbEntity
  8
TEXT
100
AcDbPolyline
 90
        2
 70
     0
 43
0.0006660908203125
 10
-0.691773324851599
 20
-0.1832302360147571
 10
-0.7184169576640965
 20
-0.1832302360147571
  0
LWPOLYLINE
  5
4DF
330
18
100
AcDbEntity
  8
TEXT
100
AcDbPolyline
 90
        2
 70
     0
 43
0.0001332181640625
 10
-0.691773324851599
 20
-0.2698220426553837
 10
-0.6318251510234716
 20
-0.2098738688272581
  0
LWPOLYLINE
  5
4E0
330
18
100
AcDbEntity
  8
TEXT
100
AcDbPolyline
 90
        2
 70
     0
 43
0.0006660908203125
 10
-0.691773324851599
 20
-0.1432647867960091
 10
-0.7184169576640965
 20
-0.1432647867960091
  0
LWPOLYLINE
  5
4E1
330
18
100
AcDbEntity
  8
TEXT
100
AcDbPolyline
 90
        2
 70
     0
 43
0.0001332181640625
 10
-0.7184169576640965
 20
-0.1432647867960091
 10
-0.6451469674297221
 20
-0.1532561491006978
  0
LWPOLYLINE
  5
4E2
330
18
100
AcDbEntity
  8
TEXT
100
AcDbPolyline
 90
        2
 70
     0
 43
0.0001332181640625
 10
-0.691773324851599
 20
-0.1432647867960091
 10
-0.6318251510234734
 20
-0.1532561491006978
  0
LWPOLYLINE
  5
4E3
330
18
100
AcDbEntity
  8
TEXT
100
AcDbPolyline
 90
        2
 70
     0
 43
0.0001332181640625
 10
-0.691773324851599
 20
-0.0566729801553825
 10
-0.6318251510234734
 20
-0.116621153983508
  0
LWPOLYLINE
  5
4E4
330
18
100
AcDbEntity
  8
TEXT
100
AcDbPolyline
 90
        5
 70
     0
 43
0.0001332181640625
 10
-0.5252506197734728
 20
-0.1732388737100718
 10
-0.5385724361797215
 20
-0.1732388737100718
 10
-0.5385724361797215
 20
-0.2098738688272581
 10
-0.5752074312969114
 20
-0.2098738688272581
 10
-0.5752074312969114
 20
-0.2231956852335086
  0
LWPOLYLINE
  5
4E5
330
18
100
AcDbEntity
  8
TEXT
100
AcDbPolyline
 90
        2
 70
     0
 43
0.0001332181640625
 10
-0.4786242623515978
 20
-0.1832302360147571
 10
-0.5385724361797215
 20
-0.1732388737100718
  0
LWPOLYLINE
  5
4E6
330
18
100
AcDbEntity
  8
TEXT
100
AcDbPolyline
 90
        2
 70
     0
 43
0.0001332181640625
 10
-0.4519806295390967
 20
-0.1832302360147571
 10
-0.5252506197734728
 20
-0.1732388737100718
  0
LWPOLYLINE
  5
4E7
330
18
100
AcDbEntity
  8
TEXT
100
AcDbPolyline
 90
        3
 70
     0
 43
0.0006660908203125
 10
-0.5652160689922226
 20
-0.2964656754678847
 10
-0.4519806295390967
 20
-0.2964656754678847
 10
-0.4519806295390967
 20
-0.1832302360147571
  0
LWPOLYLINE
  5
4E8
330
18
100
AcDbEntity
  8
TEXT
100
AcDbPolyline
 90
        3
 70
     0
 43
0.0006660908203125
 10
-0.5652160689922226
 20
-0.2698220426553837
 10
-0.4786242623515978
 20
-0.2698220426553837
 10
-0.4786242623515978
 20
-0.1832302360147571
  0
LWPOLYLINE
  5
4E9
330
18
100
AcDbEntity
  8
TEXT
100
AcDbPolyline
 90
        2
 70
     0
 43
0.0001332181640625
 10
-0.4786242623515978
 20
-0.2698220426553837
 10
-0.5385724361797215
 20
-0.2098738688272581
  0
LWPOLYLINE
  5
4EA
330
18
100
AcDbEntity
  8
TEXT
100
AcDbPolyline
 90
        2
 70
     0
 43
0.0006660908203125
 10
-0.5652160689922226
 20
-0.2698220426553837
 10
-0.5652160689922226
 20
-0.2964656754678847
  0
LWPOLYLINE
  5
4EB
330
18
100
AcDbEntity
  8
TEXT
100
AcDbPolyline
 90
        2
 70
     0
 43
0.0001332181640625
 10
-0.5752074312969114
 20
-0.2231956852335086
 10
-0.5652160689922226
 20
-0.2964656754678847
  0
LWPOLYLINE
  5
4EC
330
18
100
AcDbEntity
  8
TEXT
100
AcDbPolyline
 90
        2
 70
     0
 43
0.0001332181640625
 10
-0.5652160689922226
 20
-0.2698220426553837
 10
-0.5752074312969114
 20
-0.2098738688272581
  0
LWPOLYLINE
  5
4ED
330
18
100
AcDbEntity
  8
TEXT
100
AcDbPolyline
 90
        2
 70
     0
 43
0.0001332181640625
 10
-0.6051815182109741
 20
-0.2964656754678847
 10
-0.5951901559062836
 20
-0.2231956852335086
  0
LWPOLYLINE
  5
4EE
330
18
100
AcDbEntity
  8
TEXT
100
AcDbPolyline
 90
        2
 70
     0
 43
0.0001332181640625
 10
-0.6051815182109741
 20
-0.2698220426553837
 10
-0.5951901559062836
 20
-0.2098738688272581
  0
LWPOLYLINE
  5
4EF
330
18
100
AcDbEntity
  8
TEXT
100
AcDbPolyline
 90
        2
 70
     0
 43
0.0006660908203125
 10
-0.6051815182109741
 20
-0.2698220426553837
 10
-0.6051815182109741
 20
-0.2964656754678847
  0
LWPOLYLINE
  5
4F0
330
18
100
AcDbEntity
  8
TEXT
100
AcDbPolyline
 90
        2
 70
     0
 43
0.0006660908203125
 10
-0.4786242623515978
 20
-0.1832302360147571
 10
-0.4519806295390967
 20
-0.1832302360147571
  0
LWPOLYLINE
  5
4F1
330
18
100
AcDbEntity
  8
TEXT
100
AcDbPolyline
 90
        2
 70
     0
 43
0.0001332181640625
 10
-0.4786242623515978
 20
-0.0566729801553825
 10
-0.5385724361797215
 20
-0.116621153983508
  0
LWPOLYLINE
  5
4F2
330
18
100
AcDbEntity
  8
TEXT
100
AcDbPolyline
 90
        2
 70
     0
 43
0.0001332181640625
 10
-0.4786242623515978
 20
-0.1432647867960091
 10
-0.5385724361797215
 20
-0.1532561491006978
  0
LWPOLYLINE
  5
4F3
330
18
100
AcDbEntity
  8
TEXT
100
AcDbPolyline
 90
        2
 70
     0
 43
0.0001332181640625
 10
-0.5252506197734728
 20
-0.1532561491006978
 10
-0.4519806295390967
 20
-0.1432647867960091
  0
LWPOLYLINE
  5
4F4
330
18
100
AcDbEntity
  8
TEXT
100
AcDbPolyline
 90
        3
 70
     0
 43
0.0006660908203125
 10
-0.4786242623515978
 20
-0.1432647867960091
 10
-0.4786242623515978
 20
-0.0566729801553825
 10
-0.5652160689922226
 20
-0.0566729801553825
  0
LWPOLYLINE
  5
4F5
330
18
100
AcDbEntity
  8
TEXT
100
AcDbPolyline
 90
        3
 70
     0
 43
0.0006660908203125
 10
-0.4519806295390967
 20
-0.1432647867960091
 10
-0.4519806295390967
 20
-0.0300293473428814
 10
-0.5652160689922226
 20
-0.0300293473428814
  0
LWPOLYLINE
  5
4F6
330
18
100
AcDbEntity
  8
TEXT
100
AcDbPolyline
 90
        2
 70
     0
 43
0.0001332181640625
 10
-0.5652160689922226
 20
-0.0300293473428814
 10
-0.5752074312969114
 20
-0.1032993375772611
  0
LWPOLYLINE
  5
4F7
330
18
100
AcDbEntity
  8
TEXT
100
AcDbPolyline
 90
        2
 70
     0
 43
0.0001332181640625
 10
-0.5652160689922226
 20
-0.0566729801553825
 10
-0.5752074312969114
 20
-0.116621153983508
  0
LWPOLYLINE
  5
4F8
330
18
100
AcDbEntity
  8
TEXT
100
AcDbPolyline
 90
        2
 70
     0
 43
0.0006660908203125
 10
-0.5652160689922226
 20
-0.0566729801553825
 10
-0.5652160689922226
 20
-0.0300293473428814
  0
LWPOLYLINE
  5
4F9
330
18
100
AcDbEntity
  8
TEXT
100
AcDbPolyline
 90
        5
 70
     0
 43
0.0001332181640625
 10
-0.5752074312969114
 20
-0.1032993375772611
 10
-0.5752074312969114
 20
-0.116621153983508
 10
-0.5385724361797215
 20
-0.116621153983508
 10
-0.5385724361797215
 20
-0.1532561491006978
 10
-0.5252506197734728
 20
-0.1532561491006978
  0
LWPOLYLINE
  5
4FA
330
18
100
AcDbEntity
  8
TEXT
100
AcDbPolyline
 90
        2
 70
     0
 43
0.0001332181640625
 10
-0.6051815182109741
 20
-0.0566729801553825
 10
-0.5951901559062836
 20
-0.116621153983508
  0
LWPOLYLINE
  5
4FB
330
18
100
AcDbEntity
  8
TEXT
100
AcDbPolyline
 90
        2
 70
     0
 43
0.0001332181640625
 10
-0.5951901559062836
 20
-0.1032993375772611
 10
-0.6051815182109741
 20
-0.0300293473428814
  0
LWPOLYLINE
  5
4FC
330
18
100
AcDbEntity
  8
TEXT
100
AcDbPolyline
 90
        2
 70
     0
 43
0.0006660908203125
 10
-0.6051815182109741
 20
-0.0566729801553825
 10
-0.6051815182109741
 20
-0.0300293473428814
  0
LWPOLYLINE
  5
4FD
330
18
100
AcDbEntity
  8
TEXT
100
AcDbPolyline
 90
        2
 70
     0
 43
0.0006660908203125
 10
-0.4786242623515978
 20
-0.1432647867960091
 10
-0.4519806295390967
 20
-0.1432647867960091
  0
LWPOLYLINE
  5
4FE
330
18
100
AcDbEntity
  8
TEXT
100
AcDbPolyline
 90
        2
 70
     0
 43
0.0
 10
0.2667992912095336
 20
-0.2449510381164677
 42
0.3318488747599744
 10
0.3359185837748466
 20
-0.296502380331396
 42
-6.868794160588311
  0
LINE
  5
4FF
330
18
100
AcDbEntity
  8
TEXT
100
AcDbLine
 10
0.334779010278651
 20
0.0379821303959256
 30
0.0
 11
0.267970297712286
 21
0.0379821303959256
 31
0.0
  0
LINE
  5
500
330
18
100
AcDbEntity
  8
TEXT
100
AcDbLine
 10
-0.0113720699068081
 20
-0.030029347342885
 30
0.0
 11
-0.1871038228053194
 21
-0.030029347342885
 31
0.0
  0
ARC
  5
501
330
18
100
AcDbEntity
  8
TEXT
100
AcDbCircle
 10
-0.1162663564467699
 20
-0.2133065719708389
 30
0.0
 40
0.0831958083605586
100
AcDbArc
 50
270.0
 51
90.0
  0
LINE
  5
502
330
18
100
AcDbEntity
  8
TEXT
100
AcDbLine
 10
-0.1818664926910713
 20
-0.0943060419996504
 30
0.0
 11
-0.014960838662101
 21
-0.0943060419996504
 31
0.0
  0
LINE
  5
503
330
18
100
AcDbEntity
  8
TEXT
100
AcDbLine
 10
-0.1113259825404906
 20
-0.2281453739979566
 30
0.0
 11
-0.2691912822518248
 21
-0.2281453739979566
 31
0.0
  0
LINE
  5
504
330
18
100
AcDbEntity
  8
TEXT
100
AcDbLine
 10
-0.269191282251823
 20
-0.296502380331396
 30
0.0
 11
-0.1162663564467703
 21
-0.296502380331396
 31
0.0
  0
ARC
  5
505
330
18
100
AcDbEntity
  8
TEXT
100
AcDbCircle
 10
-0.187103822805319
 20
-0.1121168067893867
 30
0.0
 40
0.0820874594465043
100
AcDbArc
 50
90.0
 51
270.0
  0
LINE
  5
506
330
18
100
AcDbEntity
  8
TEXT
100
AcDbLine
 10
-0.2691912822518248
 20
-0.2281453739979566
 30
0.0
 11
-0.269191282251823
 21
-0.296502380331396
 31
0.0
  0
LINE
  5
507
330
18
100
AcDbEntity
  8
TEXT
100
AcDbLine
 10
-0.1871038228053194
 20
-0.194204266235892
 30
0.0
 11
-0.1113259825404906
 21
-0.194204266235892
 31
0.0
  0
ARC
  5
508
330
18
100
AcDbEntity
  8
TEXT
100
AcDbCircle
 10
-0.1113259825404902
 20
-0.2111748201169226
 30
0.0
 40
0.0169705538810321
100
AcDbArc
 50
270.0
 51
90.0
  0
LINE
  5
509
330
18
100
AcDbEntity
  8
TEXT
100
AcDbLine
 10
-0.1162663564467703
 20
-0.1301107636102783
 30
0.0
 11
-0.1818664926910713
 21
-0.1301107636102783
 31
0.0
  0
ARC
  5
50A
330
18
100
AcDbEntity
  8
TEXT
100
AcDbCircle
 10
-0.1818664926910709
 20
-0.1122084028049626
 30
0.0
 40
0.017902360805315
100
AcDbArc
 50
90.0
 51
270.0
  0
LINE
  5
50B
330
18
100
AcDbEntity
  8
TEXT
100
AcDbLine
 10
0.1790998221130442
 20
-0.1309013434560056
 30
0.0
 11
0.1204695010811063
 21
-0.030029347342885
 31
0.0
  0
LINE
  5
50C
330
18
100
AcDbEntity
  8
TEXT
100
AcDbLine
 10
0.0389257688180047
 20
-0.296502380331396
 30
0.0
 11
0.1355660198929991
 21
-0.2962317412331137
 31
0.0
  0
LWPOLYLINE
  5
50D
330
18
100
AcDbEntity
  8
TEXT
100
AcDbPolyline
 90
        6
 70
     1
 43
0.0
 10
0.0814495723931548
 20
-0.0943060419996504
 10
0.0511329781729466
 20
-0.0943060419996504
 10
0.0511329781729466
 20
-0.2174170400545448
 42
0.407328721240804
 10
0.062676629334423
 20
-0.2292359547309308
 10
0.1232983283791538
 20
-0.2292359547309308
 10
0.1407636687864717
 20
-0.1964237256874517
  0
LINE
  5
50E
330
18
100
AcDbEntity
  8
TEXT
100
AcDbLine
 10
-0.014960838662101
 20
-0.0943060419996504
 30
0.0
 11
-0.014960838662101
 21
-0.2367099889933462
 31
0.0
  0
ARC
  5
50F
330
18
100
AcDbEntity
  8
TEXT
100
AcDbCircle
 10
0.0451551793116516
 20
-0.2367099889933462
 30
0.0
 40
0.0601160179737537
100
AcDbArc
 50
180.0000000000003
 51
264.0521544866073
  0
LINE
  5
510
330
18
100
AcDbEntity
  8
TEXT
100
AcDbLine
 10
0.048670534937199
 20
0.0043585702512532
 30
0.0
 11
-0.0113720699068081
 21
0.0043585702512532
 31
0.0
  0
LINE
  5
511
330
18
100
AcDbEntity
  8
TEXT
100
AcDbLine
 10
-0.0113720699068081
 20
0.0043585702512532
 30
0.0
 11
-0.0113720699068081
 21
-0.030029347342885
 31
0.0
  0
LINE
  5
512
330
18
100
AcDbEntity
  8
TEXT
100
AcDbLine
 10
0.048670534937199
 20
-0.030029347342885
 30
0.0
 11
0.048670534937199
 21
0.0043585702512532
 31
0.0
  0
LINE
  5
513
330
18
100
AcDbEntity
  8
TEXT
100
AcDbLine
 10
0.1204695010811063
 20
-0.030029347342885
 30
0.0
 11
0.048670534937199
 21
-0.030029347342885
 31
0.0
  0
LINE
  5
514
330
18
100
AcDbEntity
  8
TEXT
100
AcDbLine
 10
0.1694995851160899
 20
-0.276543874226383
 30
0.0
 11
0.2667992912095345
 21
-0.1121936632911149
 31
0.0
  0
LINE
  5
515
330
18
100
AcDbEntity
  8
TEXT
100
AcDbLine
 10
0.2667992912095345
 20
-0.1121936632911149
 30
0.0
 11
0.2667992912095345
 21
-0.2449510381164712
 31
0.0
  0
ARC
  5
516
330
18
100
AcDbEntity
  8
TEXT
100
AcDbCircle
 10
0.1354560252038763
 20
-0.2569546580577002
 30
0.0
 40
0.0392772371940762
100
AcDbArc
 50
270.1604552698595
 51
330.0831797321295
  0
LINE
  5
517
330
18
100
AcDbEntity
  8
TEXT
100
AcDbLine
 10
0.2378483849189097
 20
-0.030029347342885
 30
0.0
 11
0.1790998221130442
 21
-0.1309013434560056
 31
0.0
  0
LINE
  5
518
330
18
100
AcDbEntity
  8
TEXT
100
AcDbLine
 10
0.267970297712286
 20
0.0379821303959256
 30
0.0
 11
0.267970297712286
 21
-0.030029347342885
 31
0.0
  0
LINE
  5
519
330
18
100
AcDbEntity
  8
TEXT
100
AcDbLine
 10
0.267970297712286
 20
-0.030029347342885
 30
0.0
 11
0.2378483849189097
 21
-0.030029347342885
 31
0.0
  0
LWPOLYLINE
  5
51A
330
18
100
AcDbEntity
  8
TEXT
100
AcDbPolyline
 90
        4
 70
     0
 43
0.0
 10
0.6200564193324443
 20
-0.1018598311657604
 10
0.6200564193324443
 20
-0.296502380331396
 10
0.6885347026203022
 20
-0.296502380331396
 10
0.6885347026203022
 20
-0.2530114353809578
 42
-1.714843617202739
  0
LWPOLYLINE
  5
51B
330
18
100
AcDbEntity
  8
TEXT
100
AcDbPolyline
 90
        2
 70
     0
 43
0.0
 10
0.6551907698766542
 20
-0.0300293473428814
 42
-0.3277054968067132
 10
0.6909724605898191
 20
-0.0583518931125253
 42
6.667889725900311
  0
LWPOLYLINE
  5
51C
330
18
100
AcDbEntity
  8
TEXT
100
AcDbPolyline
 90
        2
 70
     0
 43
0.0
 10
0.4837571972974271
 20
-0.0943060419996504
 42
-0.4142135623731017
 10
0.4913109864635406
 20
-0.1018598311657604
 42
-0.9999999999999998
  0
LINE
  5
51D
330
18
100
AcDbEntity
  8
TEXT
100
AcDbLine
 10
0.5011089203474475
 20
-0.030029347342885
 30
0.0
 11
0.3670908644163111
 21
-0.030029347342885
 31
0.0
  0
LINE
  5
51E
330
18
100
AcDbEntity
  8
TEXT
100
AcDbLine
 10
0.4339219174742804
 20
-0.296502380331396
 30
0.0
 11
0.4339219174742804
 21
-0.0943060419996504
 31
0.0
  0
LINE
  5
51F
330
18
100
AcDbEntity
  8
TEXT
100
AcDbLine
 10
0.3670908644163111
 20
-0.030029347342885
 30
0.0
 11
0.3670908644163111
 21
-0.2308935540752932
 31
0.0
  0
LINE
  5
520
330
18
100
AcDbEntity
  8
TEXT
100
AcDbLine
 10
0.334779010278651
 20
-0.2141145422283968
 30
0.0
 11
0.334779010278651
 21
0.0379821303959256
 31
0.0
  0
LINE
  5
521
330
18
100
AcDbEntity
  8
TEXT
100
AcDbLine
 10
0.3359185837748457
 20
-0.296502380331396
 30
0.0
 11
0.4339219174742804
 21
-0.296502380331396
 31
0.0
  0
LINE
  5
522
330
18
100
AcDbEntity
  8
TEXT
100
AcDbLine
 10
0.3670908644163111
 20
-0.2308935540752932
 30
0.0
 11
0.3500972275317098
 21
-0.2308935540752932
 31
0.0
  0
ARC
  5
523
330
18
100
AcDbEntity
  8
TEXT
100
AcDbCircle
 10
0.3500972275317089
 20
-0.2155117478318678
 30
0.0
 40
0.0153818062434269
100
AcDbArc
 50
174.7883570302258
 51
270.0
  0
LINE
  5
524
330
18
100
AcDbEntity
  8
TEXT
100
AcDbLine
 10
0.4339219174742804
 20
-0.0943060419996504
 30
0.0
 11
0.483757197297428
 21
-0.0943060419996504
 31
0.0
  0
LINE
  5
525
330
18
100
AcDbEntity
  8
TEXT
100
AcDbLine
 10
0.4913109864635415
 20
-0.1018598311657604
 30
0.0
 11
0.4913109864635415
 21
-0.296502380331396
 31
0.0
  0
LINE
  5
526
330
18
100
AcDbEntity
  8
TEXT
100
AcDbLine
 10
0.5583690332453815
 20
-0.296502380331396
 30
0.0
 11
0.5583690332453815
 21
-0.0943060419996504
 31
0.0
  0
LINE
  5
527
330
18
100
AcDbEntity
  8
TEXT
100
AcDbLine
 10
0.4913109864635415
 20
-0.296502380331396
 30
0.0
 11
0.5583690332453815
 21
-0.296502380331396
 31
0.0
  0
LWPOLYLINE
  5
528
330
18
100
AcDbEntity
  8
TEXT
100
AcDbPolyline
 90
        3
 70
     0
 43
0.0
 10
0.6551907698766542
 20
-0.0300293473428814
 10
0.5368906110606098
 20
-0.0300293473428814
 10
0.5368906110606098
 20
-0.0571968441037774
 42
-1.960274751411753
  0
LINE
  5
529
330
18
100
AcDbEntity
  8
TEXT
100
AcDbLine
 10
0.5583690332453815
 20
-0.0943060419996504
 30
0.0
 11
0.6125026301663317
 21
-0.0943060419996504
 31
0.0
  0
LWPOLYLINE
  5
52A
330
18
100
AcDbEntity
  8
TEXT
100
AcDbPolyline
 90
        2
 70
     0
 43
0.0
 10
0.5011089203474484
 20
-0.0300293473428814
 42
-0.3328679258950098
 10
0.5368906110606098
 20
-0.0571968441037774
 42
6.772930709997214
  0
LWPOLYLINE
  5
52B
330
18
100
AcDbEntity
  8
TEXT
100
AcDbPolyline
 90
        2
 70
     0
 43
0.0
 10
0.6125026301663308
 20
-0.0943060419996504
 42
-0.4142135623731017
 10
0.6200564193324443
 20
-0.1018598311657604
 42
-0.9999999999999998
  0
ARC
  5
52C
330
18
100
AcDbEntity
  8
TEXT
100
AcDbCircle
 10
0.8237774300298106
 20
-0.0716129144637874
 30
0.0
 40
0.0416329381542859
100
AcDbArc
 50
26.56974201007528
 51
87.20939649401342
  0
LWPOLYLINE
  5
52D
330
18
100
AcDbEntity
  8
TEXT
100
AcDbPolyline
 90
        2
 70
     0
 43
0.0
 10
0.7316106354879377
 20
-0.296502380331396
 10
0.8656280531193143
 20
-0.296502380331396
 42
0.9999999999999998
  0
LWPOLYLINE
  5
52E
330
18
100
AcDbEntity
  8
TEXT
100
AcDbPolyline
 90
        4
 70
     1
 43
0.0
 10
0.8455055880494217
 20
-0.1935384023473707
 10
0.7568452693895634
 20
-0.1935384023473707
 42
0.9999999999999998
 10
0.7568452693895634
 20
-0.2359369428512315
 10
0.8455055880494217
 20
-0.2359369428512315
 42
1.0
  0
LWPOLYLINE
  5
52F
330
18
100
AcDbEntity
  8
TEXT
100
AcDbPolyline
 90
        2
 70
     0
 43
0.0
 10
0.6885347026203022
 20
-0.2530114353809578
 42
0.2901071551932823
 10
0.7316106354879377
 20
-0.296502380331396
 42
5.328517124445801
  0
LINE
  5
530
330
18
100
AcDbEntity
  8
TEXT
100
AcDbLine
 10
0.8258043698068791
 20
-0.030029347342885
 30
0.0
 11
0.69097246058982
 21
-0.030029347342885
 31
0.0
  0
LINE
  5
531
330
18
100
AcDbEntity
  8
TEXT
100
AcDbLine
 10
0.7502865569831388
 20
-0.1315810154617827
 30
0.0
 11
0.8325745467665219
 21
-0.1315810154617827
 31
0.0
  0
LINE
  5
532
330
18
100
AcDbEntity
  8
TEXT
100
AcDbLine
 10
0.7967734714624007
 20
-0.0943060419996504
 30
0.0
 11
0.6895671980751113
 21
-0.0943060419996504
 31
0.0
  0
LINE
  5
533
330
18
100
AcDbEntity
  8
TEXT
100
AcDbLine
 10
0.69097246058982
 20
-0.030029347342885
 30
0.0
 11
0.69097246058982
 21
-0.0583518931125289
 31
0.0
  0
ARC
  5
534
330
18
100
AcDbEntity
  8
TEXT
100
AcDbCircle
 10
0.7502865569831379
 20
-0.1992665966059013
 30
0.0
 40
0.0676855811441166
100
AcDbArc
 50
90.0
 51
153.7768192527749
  0
LINE
  5
535
330
18
100
AcDbEntity
  8
TEXT
100
AcDbLine
 10
0.6895671980751113
 20
-0.0943060419996504
 30
0.0
 11
0.6895671980751113
 21
-0.169358448073857
 31
0.0
  0
LINE
  5
536
330
18
100
AcDbEntity
  8
TEXT
100
AcDbLine
 10
0.8325745467665219
 20
-0.1315810154617827
 30
0.0
 11
0.8223097863529575
 21
-0.1103304758890884
 31
0.0
  0
ARC
  5
537
330
18
100
AcDbEntity
  8
TEXT
100
AcDbCircle
 10
0.7967734714623998
 20
-0.1226654169996477
 30
0.0
 40
0.028359375
100
AcDbArc
 50
25.78218179591245
 51
90.0
  0
LINE
  5
538
330
18
100
AcDbEntity
  8
TEXT
100
AcDbLine
 10
0.9670591998222937
 20
-0.296502380331396
 30
0.0
 11
0.9670591998222883
 21
-0.1192118748999276
 31
0.0
  0
LWPOLYLINE
  5
539
330
18
100
AcDbEntity
  8
TEXT
100
AcDbPolyline
 90
        2
 70
     0
 43
0.0
 10
0.9087039859869587
 20
-0.296502380331396
 10
0.9670591998222928
 20
-0.296502380331396
  0
LWPOLYLINE
  5
53A
330
18
100
AcDbEntity
  8
TEXT
100
AcDbPolyline
 90
        2
 70
     0
 43
0.0
 10
0.9087039859869587
 20
-0.2530114353809578
 42
-0.2901071551932486
 10
0.8656280531193143
 20
-0.296502380331396
 42
-5.328517124445184
  0
LWPOLYLINE
  5
53B
330
18
100
AcDbEntity
  8
TEXT
100
AcDbPolyline
 90
        2
 70
     0
 43
0.0
 10
0.9087039859869587
 20
-0.2530114353809578
 10
0.9087039859869587
 20
-0.296502380331396
  0
LINE
  5
53C
330
18
100
AcDbEntity
  8
TEXT
100
AcDbLine
 10
0.9686612149814211
 20
-0.030029347342885
 30
0.0
 11
0.9047643086819201
 21
-0.030029347342885
 31
0.0
  0
LINE
  5
53D
330
18
100
AcDbEntity
  8
TEXT
100
AcDbLine
 10
0.9047643086819201
 20
-0.030029347342885
 30
0.0
 11
0.9047643086819201
 21
-0.1352413258963123
 31
0.0
  0
LINE
  5
53E
330
18
100
AcDbEntity
  8
TEXT
100
AcDbLine
 10
0.9047643086819201
 20
-0.1352413258963123
 30
0.0
 11
0.8610135375000185
 21
-0.0529910499001671
 31
0.0
  0
ARC
  5
53F
330
18
100
AcDbEntity
  8
TEXT
100
AcDbCircle
 10
0.991965075104952
 20
-0.1192119172823132
 30
0.0
 40
0.0249058752826653
100
AcDbArc
 50
89.99971217465335
 51
179.9999999999985
  0
ARC
  5
540
330
18
100
AcDbEntity
  8
TEXT
100
AcDbCircle
 10
0.9998540320445297
 20
-0.0612750746251498
 30
0.0
 40
0.0314112657011332
100
AcDbArc
 50
95.88484768694724
 51
173.2388340632136
  0
LINE
  5
541
330
18
100
AcDbEntity
  8
TEXT
100
AcDbLine
 10
0.9686612149814211
 20
-0.0575769972037597
 30
0.0
 11
0.9686612149814211
 21
-0.030029347342885
 31
0.0
  0
TEXT
  5
542
330
18
100
AcDbEntity
  8
TEXT
100
AcDbText
 10
1.437536734403211
 20
-0.2036165716858997
 30
0.0
 40
0.0522247191011236
  1
Minneapolis, MN 55432-0008
 41
1.11444212721585
 72
     5
 11
2.766469318672875
 21
-0.2036165716858997
 31
0.0
100
AcDbText
  0
TEXT
  5
543
330
18
100
AcDbEntity
  8
TEXT
100
AcDbText
 10
1.437536734403211
 20
-0.1103581447196076
 30
0.0
 40
0.0522247191011236
  1
6536 Main St. N.E. * P.O. Box 32008
 41
0.8388932496075369
 72
     5
 11
2.766469318672875
 21
-0.1103581447196076
 31
0.0
100
AcDbText
  0
TEXT
  5
544
330
18
100
AcDbEntity
  8
TEXT
100
AcDbText
 10
1.437536734403211
 20
-0.0170997177533154
 30
0.0
 40
0.0522247191011236
  1
Stylmark  Incorporated
 41
1.221428571428571
 72
     5
 11
2.766469318672875
 21
-0.0170997177533154
 31
0.0
100
AcDbText
  0
TEXT
  5
545
330
18
100
AcDbEntity
  8
TEXT
100
AcDbText
 10
1.437536734403211
 20
-0.2968749986521919
 30
0.0
 40
0.0522247191011236
  1
Phone  1-800-328-2495
 41
1.272321428571429
 72
     5
 11
2.766469318672875
 21
-0.2968749986521919
 31
0.0
100
AcDbText
  0
LINE
  5
546
330
18
100
AcDbEntity
  8
TEXT
100
AcDbLine
 10
1.189980922940196
 20
-0.1399225902838586
 30
0.0
 11
1.254538038905901
 21
-0.030029347342885
 31
0.0
  0
LINE
  5
547
330
18
100
AcDbEntity
  8
TEXT
100
AcDbLine
 10
1.254538038905901
 20
-0.030029347342885
 30
0.0
 11
1.179546206176275
 21
-0.030029347342885
 31
0.0
  0
LINE
  5
548
330
18
100
AcDbEntity
  8
TEXT
100
AcDbLine
 10
1.208894773927601
 20
-0.296502380331396
 30
0.0
 11
1.285473146303806
 21
-0.296502380331396
 31
0.0
  0
LINE
  5
549
330
18
100
AcDbEntity
  8
TEXT
100
AcDbLine
 10
1.285473146303806
 20
-0.296502380331396
 30
0.0
 11
1.189980922940196
 21
-0.1399225902838586
 31
0.0
  0
LINE
  5
54A
330
18
100
AcDbEntity
  8
TEXT
100
AcDbLine
 10
1.132991240716136
 20
-0.296502380331396
 30
0.0
 11
1.132991240716136
 21
-0.1649228118552157
 31
0.0
  0
LINE
  5
54B
330
18
100
AcDbEntity
  8
TEXT
100
AcDbLine
 10
1.132991240716136
 20
-0.1649228118552157
 30
0.0
 11
1.208894773927601
 21
-0.296502380331396
 31
0.0
  0
LINE
  5
54C
330
18
100
AcDbEntity
  8
TEXT
100
AcDbLine
 10
1.06861305639751
 20
-0.0943060419996504
 30
0.0
 11
1.068613056397516
 21
-0.296502380331396
 31
0.0
  0
LINE
  5
54D
330
18
100
AcDbEntity
  8
TEXT
100
AcDbLine
 10
1.068613056397516
 20
-0.296502380331396
 30
0.0
 11
1.132991240716136
 21
-0.296502380331396
 31
0.0
  0
LINE
  5
54E
330
18
100
AcDbEntity
  8
TEXT
100
AcDbLine
 10
1.132448047620289
 20
0.0354348584247157
 30
0.0
 11
1.064133169071015
 21
0.0354348584247157
 31
0.0
  0
LINE
  5
54F
330
18
100
AcDbEntity
  8
TEXT
100
AcDbLine
 10
1.064133169071015
 20
0.0354348584247157
 30
0.0
 11
1.06413316907101
 21
-0.030029347342885
 31
0.0
  0
LINE
  5
550
330
18
100
AcDbEntity
  8
TEXT
100
AcDbLine
 10
1.179546206176273
 20
-0.030029347342885
 30
0.0
 11
1.132448047620289
 21
-0.1058946737544231
 31
0.0
  0
LINE
  5
551
330
18
100
AcDbEntity
  8
TEXT
100
AcDbLine
 10
1.132448047620289
 20
-0.1058946737544231
 30
0.0
 11
1.132448047620289
 21
0.0354348584247157
 31
0.0
  0
ENDSEC
  0
SECTION
  2
OBJECTS
  0
DICTIONARY
  5
C
330
0
100
AcDbDictionary
  3
ACAD_GROUP
350
D
  3
ACAD_LAYOUT
350
556
  3
ACAD_MLINESTYLE
350
E
  3
ACAD_PLOTSETTINGS
350
557
  3
ACAD_PLOTSTYLENAME
350
554
  3
ACDBHEADERROUNDTRIPXREC
350
562
  3
ACDBVARIABLEDICTIONARY
350
55F
  0
DICTIONARY
  5
584
330
18
100
AcDbDictionary
280
     1
  3
ACAD_LAYOUTSELFREF
360
585
  0
DICTIONARY
  5
582
330
15
100
AcDbDictionary
280
     1
  3
ACAD_LAYOUTSELFREF
360
583
  0
DICTIONARY
  5
D
102
{ACAD_REACTORS
330
C
102
}
330
C
100
AcDbDictionary
  0
DICTIONARY
  5
556
102
{ACAD_REACTORS
330
C
102
}
330
C
100
AcDbDictionary
  0
DICTIONARY
  5
E
102
{ACAD_REACTORS
330
C
102
}
330
C
100
AcDbDictionary
  3
STANDARD
350
1B
  0
DICTIONARY
  5
557
102
{ACAD_REACTORS
330
C
102
}
330
C
100
AcDbDictionary
  0
ACDBDICTIONARYWDFLT
  5
554
102
{ACAD_REACTORS
330
C
102
}
330
C
100
AcDbDictionary
281
     1
  3
Normal
350
555
100
AcDbDictionaryWithDefault
340
555
  0
DICTIONARY
  5
562
102
{ACAD_REACTORS
330
C
102
}
330
C
100
AcDbDictionary
  3
CEPSNTYPE
350
56C
  3
FINGERPRINTGUID
350
56D
  3
HYPERLINKBASE
350
565
  3
INSUNITS
350
56B
  3
LAYOUTDICT
350
567
  3
LWETCUNION
350
56A
  3
PLOTSETDICT
350
568
  3
PLOTSTYLNAMDICT
350
569
  3
PSVPSCALE
350
56F
  3
PUCSBASE
350
572
  3
PUCSORGBACK
350
578
  3
PUCSORGBOTTOM
350
574
  3
PUCSORGFRONT
350
577
  3
PUCSORGLEFT
350
575
  3
PUCSORGRIGHT
350
576
  3
PUCSORGTOP
350
573
  3
PUCSORTHOREF
350
570
  3
PUCSORTHOVIEW
350
571
  3
STYLESHEET
350
566
  3
TSTACKALIGN
350
563
  3
TSTACKSIZE
350
564
  3
UCSBASE
350
57B
  3
UCSORGBACK
350
581
  3
UCSORGBOTTOM
350
57D
  3
UCSORGFRONT
350
580
  3
UCSORGLEFT
350
57E
  3
UCSORGRIGHT
350
57F
  3
UCSORGTOP
350
57C
  3
UCSORTHOREF
350
579
  3
UCSORTHOVIEW
350
57A
  3
VERSIONGUID
350
56E
  0
DICTIONARY
  5
55F
102
{ACAD_REACTORS
330
C
102
}
330
C
100
AcDbDictionary
  3
DIMASSOC
350
560
  0
XRECORD
  5
585
102
{ACAD_REACTORS
330
584
102
}
330
584
100
AcDbXrecord
340
18
  0
XRECORD
  5
583
102
{ACAD_REACTORS
330
582
102
}
330
582
100
AcDbXrecord
340
15
  0
MLINESTYLE
  5
1B
102
{ACAD_REACTORS
330
E
102
}
330
E
100
AcDbMlineStyle
  2
STANDARD
 70
     0
  3

 62
     0
 51
90.0
 52
90.0
 71
     2
 49
0.5
 62
   256
  6
BYLAYER
 49
-0.5
 62
   256
  6
BYLAYER
  0
ACDBPLACEHOLDER
  5
555
102
{ACAD_REACTORS
330
554
102
}
330
554
100
AcDbPlaceHolder
280
     0
  0
XRECORD
  5
56C
102
{ACAD_REACTORS
330
562
102
}
330
562
100
AcDbXrecord
 90
        0
  0
XRECORD
  5
56D
102
{ACAD_REACTORS
330
562
102
}
330
562
100
AcDbXrecord
  1
{5D375B90-8DB6-11D6-88E6-0090279574E7}
  0
XRECORD
  5
565
102
{ACAD_REACTORS
330
562
102
}
330
562
100
AcDbXrecord
  1

  0
XRECORD
  5
56B
102
{ACAD_REACTORS
330
562
102
}
330
562
100
AcDbXrecord
 90
        0
  0
XRECORD
  5
567
102
{ACAD_REACTORS
330
562
102
}
330
562
100
AcDbXrecord
340
556
  0
XRECORD
  5
56A
102
{ACAD_REACTORS
330
562
102
}
330
562
100
AcDbXrecord
 90
    14877
  0
XRECORD
  5
568
102
{ACAD_REACTORS
330
562
102
}
330
562
100
AcDbXrecord
340
557
  0
XRECORD
  5
569
102
{ACAD_REACTORS
330
562
102
}
330
562
100
AcDbXrecord
340
554
  0
XRECORD
  5
56F
102
{ACAD_REACTORS
330
562
102
}
330
562
100
AcDbXrecord
 40
0.0
  0
XRECORD
  5
572
102
{ACAD_REACTORS
330
562
102
}
330
562
100
AcDbXrecord
340
0
  0
XRECORD
  5
578
102
{ACAD_REACTORS
330
562
102
}
330
562
100
AcDbXrecord
 10
0.0
 20
0.0
 30
0.0
  0
XRECORD
  5
574
102
{ACAD_REACTORS
330
562
102
}
330
562
100
AcDbXrecord
 10
0.0
 20
0.0
 30
0.0
  0
XRECORD
  5
577
102
{ACAD_REACTORS
330
562
102
}
330
562
100
AcDbXrecord
 10
0.0
 20
0.0
 30
0.0
  0
XRECORD
  5
575
102
{ACAD_REACTORS
330
562
102
}
330
562
100
AcDbXrecord
 10
0.0
 20
0.0
 30
0.0
  0
XRECORD
  5
576
102
{ACAD_REACTORS
330
562
102
}
330
562
100
AcDbXrecord
 10
0.0
 20
0.0
 30
0.0
  0
XRECORD
  5
573
102
{ACAD_REACTORS
330
562
102
}
330
562
100
AcDbXrecord
 10
0.0
 20
0.0
 30
0.0
  0
XRECORD
  5
570
102
{ACAD_REACTORS
330
562
102
}
330
562
100
AcDbXrecord
340
0
  0
XRECORD
  5
571
102
{ACAD_REACTORS
330
562
102
}
330
562
100
AcDbXrecord
 70
     0
  0
XRECORD
  5
566
102
{ACAD_REACTORS
330
562
102
}
330
562
100
AcDbXrecord
  1

  0
XRECORD
  5
563
102
{ACAD_REACTORS
330
562
102
}
330
562
100
AcDbXrecord
 90
        1
  0
XRECORD
  5
564
102
{ACAD_REACTORS
330
562
102
}
330
562
100
AcDbXrecord
 90
       70
  0
XRECORD
  5
57B
102
{ACAD_REACTORS
330
562
102
}
330
562
100
AcDbXrecord
340
0
  0
XRECORD
  5
581
102
{ACAD_REACTORS
330
562
102
}
330
562
100
AcDbXrecord
 10
0.0
 20
0.0
 30
0.0
  0
XRECORD
  5
57D
102
{ACAD_REACTORS
330
562
102
}
330
562
100
AcDbXrecord
 10
0.0
 20
0.0
 30
0.0
  0
XRECORD
  5
580
102
{ACAD_REACTORS
330
562
102
}
330
562
100
AcDbXrecord
 10
0.0
 20
0.0
 30
0.0
  0
XRECORD
  5
57E
102
{ACAD_REACTORS
330
562
102
}
330
562
100
AcDbXrecord
 10
0.0
 20
0.0
 30
0.0
  0
XRECORD
  5
57F
102
{ACAD_REACTORS
330
562
102
}
330
562
100
AcDbXrecord
 10
0.0
 20
0.0
 30
0.0
  0
XRECORD
  5
57C
102
{ACAD_REACTORS
330
562
102
}
330
562
100
AcDbXrecord
 10
0.0
 20
0.0
 30
0.0
  0
XRECORD
  5
579
102
{ACAD_REACTORS
330
562
102
}
330
562
100
AcDbXrecord
340
0
  0
XRECORD
  5
57A
102
{ACAD_REACTORS
330
562
102
}
330
562
100
AcDbXrecord
 70
     0
  0
XRECORD
  5
56E
102
{ACAD_REACTORS
330
562
102
}
330
562
100
AcDbXrecord
  1
{5D375B92-8DB6-11D6-88E6-0090279574E7}
  0
DICTIONARYVAR
  5
560
102
{ACAD_REACTORS
330
55F
102
}
330
55F
100
DictionaryVariables
280
     0
  1
1
  0
ENDSEC
  0
EOF
