  0
SECTION
  2
HEADER
  9
$ACADVER
  1
AC1014
  9
$ACADMAINTVER
 70
     9
  9
$DWGCODEPAGE
  3
ANSI_1252
  9
$INSBASE
 10
0.0
 20
0.0
 30
0.0
  9
$EXTMIN
 10
2.078125
 20
3.035779039937601
 30
0.0
  9
$EXTMAX
 10
5.928124999999998
 20
4.90625
 30
0.0
  9
$LIMMIN
 10
0.0
 20
0.0
  9
$LIMMAX
 10
8.5
 20
11.0
  9
$ORTHOMODE
 70
     1
  9
$REGENMODE
 70
     1
  9
$FILLMODE
 70
     1
  9
$QTEXTMODE
 70
     0
  9
$MIRRTEXT
 70
     0
  9
$DRAGMODE
 70
     2
  9
$LTSCALE
 40
1.0
  9
$OSMODE
 70
    39
  9
$ATTMODE
 70
     1
  9
$TEXTSIZE
 40
0.125
  9
$TRACEWID
 40
0.05
  9
$TEXTSTYLE
  7
ROMANS
  9
$CLAYER
  8
DIM
  9
$CELTYPE
  6
BYLAYER
  9
$CECOLOR
 62
   256
  9
$CELTSCALE
 40
1.0
  9
$DELOBJ
 70
     1
  9
$DISPSILH
 70
     1
  9
$DIMSCALE
 40
1.0
  9
$DIMASZ
 40
0.125
  9
$DIMEXO
 40
0.125
  9
$DIMDLI
 40
0.375
  9
$DIMRND
 40
0.0
  9
$DIMDLE
 40
0.0
  9
$DIMEXE
 40
0.125
  9
$DIMTP
 40
0.0
  9
$DIMTM
 40
0.0
  9
$DIMTXT
 40
0.125
  9
$DIMCEN
 40
-0.125
  9
$DIMTSZ
 40
0.0
  9
$DIMTOL
 70
     0
  9
$DIMLIM
 70
     0
  9
$DIMTIH
 70
     1
  9
$DIMTOH
 70
     1
  9
$DIMSE1
 70
     0
  9
$DIMSE2
 70
     0
  9
$DIMTAD
 70
     0
  9
$DIMZIN
 70
     4
  9
$DIMBLK
  1

  9
$DIMASO
 70
     1
  9
$DIMSHO
 70
     1
  9
$DIMPOST
  1

  9
$DIMAPOST
  1

  9
$DIMALT
 70
     0
  9
$DIMALTD
 70
     2
  9
$DIMALTF
 40
25.4
  9
$DIMLFAC
 40
1.0
  9
$DIMTOFL
 70
     0
  9
$DIMTVP
 40
0.0
  9
$DIMTIX
 70
     0
  9
$DIMSOXD
 70
     0
  9
$DIMSAH
 70
     0
  9
$DIMBLK1
  1

  9
$DIMBLK2
  1

  9
$DIMSTYLE
  2
STANDARD
  9
$DIMCLRD
 70
     0
  9
$DIMCLRE
 70
     0
  9
$DIMCLRT
 70
     0
  9
$DIMTFAC
 40
1.0
  9
$DIMGAP
 40
0.09
  9
$DIMJUST
 70
     0
  9
$DIMSD1
 70
     0
  9
$DIMSD2
 70
     0
  9
$DIMTOLJ
 70
     1
  9
$DIMTZIN
 70
     0
  9
$DIMALTZ
 70
     0
  9
$DIMALTTZ
 70
     0
  9
$DIMFIT
 70
     3
  9
$DIMUPT
 70
     0
  9
$DIMUNIT
 70
     2
  9
$DIMDEC
 70
     3
  9
$DIMTDEC
 70
     4
  9
$DIMALTU
 70
     2
  9
$DIMALTTD
 70
     2
  9
$DIMTXSTY
  7
ROMANS
  9
$DIMAUNIT
 70
     0
  9
$LUNITS
 70
     2
  9
$LUPREC
 70
     3
  9
$SKETCHINC
 40
0.1
  9
$FILLETRAD
 40
0.0
  9
$AUNITS
 70
     0
  9
$AUPREC
 70
     0
  9
$MENU
  1
AUTOMSTR
  9
$ELEVATION
 40
0.0
  9
$PELEVATION
 40
0.0
  9
$THICKNESS
 40
0.0
  9
$LIMCHECK
 70
     0
  9
$BLIPMODE
 70
     0
  9
$CHAMFERA
 40
0.0
  9
$CHAMFERB
 40
0.0
  9
$CHAMFERC
 40
0.0
  9
$CHAMFERD
 40
0.0
  9
$SKPOLY
 70
     0
  9
$TDCREATE
 40
2448355.542616088
  9
$TDUPDATE
 40
2452458.307158309
  9
$TDINDWG
 40
0.0442968171
  9
$TDUSRTIMER
 40
0.0442968171
  9
$USRTIMER
 70
     1
  9
$ANGBASE
 50
0.0
  9
$ANGDIR
 70
     0
  9
$PDMODE
 70
     0
  9
$PDSIZE
 40
0.0
  9
$PLINEWID
 40
0.0
  9
$COORDS
 70
     2
  9
$SPLFRAME
 70
     0
  9
$SPLINETYPE
 70
     6
  9
$SPLINESEGS
 70
     8
  9
$ATTDIA
 70
     0
  9
$ATTREQ
 70
     1
  9
$HANDLING
 70
 22529
  9
$HANDSEED
  5
563
  9
$SURFTAB1
 70
     6
  9
$SURFTAB2
 70
     6
  9
$SURFTYPE
 70
     6
  9
$SURFU
 70
     6
  9
$SURFV
 70
     6
  9
$UCSNAME
  2

  9
$UCSORG
 10
0.0
 20
0.0
 30
0.0
  9
$UCSXDIR
 10
1.0
 20
0.0
 30
0.0
  9
$UCSYDIR
 10
0.0
 20
1.0
 30
0.0
  9
$PUCSNAME
  2

  9
$PUCSORG
 10
0.0
 20
0.0
 30
0.0
  9
$PUCSXDIR
 10
1.0
 20
0.0
 30
0.0
  9
$PUCSYDIR
 10
0.0
 20
1.0
 30
0.0
  9
$USERI1
 70
     0
  9
$USERI2
 70
     0
  9
$USERI3
 70
     0
  9
$USERI4
 70
     0
  9
$USERI5
 70
     0
  9
$USERR1
 40
0.0
  9
$USERR2
 40
0.0
  9
$USERR3
 40
0.0
  9
$USERR4
 40
0.0
  9
$USERR5
 40
0.0
  9
$WORLDVIEW
 70
     1
  9
$SHADEDGE
 70
     3
  9
$SHADEDIF
 70
    70
  9
$TILEMODE
 70
     1
  9
$MAXACTVP
 70
    16
  9
$PINSBASE
 10
0.0
 20
0.0
 30
0.0
  9
$PLIMCHECK
 70
     0
  9
$PEXTMIN
 10
1.000000000000000E+20
 20
1.000000000000000E+20
 30
1.000000000000000E+20
  9
$PEXTMAX
 10
-1.000000000000000E+20
 20
-1.000000000000000E+20
 30
-1.000000000000000E+20
  9
$PLIMMIN
 10
0.0
 20
0.0
  9
$PLIMMAX
 10
12.0
 20
9.0
  9
$UNITMODE
 70
     0
  9
$VISRETAIN
 70
     0
  9
$PLINEGEN
 70
     1
  9
$PSLTSCALE
 70
     0
  9
$TREEDEPTH
 70
  3020
  9
$PICKSTYLE
 70
     1
  9
$CMLSTYLE
  2
STANDARD
  9
$CMLJUST
 70
     0
  9
$CMLSCALE
 40
1.0
  9
$PROXYGRAPHICS
 70
     1
  9
$MEASUREMENT
 70
     0
  0
ENDSEC
  0
SECTION
  2
CLASSES
  0
CLASS
  1
LWPOLYLINE
  2
AcDbPolyline
  3
AutoCAD 2000
 90
        0
280
     0
281
     1
  0
CLASS
  1
ACDBDICTIONARYWDFLT
  2
AcDbDictionaryWithDefault
  3
AutoCAD 2000
 90
        0
280
     0
281
     0
  0
CLASS
  1
ACDBPLACEHOLDER
  2
AcDbPlaceHolder
  3
AutoCAD 2000
 90
        0
280
     0
281
     0
  0
CLASS
  1
LAYOUT
  2
AcDbLayout
  3
AutoCAD 2000
 90
        0
280
     0
281
     0
  0
CLASS
  1
DICTIONARYVAR
  2
AcDbDictionaryVar
  3
AutoCAD 2000
 90
        0
280
     0
281
     0
  0
CLASS
  1
LONG_TRANSACTION
  2
AcDbLongTransaction
  3
AutoCAD 2000
 90
        0
280
     0
281
     0
  0
CLASS
  1
LWPOLYLINE
  2
AcDbPolyline
  3
AutoCAD 2000
 90
        0
280
     0
281
     1
  0
CLASS
  1
HATCH
  2
AcDbHatch
  3
AutoCAD 2000
 90
        0
280
     0
281
     1
  0
CLASS
  1
XRECORD
  2
AcDbXrecord
  3
AutoCAD 2000
 90
        0
280
     0
281
     0
  0
ENDSEC
  0
SECTION
  2
TABLES
  0
TABLE
  2
VPORT
  5
8
330
0
100
AcDbSymbolTable
 70
     2
  0
VPORT
  5
53E
330
8
100
AcDbSymbolTableRecord
100
AcDbViewportTableRecord
  2
*ACTIVE
 70
     0
 10
0.0
 20
0.0
 11
1.0
 21
1.0
 12
16.12657558139535
 22
3.718749999999999
 13
0.0
 23
0.0
 14
0.015625
 24
0.015625
 15
0.0
 25
0.0
 16
0.0
 26
0.0
 36
1.0
 17
0.0
 27
0.0
 37
0.0
 40
7.472500000000005
 41
4.320930232558139
 42
50.0
 43
0.0
 44
0.0
 50
0.0
 51
0.0
 71
     0
 72
  2000
 73
     1
 74
     1
 75
     1
 76
     0
 77
     0
 78
     0
  0
ENDTAB
  0
TABLE
  2
LTYPE
  5
5
330
0
100
AcDbSymbolTable
 70
     1
  0
LTYPE
  5
12
330
5
100
AcDbSymbolTableRecord
100
AcDbLinetypeTableRecord
  2
BYBLOCK
 70
     0
  3

 72
    65
 73
     0
 40
0.0
  0
LTYPE
  5
13
330
5
100
AcDbSymbolTableRecord
100
AcDbLinetypeTableRecord
  2
BYLAYER
 70
     0
  3

 72
    65
 73
     0
 40
0.0
  0
LTYPE
  5
14
330
5
100
AcDbSymbolTableRecord
100
AcDbLinetypeTableRecord
  2
CONTINUOUS
 70
     0
  3
Solid line
 72
    65
 73
     0
 40
0.0
  0
ENDTAB
  0
TABLE
  2
LAYER
  5
2
330
0
100
AcDbSymbolTable
 70
     3
  0
LAYER
  5
F
330
2
100
AcDbSymbolTableRecord
100
AcDbLayerTableRecord
  2
0
 70
     0
 62
     7
  6
CONTINUOUS
  0
LAYER
  5
2B
330
2
100
AcDbSymbolTableRecord
100
AcDbLayerTableRecord
  2
DIM
 70
     0
 62
     4
  6
CONTINUOUS
  0
LAYER
  5
2C
330
2
100
AcDbSymbolTableRecord
100
AcDbLayerTableRecord
  2
TEXT
 70
     0
 62
     3
  6
CONTINUOUS
  0
ENDTAB
  0
TABLE
  2
STYLE
  5
3
330
0
100
AcDbSymbolTable
 70
     3
  0
STYLE
  5
10
330
3
100
AcDbSymbolTableRecord
100
AcDbTextStyleTableRecord
  2
STANDARD
 70
     0
 40
0.0
 41
1.0
 50
0.0
 71
     0
 42
0.125
  3
txt
  4

  0
STYLE
  5
42A
330
3
100
AcDbSymbolTableRecord
100
AcDbTextStyleTableRecord
  2
ITALICC
 70
     0
 40
0.0
 41
1.0
 50
0.0
 71
     0
 42
0.125
  3
italicc
  4

  0
STYLE
  5
53A
330
3
100
AcDbSymbolTableRecord
100
AcDbTextStyleTableRecord
  2
ROMANS
 70
     0
 40
0.0
 41
1.0
 50
0.0
 71
     0
 42
0.125
  3
romans.shx
  4

  0
ENDTAB
  0
TABLE
  2
VIEW
  5
6
330
0
100
AcDbSymbolTable
 70
     0
  0
ENDTAB
  0
TABLE
  2
UCS
  5
7
330
0
100
AcDbSymbolTable
 70
     0
  0
ENDTAB
  0
TABLE
  2
APPID
  5
9
330
0
100
AcDbSymbolTable
 70
     1
  0
APPID
  5
11
330
9
100
AcDbSymbolTableRecord
100
AcDbRegAppTableRecord
  2
ACAD
 70
     0
  0
ENDTAB
  0
TABLE
  2
DIMSTYLE
  5
A
330
0
100
AcDbSymbolTable
 70
     1
  0
DIMSTYLE
105
41D
330
A
100
AcDbSymbolTableRecord
100
AcDbDimStyleTableRecord
  2
STANDARD
 70
     0
  3

  4

  5

  6

  7

 40
1.0
 41
0.18
 42
0.0625
 43
0.38
 44
0.18
 45
0.0
 46
0.0
 47
0.0
 48
0.0
140
0.18
141
0.09
142
0.0
143
25.4
144
1.0
145
0.0
146
1.0
147
0.09
 71
     0
 72
     0
 73
     1
 74
     1
 75
     0
 76
     0
 77
     0
 78
     0
170
     0
171
     2
172
     0
173
     0
174
     0
175
     0
176
     0
177
     0
178
     0
270
     2
271
     4
272
     4
273
     2
274
     2
340
10
275
     0
280
     0
281
     0
282
     0
283
     1
284
     0
285
     0
286
     0
287
     3
288
     0
  0
ENDTAB
  0
TABLE
  2
BLOCK_RECORD
  5
1
330
0
100
AcDbSymbolTable
 70
     0
  0
BLOCK_RECORD
  5
18
102
{ACAD_XDICTIONARY
360
561
102
}
330
1
100
AcDbSymbolTableRecord
100
AcDbBlockTableRecord
  2
*MODEL_SPACE
  0
BLOCK_RECORD
  5
15
102
{ACAD_XDICTIONARY
360
55F
102
}
330
1
100
AcDbSymbolTableRecord
100
AcDbBlockTableRecord
  2
*PAPER_SPACE
  0
ENDTAB
  0
ENDSEC
  0
SECTION
  2
BLOCKS
  0
BLOCK
  5
35
330
18
100
AcDbEntity
  8
0
100
AcDbBlockBegin
  2
*MODEL_SPACE
 70
     0
 10
0.0
 20
0.0
 30
0.0
  3
*MODEL_SPACE
  1

  0
ENDBLK
  5
36
330
18
100
AcDbEntity
  8
0
100
AcDbBlockEnd
  0
BLOCK
  5
33
330
15
100
AcDbEntity
 67
     1
  8
0
100
AcDbBlockBegin
  2
*PAPER_SPACE
 70
     0
 10
0.0
 20
0.0
 30
0.0
  3
*PAPER_SPACE
  1

  0
ENDBLK
  5
34
330
15
100
AcDbEntity
 67
     1
  8
0
100
AcDbBlockEnd
  0
ENDSEC
  0
SECTION
  2
ENTITIES
  0
LWPOLYLINE
  5
1D1
330
18
100
AcDbEntity
  8
0
100
AcDbPolyline
 90
       39
 70
     1
 43
0.0
 10
4.928124999999999
 20
4.265625
 10
4.928124999999998
 20
3.765625
 10
3.078125
 20
3.765625
 10
3.078124999999999
 20
4.265625
 10
2.118125
 20
4.265625
 42
-1.0
 10
2.118125
 20
4.345625
 10
2.703125
 20
4.345625
 10
2.703125
 20
4.658125
 10
2.428125
 20
4.658124999999999
 42
-1.0
 10
2.428125
 20
4.708124999999999
 10
2.48168906460551
 20
4.708124999999999
 10
2.503125
 20
4.788125
 10
2.453125
 20
4.788124999999999
 10
2.521324500548024
 20
4.90625
 10
2.593124999999999
 20
4.90625
 10
2.548076042022517
 20
4.738125
 10
2.783125
 20
4.738125
 10
2.783124999999999
 20
4.345625
 10
3.158124999999999
 20
4.345625
 10
3.158125
 20
3.845625
 10
3.993124999999999
 20
3.845624999999999
 10
4.003124999999998
 20
3.835624999999999
 10
4.013124999999998
 20
3.845625
 10
4.848124999999998
 20
3.845624999999999
 10
4.848124999999999
 20
4.345625
 10
5.223124999999999
 20
4.345625
 10
5.223124999999998
 20
4.738125
 10
5.45817395797748
 20
4.738125
 10
5.413124999999999
 20
4.90625
 10
5.484925499451973
 20
4.90625
 10
5.553124999999998
 20
4.788124999999999
 10
5.503124999999998
 20
4.788125
 10
5.524560935394488
 20
4.708124999999999
 10
5.578124999999998
 20
4.708124999999999
 42
-1.0
 10
5.578124999999998
 20
4.658124999999999
 10
5.303124999999998
 20
4.658125
 10
5.303124999999998
 20
4.345625
 10
5.888124999999998
 20
4.345625
 42
-1.0
 10
5.888124999999998
 20
4.265625
  0
TEXT
  5
4B0
330
18
100
AcDbEntity
  8
TEXT
100
AcDbText
 10
3.286880385676699
 20
3.493797644020183
 30
0.0
 40
0.125
  1
PART #110334
  7
ITALICC
 72
     1
 11
4.03985657615289
 21
3.493797644020183
 31
0.0
100
AcDbText
  0
LINE
  5
4B1
330
18
100
AcDbEntity
  8
TEXT
100
AcDbLine
 10
4.007590075104952
 20
3.249443958000349
 30
0.0
 11
4.08423805639751
 21
3.249443958000349
 31
0.0
  0
LINE
  5
4B2
330
18
100
AcDbEntity
  8
TEXT
100
AcDbLine
 10
4.07975816907101
 20
3.313720652657115
 30
0.0
 11
4.012258451421494
 21
3.313720652657115
 31
0.0
  0
LWPOLYLINE
  5
4B3
330
18
100
AcDbEntity
  8
TEXT
100
AcDbPolyline
 90
        5
 70
     0
 43
0.0001332181640625
 10
2.370478032570277
 20
3.190493850899302
 10
2.383799848976526
 20
3.190493850899302
 10
2.383799848976526
 20
3.227128846016491
 10
2.420434844093716
 20
3.227128846016491
 10
2.420434844093716
 20
3.240450662422738
  0
LWPOLYLINE
  5
4B4
330
18
100
AcDbEntity
  8
TEXT
100
AcDbPolyline
 90
        3
 70
     0
 43
0.0006660908203125
 10
2.410443481789025
 20
3.287077019844617
 10
2.323851675148401
 20
3.287077019844617
 10
2.323851675148401
 20
3.20048521320399
  0
LWPOLYLINE
  5
4B5
330
18
100
AcDbEntity
  8
TEXT
100
AcDbPolyline
 90
        3
 70
     0
 43
0.0006660908203125
 10
2.410443481789025
 20
3.313720652657118
 10
2.297208042335903
 20
3.313720652657118
 10
2.297208042335903
 20
3.20048521320399
  0
LWPOLYLINE
  5
4B6
330
18
100
AcDbEntity
  8
TEXT
100
AcDbPolyline
 90
        5
 70
     0
 43
0.0001332181640625
 10
2.420434844093716
 20
3.120554314766491
 10
2.420434844093716
 20
3.133876131172741
 10
2.383799848976528
 20
3.133876131172741
 10
2.383799848976528
 20
3.170511126289928
 10
2.370478032570277
 20
3.170511126289928
  0
LWPOLYLINE
  5
4B7
330
18
100
AcDbEntity
  8
TEXT
100
AcDbPolyline
 90
        3
 70
     0
 43
0.0006660908203125
 10
2.323851675148401
 20
3.160519763985242
 10
2.323851675148401
 20
3.073927957344616
 10
2.410443481789025
 20
3.073927957344616
  0
LWPOLYLINE
  5
4B8
330
18
100
AcDbEntity
  8
TEXT
100
AcDbPolyline
 90
        3
 70
     0
 43
0.0006660908203125
 10
2.297208042335903
 20
3.160519763985242
 10
2.297208042335903
 20
3.047284324532115
 10
2.410443481789025
 20
3.047284324532115
  0
LWPOLYLINE
  5
4B9
330
18
100
AcDbEntity
  8
TEXT
100
AcDbPolyline
 90
        2
 70
     0
 43
0.0001332181640625
 10
2.323851675148401
 20
3.160519763985242
 10
2.383799848976528
 20
3.170511126289928
  0
LWPOLYLINE
  5
4BA
330
18
100
AcDbEntity
  8
TEXT
100
AcDbPolyline
 90
        2
 70
     0
 43
0.0001332181640625
 10
2.370478032570277
 20
3.170511126289928
 10
2.297208042335903
 20
3.160519763985242
  0
LWPOLYLINE
  5
4BB
330
18
100
AcDbEntity
  8
TEXT
100
AcDbPolyline
 90
        2
 70
     0
 43
0.0006660908203125
 10
2.323851675148401
 20
3.160519763985242
 10
2.297208042335903
 20
3.160519763985242
  0
LWPOLYLINE
  5
4BC
330
18
100
AcDbEntity
  8
TEXT
100
AcDbPolyline
 90
        2
 70
     0
 43
0.0001332181640625
 10
2.323851675148401
 20
3.073927957344616
 10
2.383799848976528
 20
3.133876131172741
  0
LWPOLYLINE
  5
4BD
330
18
100
AcDbEntity
  8
TEXT
100
AcDbPolyline
 90
        2
 70
     0
 43
0.0006660908203125
 10
2.323851675148401
 20
3.20048521320399
 10
2.297208042335903
 20
3.20048521320399
  0
LWPOLYLINE
  5
4BE
330
18
100
AcDbEntity
  8
TEXT
100
AcDbPolyline
 90
        2
 70
     0
 43
0.0001332181640625
 10
2.297208042335903
 20
3.20048521320399
 10
2.370478032570277
 20
3.190493850899302
  0
LWPOLYLINE
  5
4BF
330
18
100
AcDbEntity
  8
TEXT
100
AcDbPolyline
 90
        2
 70
     0
 43
0.0001332181640625
 10
2.323851675148401
 20
3.20048521320399
 10
2.383799848976526
 20
3.190493850899302
  0
LWPOLYLINE
  5
4C0
330
18
100
AcDbEntity
  8
TEXT
100
AcDbPolyline
 90
        2
 70
     0
 43
0.0001332181640625
 10
2.323851675148401
 20
3.287077019844617
 10
2.383799848976526
 20
3.227128846016491
  0
LWPOLYLINE
  5
4C1
330
18
100
AcDbEntity
  8
TEXT
100
AcDbPolyline
 90
        5
 70
     0
 43
0.0001332181640625
 10
2.490374380226527
 20
3.170511126289928
 10
2.477052563820278
 20
3.170511126289928
 10
2.477052563820278
 20
3.133876131172741
 10
2.440417568703088
 20
3.133876131172741
 10
2.440417568703088
 20
3.120554314766491
  0
LWPOLYLINE
  5
4C2
330
18
100
AcDbEntity
  8
TEXT
100
AcDbPolyline
 90
        2
 70
     0
 43
0.0001332181640625
 10
2.537000737648402
 20
3.160519763985242
 10
2.477052563820278
 20
3.170511126289928
  0
LWPOLYLINE
  5
4C3
330
18
100
AcDbEntity
  8
TEXT
100
AcDbPolyline
 90
        2
 70
     0
 43
0.0001332181640625
 10
2.563644370460903
 20
3.160519763985242
 10
2.490374380226527
 20
3.170511126289928
  0
LWPOLYLINE
  5
4C4
330
18
100
AcDbEntity
  8
TEXT
100
AcDbPolyline
 90
        3
 70
     0
 43
0.0006660908203125
 10
2.450408931007777
 20
3.047284324532115
 10
2.563644370460903
 20
3.047284324532115
 10
2.563644370460903
 20
3.160519763985242
  0
LWPOLYLINE
  5
4C5
330
18
100
AcDbEntity
  8
TEXT
100
AcDbPolyline
 90
        3
 70
     0
 43
0.0006660908203125
 10
2.450408931007777
 20
3.073927957344616
 10
2.537000737648402
 20
3.073927957344616
 10
2.537000737648402
 20
3.160519763985242
  0
LWPOLYLINE
  5
4C6
330
18
100
AcDbEntity
  8
TEXT
100
AcDbPolyline
 90
        2
 70
     0
 43
0.0001332181640625
 10
2.537000737648402
 20
3.073927957344616
 10
2.477052563820278
 20
3.133876131172741
  0
LWPOLYLINE
  5
4C7
330
18
100
AcDbEntity
  8
TEXT
100
AcDbPolyline
 90
        2
 70
     0
 43
0.0006660908203125
 10
2.450408931007777
 20
3.073927957344616
 10
2.450408931007777
 20
3.047284324532115
  0
LWPOLYLINE
  5
4C8
330
18
100
AcDbEntity
  8
TEXT
100
AcDbPolyline
 90
        2
 70
     0
 43
0.0001332181640625
 10
2.440417568703088
 20
3.120554314766491
 10
2.450408931007777
 20
3.047284324532115
  0
LWPOLYLINE
  5
4C9
330
18
100
AcDbEntity
  8
TEXT
100
AcDbPolyline
 90
        2
 70
     0
 43
0.0001332181640625
 10
2.450408931007777
 20
3.073927957344616
 10
2.440417568703088
 20
3.133876131172741
  0
LWPOLYLINE
  5
4CA
330
18
100
AcDbEntity
  8
TEXT
100
AcDbPolyline
 90
        2
 70
     0
 43
0.0001332181640625
 10
2.410443481789025
 20
3.047284324532115
 10
2.420434844093716
 20
3.120554314766491
  0
LWPOLYLINE
  5
4CB
330
18
100
AcDbEntity
  8
TEXT
100
AcDbPolyline
 90
        2
 70
     0
 43
0.0001332181640625
 10
2.410443481789025
 20
3.073927957344616
 10
2.420434844093716
 20
3.133876131172741
  0
LWPOLYLINE
  5
4CC
330
18
100
AcDbEntity
  8
TEXT
100
AcDbPolyline
 90
        2
 70
     0
 43
0.0006660908203125
 10
2.410443481789025
 20
3.073927957344616
 10
2.410443481789025
 20
3.047284324532115
  0
LWPOLYLINE
  5
4CD
330
18
100
AcDbEntity
  8
TEXT
100
AcDbPolyline
 90
        2
 70
     0
 43
0.0006660908203125
 10
2.537000737648402
 20
3.160519763985242
 10
2.563644370460903
 20
3.160519763985242
  0
LWPOLYLINE
  5
4CE
330
18
100
AcDbEntity
  8
TEXT
100
AcDbPolyline
 90
        2
 70
     0
 43
0.0001332181640625
 10
2.537000737648402
 20
3.287077019844617
 10
2.477052563820278
 20
3.227128846016491
  0
LWPOLYLINE
  5
4CF
330
18
100
AcDbEntity
  8
TEXT
100
AcDbPolyline
 90
        2
 70
     0
 43
0.0001332181640625
 10
2.537000737648402
 20
3.20048521320399
 10
2.477052563820278
 20
3.190493850899302
  0
LWPOLYLINE
  5
4D0
330
18
100
AcDbEntity
  8
TEXT
100
AcDbPolyline
 90
        2
 70
     0
 43
0.0001332181640625
 10
2.490374380226527
 20
3.190493850899302
 10
2.563644370460903
 20
3.20048521320399
  0
LWPOLYLINE
  5
4D1
330
18
100
AcDbEntity
  8
TEXT
100
AcDbPolyline
 90
        3
 70
     0
 43
0.0006660908203125
 10
2.537000737648402
 20
3.20048521320399
 10
2.537000737648402
 20
3.287077019844617
 10
2.450408931007777
 20
3.287077019844617
  0
LWPOLYLINE
  5
4D2
330
18
100
AcDbEntity
  8
TEXT
100
AcDbPolyline
 90
        3
 70
     0
 43
0.0006660908203125
 10
2.563644370460903
 20
3.20048521320399
 10
2.563644370460903
 20
3.313720652657118
 10
2.450408931007777
 20
3.313720652657118
  0
LWPOLYLINE
  5
4D3
330
18
100
AcDbEntity
  8
TEXT
100
AcDbPolyline
 90
        2
 70
     0
 43
0.0001332181640625
 10
2.450408931007777
 20
3.313720652657118
 10
2.440417568703088
 20
3.240450662422738
  0
LWPOLYLINE
  5
4D4
330
18
100
AcDbEntity
  8
TEXT
100
AcDbPolyline
 90
        2
 70
     0
 43
0.0001332181640625
 10
2.450408931007777
 20
3.287077019844617
 10
2.440417568703088
 20
3.227128846016491
  0
LWPOLYLINE
  5
4D5
330
18
100
AcDbEntity
  8
TEXT
100
AcDbPolyline
 90
        2
 70
     0
 43
0.0006660908203125
 10
2.450408931007777
 20
3.287077019844617
 10
2.450408931007777
 20
3.313720652657118
  0
LWPOLYLINE
  5
4D6
330
18
100
AcDbEntity
  8
TEXT
100
AcDbPolyline
 90
        5
 70
     0
 43
0.0001332181640625
 10
2.440417568703088
 20
3.240450662422738
 10
2.440417568703088
 20
3.227128846016491
 10
2.477052563820278
 20
3.227128846016491
 10
2.477052563820278
 20
3.190493850899302
 10
2.490374380226527
 20
3.190493850899302
  0
LWPOLYLINE
  5
4D7
330
18
100
AcDbEntity
  8
TEXT
100
AcDbPolyline
 90
        2
 70
     0
 43
0.0001332181640625
 10
2.410443481789025
 20
3.287077019844617
 10
2.420434844093716
 20
3.227128846016491
  0
LWPOLYLINE
  5
4D8
330
18
100
AcDbEntity
  8
TEXT
100
AcDbPolyline
 90
        2
 70
     0
 43
0.0001332181640625
 10
2.420434844093716
 20
3.240450662422738
 10
2.410443481789025
 20
3.313720652657118
  0
LWPOLYLINE
  5
4D9
330
18
100
AcDbEntity
  8
TEXT
100
AcDbPolyline
 90
        2
 70
     0
 43
0.0006660908203125
 10
2.410443481789025
 20
3.287077019844617
 10
2.410443481789025
 20
3.313720652657118
  0
LWPOLYLINE
  5
4DA
330
18
100
AcDbEntity
  8
TEXT
100
AcDbPolyline
 90
        2
 70
     0
 43
0.0006660908203125
 10
2.537000737648402
 20
3.20048521320399
 10
2.563644370460903
 20
3.20048521320399
  0
LWPOLYLINE
  5
4DB
330
18
100
AcDbEntity
  8
TEXT
100
AcDbPolyline
 90
        2
 70
     0
 43
0.0
 10
3.282424291209533
 20
3.098798961883532
 42
0.3318488747599744
 10
3.351543583774846
 20
3.047247619668604
 42
-6.868794160588311
  0
LINE
  5
4DC
330
18
100
AcDbEntity
  8
TEXT
100
AcDbLine
 10
3.35040401027865
 20
3.381732130395925
 30
0.0
 11
3.283595297712285
 21
3.381732130395925
 31
0.0
  0
LINE
  5
4DD
330
18
100
AcDbEntity
  8
TEXT
100
AcDbLine
 10
3.004252930093191
 20
3.313720652657115
 30
0.0
 11
2.82852117719468
 21
3.313720652657115
 31
0.0
  0
ARC
  5
4DE
330
18
100
AcDbEntity
  8
TEXT
100
AcDbCircle
 10
2.89935864355323
 20
3.130443428029161
 30
0.0
 40
0.0831958083605586
100
AcDbArc
 50
270.0
 51
90.0
  0
LINE
  5
4DF
330
18
100
AcDbEntity
  8
TEXT
100
AcDbLine
 10
2.833758507308928
 20
3.249443958000349
 30
0.0
 11
3.000664161337899
 21
3.249443958000349
 31
0.0
  0
LINE
  5
4E0
330
18
100
AcDbEntity
  8
TEXT
100
AcDbLine
 10
2.904299017459509
 20
3.115604626002043
 30
0.0
 11
2.746433717748175
 21
3.115604626002043
 31
0.0
  0
LINE
  5
4E1
330
18
100
AcDbEntity
  8
TEXT
100
AcDbLine
 10
2.746433717748177
 20
3.047247619668604
 30
0.0
 11
2.899358643553229
 21
3.047247619668604
 31
0.0
  0
ARC
  5
4E2
330
18
100
AcDbEntity
  8
TEXT
100
AcDbCircle
 10
2.82852117719468
 20
3.231633193210613
 30
0.0
 40
0.0820874594465043
100
AcDbArc
 50
90.0
 51
270.0
  0
LINE
  5
4E3
330
18
100
AcDbEntity
  8
TEXT
100
AcDbLine
 10
2.746433717748175
 20
3.115604626002043
 30
0.0
 11
2.746433717748177
 21
3.047247619668604
 31
0.0
  0
LINE
  5
4E4
330
18
100
AcDbEntity
  8
TEXT
100
AcDbLine
 10
2.82852117719468
 20
3.149545733764107
 30
0.0
 11
2.904299017459509
 21
3.149545733764107
 31
0.0
  0
ARC
  5
4E5
330
18
100
AcDbEntity
  8
TEXT
100
AcDbCircle
 10
2.904299017459509
 20
3.132575179883077
 30
0.0
 40
0.0169705538810321
100
AcDbArc
 50
270.0
 51
90.0
  0
LINE
  5
4E6
330
18
100
AcDbEntity
  8
TEXT
100
AcDbLine
 10
2.899358643553229
 20
3.213639236389721
 30
0.0
 11
2.833758507308928
 21
3.213639236389721
 31
0.0
  0
ARC
  5
4E7
330
18
100
AcDbEntity
  8
TEXT
100
AcDbCircle
 10
2.833758507308928
 20
3.231541597195037
 30
0.0
 40
0.017902360805315
100
AcDbArc
 50
90.0
 51
270.0
  0
LINE
  5
4E8
330
18
100
AcDbEntity
  8
TEXT
100
AcDbLine
 10
3.194724822113044
 20
3.212848656543994
 30
0.0
 11
3.136094501081106
 21
3.313720652657115
 31
0.0
  0
LINE
  5
4E9
330
18
100
AcDbEntity
  8
TEXT
100
AcDbLine
 10
3.054550768818004
 20
3.047247619668604
 30
0.0
 11
3.151191019892999
 21
3.047518258766886
 31
0.0
  0
LWPOLYLINE
  5
4EA
330
18
100
AcDbEntity
  8
TEXT
100
AcDbPolyline
 90
        6
 70
     1
 43
0.0
 10
3.097074572393154
 20
3.249443958000349
 10
3.066757978172946
 20
3.249443958000349
 10
3.066757978172946
 20
3.126332959945455
 42
0.407328721240804
 10
3.078301629334422
 20
3.114514045269069
 10
3.138923328379153
 20
3.114514045269069
 10
3.156388668786471
 20
3.147326274312548
  0
LINE
  5
4EB
330
18
100
AcDbEntity
  8
TEXT
100
AcDbLine
 10
3.000664161337899
 20
3.249443958000349
 30
0.0
 11
3.000664161337899
 21
3.107040011006653
 31
0.0
  0
ARC
  5
4EC
330
18
100
AcDbEntity
  8
TEXT
100
AcDbCircle
 10
3.060780179311651
 20
3.107040011006653
 30
0.0
 40
0.0601160179737537
100
AcDbArc
 50
180.0000000000003
 51
264.0521544866073
  0
LINE
  5
4ED
330
18
100
AcDbEntity
  8
TEXT
100
AcDbLine
 10
3.064295534937198
 20
3.348108570251253
 30
0.0
 11
3.004252930093191
 21
3.348108570251253
 31
0.0
  0
LINE
  5
4EE
330
18
100
AcDbEntity
  8
TEXT
100
AcDbLine
 10
3.004252930093191
 20
3.348108570251253
 30
0.0
 11
3.004252930093191
 21
3.313720652657115
 31
0.0
  0
LINE
  5
4EF
330
18
100
AcDbEntity
  8
TEXT
100
AcDbLine
 10
3.064295534937198
 20
3.313720652657115
 30
0.0
 11
3.064295534937198
 21
3.348108570251253
 31
0.0
  0
LINE
  5
4F0
330
18
100
AcDbEntity
  8
TEXT
100
AcDbLine
 10
3.136094501081106
 20
3.313720652657115
 30
0.0
 11
3.064295534937198
 21
3.313720652657115
 31
0.0
  0
LINE
  5
4F1
330
18
100
AcDbEntity
  8
TEXT
100
AcDbLine
 10
3.185124585116089
 20
3.067206125773616
 30
0.0
 11
3.282424291209534
 21
3.231556336708885
 31
0.0
  0
LINE
  5
4F2
330
18
100
AcDbEntity
  8
TEXT
100
AcDbLine
 10
3.282424291209534
 20
3.231556336708885
 30
0.0
 11
3.282424291209534
 21
3.098798961883528
 31
0.0
  0
ARC
  5
4F3
330
18
100
AcDbEntity
  8
TEXT
100
AcDbCircle
 10
3.151081025203876
 20
3.086795341942299
 30
0.0
 40
0.0392772371940762
100
AcDbArc
 50
270.1604552698595
 51
330.0831797321295
  0
LINE
  5
4F4
330
18
100
AcDbEntity
  8
TEXT
100
AcDbLine
 10
3.253473384918909
 20
3.313720652657115
 30
0.0
 11
3.194724822113044
 21
3.212848656543994
 31
0.0
  0
LINE
  5
4F5
330
18
100
AcDbEntity
  8
TEXT
100
AcDbLine
 10
3.283595297712285
 20
3.381732130395925
 30
0.0
 11
3.283595297712285
 21
3.313720652657115
 31
0.0
  0
LINE
  5
4F6
330
18
100
AcDbEntity
  8
TEXT
100
AcDbLine
 10
3.283595297712285
 20
3.313720652657115
 30
0.0
 11
3.253473384918909
 21
3.313720652657115
 31
0.0
  0
LWPOLYLINE
  5
4F7
330
18
100
AcDbEntity
  8
TEXT
100
AcDbPolyline
 90
        4
 70
     0
 43
0.0
 10
3.635681419332444
 20
3.241890168834239
 10
3.635681419332444
 20
3.047247619668604
 10
3.704159702620302
 20
3.047247619668604
 10
3.704159702620302
 20
3.090738564619042
 42
-1.714843617202739
  0
LWPOLYLINE
  5
4F8
330
18
100
AcDbEntity
  8
TEXT
100
AcDbPolyline
 90
        2
 70
     0
 43
0.0
 10
3.670815769876654
 20
3.313720652657118
 42
-0.3277054968067132
 10
3.706597460589819
 20
3.285398106887474
 42
6.667889725900311
  0
LWPOLYLINE
  5
4F9
330
18
100
AcDbEntity
  8
TEXT
100
AcDbPolyline
 90
        2
 70
     0
 43
0.0
 10
3.499382197297427
 20
3.249443958000349
 42
-0.4142135623731017
 10
3.50693598646354
 20
3.241890168834239
 42
-0.9999999999999998
  0
LINE
  5
4FA
330
18
100
AcDbEntity
  8
TEXT
100
AcDbLine
 10
3.516733920347447
 20
3.313720652657115
 30
0.0
 11
3.382715864416311
 21
3.313720652657115
 31
0.0
  0
LINE
  5
4FB
330
18
100
AcDbEntity
  8
TEXT
100
AcDbLine
 10
3.44954691747428
 20
3.047247619668604
 30
0.0
 11
3.44954691747428
 21
3.249443958000349
 31
0.0
  0
LINE
  5
4FC
330
18
100
AcDbEntity
  8
TEXT
100
AcDbLine
 10
3.382715864416311
 20
3.313720652657115
 30
0.0
 11
3.382715864416311
 21
3.112856445924706
 31
0.0
  0
LINE
  5
4FD
330
18
100
AcDbEntity
  8
TEXT
100
AcDbLine
 10
3.35040401027865
 20
3.129635457771603
 30
0.0
 11
3.35040401027865
 21
3.381732130395925
 31
0.0
  0
LINE
  5
4FE
330
18
100
AcDbEntity
  8
TEXT
100
AcDbLine
 10
3.351543583774845
 20
3.047247619668604
 30
0.0
 11
3.44954691747428
 21
3.047247619668604
 31
0.0
  0
LINE
  5
4FF
330
18
100
AcDbEntity
  8
TEXT
100
AcDbLine
 10
3.382715864416311
 20
3.112856445924706
 30
0.0
 11
3.365722227531709
 21
3.112856445924706
 31
0.0
  0
ARC
  5
500
330
18
100
AcDbEntity
  8
TEXT
100
AcDbCircle
 10
3.365722227531708
 20
3.128238252168132
 30
0.0
 40
0.0153818062434269
100
AcDbArc
 50
174.7883570302258
 51
270.0
  0
LINE
  5
501
330
18
100
AcDbEntity
  8
TEXT
100
AcDbLine
 10
3.44954691747428
 20
3.249443958000349
 30
0.0
 11
3.499382197297427
 21
3.249443958000349
 31
0.0
  0
LINE
  5
502
330
18
100
AcDbEntity
  8
TEXT
100
AcDbLine
 10
3.506935986463541
 20
3.241890168834239
 30
0.0
 11
3.506935986463541
 21
3.047247619668604
 31
0.0
  0
LINE
  5
503
330
18
100
AcDbEntity
  8
TEXT
100
AcDbLine
 10
3.573994033245381
 20
3.047247619668604
 30
0.0
 11
3.573994033245381
 21
3.249443958000349
 31
0.0
  0
LINE
  5
504
330
18
100
AcDbEntity
  8
TEXT
100
AcDbLine
 10
3.506935986463541
 20
3.047247619668604
 30
0.0
 11
3.573994033245381
 21
3.047247619668604
 31
0.0
  0
LWPOLYLINE
  5
505
330
18
100
AcDbEntity
  8
TEXT
100
AcDbPolyline
 90
        3
 70
     0
 43
0.0
 10
3.670815769876654
 20
3.313720652657118
 10
3.552515611060609
 20
3.313720652657118
 10
3.552515611060609
 20
3.286553155896222
 42
-1.960274751411753
  0
LINE
  5
506
330
18
100
AcDbEntity
  8
TEXT
100
AcDbLine
 10
3.573994033245381
 20
3.249443958000349
 30
0.0
 11
3.628127630166331
 21
3.249443958000349
 31
0.0
  0
LWPOLYLINE
  5
507
330
18
100
AcDbEntity
  8
TEXT
100
AcDbPolyline
 90
        2
 70
     0
 43
0.0
 10
3.516733920347448
 20
3.313720652657118
 42
-0.3328679258950098
 10
3.552515611060609
 20
3.286553155896222
 42
6.772930709997214
  0
LWPOLYLINE
  5
508
330
18
100
AcDbEntity
  8
TEXT
100
AcDbPolyline
 90
        2
 70
     0
 43
0.0
 10
3.62812763016633
 20
3.249443958000349
 42
-0.4142135623731017
 10
3.635681419332444
 20
3.241890168834239
 42
-0.9999999999999998
  0
ARC
  5
509
330
18
100
AcDbEntity
  8
TEXT
100
AcDbCircle
 10
3.83940243002981
 20
3.272137085536212
 30
0.0
 40
0.0416329381542859
100
AcDbArc
 50
26.56974201007528
 51
87.20939649401342
  0
LWPOLYLINE
  5
50A
330
18
100
AcDbEntity
  8
TEXT
100
AcDbPolyline
 90
        2
 70
     0
 43
0.0
 10
3.747235635487937
 20
3.047247619668604
 10
3.881253053119314
 20
3.047247619668604
 42
0.9999999999999998
  0
LWPOLYLINE
  5
50B
330
18
100
AcDbEntity
  8
TEXT
100
AcDbPolyline
 90
        4
 70
     1
 43
0.0
 10
3.861130588049421
 20
3.150211597652629
 10
3.772470269389563
 20
3.150211597652629
 42
0.9999999999999998
 10
3.772470269389563
 20
3.107813057148768
 10
3.861130588049421
 20
3.107813057148768
 42
1.0
  0
LWPOLYLINE
  5
50C
330
18
100
AcDbEntity
  8
TEXT
100
AcDbPolyline
 90
        2
 70
     0
 43
0.0
 10
3.704159702620302
 20
3.090738564619042
 42
0.2901071551932823
 10
3.747235635487937
 20
3.047247619668604
 42
5.328517124445801
  0
LINE
  5
50D
330
18
100
AcDbEntity
  8
TEXT
100
AcDbLine
 10
3.841429369806879
 20
3.313720652657115
 30
0.0
 11
3.706597460589819
 21
3.313720652657115
 31
0.0
  0
LINE
  5
50E
330
18
100
AcDbEntity
  8
TEXT
100
AcDbLine
 10
3.765911556983138
 20
3.212168984538217
 30
0.0
 11
3.848199546766521
 21
3.212168984538217
 31
0.0
  0
LINE
  5
50F
330
18
100
AcDbEntity
  8
TEXT
100
AcDbLine
 10
3.8123984714624
 20
3.249443958000349
 30
0.0
 11
3.705192198075111
 21
3.249443958000349
 31
0.0
  0
LINE
  5
510
330
18
100
AcDbEntity
  8
TEXT
100
AcDbLine
 10
3.706597460589819
 20
3.313720652657115
 30
0.0
 11
3.706597460589819
 21
3.285398106887471
 31
0.0
  0
ARC
  5
511
330
18
100
AcDbEntity
  8
TEXT
100
AcDbCircle
 10
3.765911556983137
 20
3.144483403394098
 30
0.0
 40
0.0676855811441166
100
AcDbArc
 50
90.0
 51
153.7768192527749
  0
LINE
  5
512
330
18
100
AcDbEntity
  8
TEXT
100
AcDbLine
 10
3.705192198075111
 20
3.249443958000349
 30
0.0
 11
3.705192198075111
 21
3.174391551926142
 31
0.0
  0
LINE
  5
513
330
18
100
AcDbEntity
  8
TEXT
100
AcDbLine
 10
3.848199546766521
 20
3.212168984538217
 30
0.0
 11
3.837934786352957
 21
3.233419524110911
 31
0.0
  0
ARC
  5
514
330
18
100
AcDbEntity
  8
TEXT
100
AcDbCircle
 10
3.812398471462399
 20
3.221084583000352
 30
0.0
 40
0.028359375
100
AcDbArc
 50
25.78218179591245
 51
90.0
  0
LINE
  5
515
330
18
100
AcDbEntity
  8
TEXT
100
AcDbLine
 10
3.982684199822293
 20
3.047247619668604
 30
0.0
 11
3.982684199822288
 21
3.224538125100072
 31
0.0
  0
LWPOLYLINE
  5
516
330
18
100
AcDbEntity
  8
TEXT
100
AcDbPolyline
 90
        2
 70
     0
 43
0.0
 10
3.924328985986958
 20
3.047247619668604
 10
3.982684199822292
 20
3.047247619668604
  0
LWPOLYLINE
  5
517
330
18
100
AcDbEntity
  8
TEXT
100
AcDbPolyline
 90
        2
 70
     0
 43
0.0
 10
3.924328985986958
 20
3.090738564619042
 42
-0.2901071551932486
 10
3.881253053119314
 20
3.047247619668604
 42
-5.328517124445184
  0
LWPOLYLINE
  5
518
330
18
100
AcDbEntity
  8
TEXT
100
AcDbPolyline
 90
        2
 70
     0
 43
0.0
 10
3.924328985986958
 20
3.090738564619042
 10
3.924328985986958
 20
3.047247619668604
  0
LINE
  5
519
330
18
100
AcDbEntity
  8
TEXT
100
AcDbLine
 10
3.984286214981421
 20
3.313720652657115
 30
0.0
 11
3.92038930868192
 21
3.313720652657115
 31
0.0
  0
LINE
  5
51A
330
18
100
AcDbEntity
  8
TEXT
100
AcDbLine
 10
3.92038930868192
 20
3.313720652657115
 30
0.0
 11
3.92038930868192
 21
3.208508674103687
 31
0.0
  0
LINE
  5
51B
330
18
100
AcDbEntity
  8
TEXT
100
AcDbLine
 10
3.92038930868192
 20
3.208508674103687
 30
0.0
 11
3.876638537500018
 21
3.290758950099832
 31
0.0
  0
ARC
  5
51C
330
18
100
AcDbEntity
  8
TEXT
100
AcDbCircle
 10
4.007590075104952
 20
3.224538082717686
 30
0.0
 40
0.0249058752826653
100
AcDbArc
 50
89.99971217465335
 51
179.9999999999985
  0
ARC
  5
51D
330
18
100
AcDbEntity
  8
TEXT
100
AcDbCircle
 10
4.015479032044529
 20
3.28247492537485
 30
0.0
 40
0.0314112657011332
100
AcDbArc
 50
95.88484768694724
 51
173.2388340632136
  0
LINE
  5
51E
330
18
100
AcDbEntity
  8
TEXT
100
AcDbLine
 10
3.984286214981421
 20
3.28617300279624
 30
0.0
 11
3.984286214981421
 21
3.313720652657115
 31
0.0
  0
TEXT
  5
51F
330
18
100
AcDbEntity
  8
TEXT
100
AcDbText
 10
4.453161734403211
 20
3.1401334283141
 30
0.0
 40
0.0522247191011236
  1
Minneapolis, MN 55432-0008
 41
1.11444212721585
 72
     5
 11
5.782094318672875
 21
3.1401334283141
 31
0.0
100
AcDbText
  0
TEXT
  5
520
330
18
100
AcDbEntity
  8
TEXT
100
AcDbText
 10
4.453161734403211
 20
3.233391855280392
 30
0.0
 40
0.0522247191011236
  1
6536 Main St. N.E. * P.O. Box 32008
 41
0.8388932496075369
 72
     5
 11
5.782094318672875
 21
3.233391855280392
 31
0.0
100
AcDbText
  0
TEXT
  5
521
330
18
100
AcDbEntity
  8
TEXT
100
AcDbText
 10
4.453161734403211
 20
3.326650282246684
 30
0.0
 40
0.0522247191011236
  1
Stylmark  Incorporated
 41
1.221428571428571
 72
     5
 11
5.782094318672875
 21
3.326650282246684
 31
0.0
100
AcDbText
  0
TEXT
  5
522
330
18
100
AcDbEntity
  8
TEXT
100
AcDbText
 10
4.453161734403211
 20
3.046875001347808
 30
0.0
 40
0.0522247191011236
  1
Phone  1-800-328-2495
 41
1.272321428571429
 72
     5
 11
5.782094318672875
 21
3.046875001347808
 31
0.0
100
AcDbText
  0
LINE
  5
523
330
18
100
AcDbEntity
  8
TEXT
100
AcDbLine
 10
4.205605922940196
 20
3.203827409716141
 30
0.0
 11
4.270163038905901
 21
3.313720652657115
 31
0.0
  0
LINE
  5
524
330
18
100
AcDbEntity
  8
TEXT
100
AcDbLine
 10
4.270163038905901
 20
3.313720652657115
 30
0.0
 11
4.195171206176275
 21
3.313720652657115
 31
0.0
  0
LINE
  5
525
330
18
100
AcDbEntity
  8
TEXT
100
AcDbLine
 10
4.224519773927601
 20
3.047247619668604
 30
0.0
 11
4.301098146303806
 21
3.047247619668604
 31
0.0
  0
LINE
  5
526
330
18
100
AcDbEntity
  8
TEXT
100
AcDbLine
 10
4.301098146303806
 20
3.047247619668604
 30
0.0
 11
4.205605922940196
 21
3.203827409716141
 31
0.0
  0
LINE
  5
527
330
18
100
AcDbEntity
  8
TEXT
100
AcDbLine
 10
4.148616240716136
 20
3.047247619668604
 30
0.0
 11
4.148616240716136
 21
3.178827188144784
 31
0.0
  0
LINE
  5
528
330
18
100
AcDbEntity
  8
TEXT
100
AcDbLine
 10
4.148616240716136
 20
3.178827188144784
 30
0.0
 11
4.224519773927601
 21
3.047247619668604
 31
0.0
  0
LINE
  5
529
330
18
100
AcDbEntity
  8
TEXT
100
AcDbLine
 10
4.08423805639751
 20
3.249443958000349
 30
0.0
 11
4.084238056397516
 21
3.047247619668604
 31
0.0
  0
LINE
  5
52A
330
18
100
AcDbEntity
  8
TEXT
100
AcDbLine
 10
4.084238056397516
 20
3.047247619668604
 30
0.0
 11
4.148616240716136
 21
3.047247619668604
 31
0.0
  0
LINE
  5
52B
330
18
100
AcDbEntity
  8
TEXT
100
AcDbLine
 10
4.148073047620289
 20
3.379184858424715
 30
0.0
 11
4.079758169071015
 21
3.379184858424715
 31
0.0
  0
LINE
  5
52C
330
18
100
AcDbEntity
  8
TEXT
100
AcDbLine
 10
4.079758169071015
 20
3.379184858424715
 30
0.0
 11
4.07975816907101
 21
3.313720652657115
 31
0.0
  0
LINE
  5
52D
330
18
100
AcDbEntity
  8
TEXT
100
AcDbLine
 10
4.195171206176273
 20
3.313720652657115
 30
0.0
 11
4.148073047620289
 21
3.237855326245576
 31
0.0
  0
LINE
  5
52E
330
18
100
AcDbEntity
  8
TEXT
100
AcDbLine
 10
4.148073047620289
 20
3.237855326245576
 30
0.0
 11
4.148073047620289
 21
3.379184858424715
 31
0.0
  0
ENDSEC
  0
SECTION
  2
OBJECTS
  0
DICTIONARY
  5
C
330
0
100
AcDbDictionary
  3
ACAD_GROUP
350
D
  3
ACAD_LAYOUT
350
533
  3
ACAD_MLINESTYLE
350
E
  3
ACAD_PLOTSETTINGS
350
534
  3
ACAD_PLOTSTYLENAME
350
531
  3
ACDBHEADERROUNDTRIPXREC
350
53F
  3
ACDBVARIABLEDICTIONARY
350
53C
  0
DICTIONARY
  5
561
330
18
100
AcDbDictionary
280
     1
  3
ACAD_LAYOUTSELFREF
360
562
  0
DICTIONARY
  5
55F
330
15
100
AcDbDictionary
280
     1
  3
ACAD_LAYOUTSELFREF
360
560
  0
DICTIONARY
  5
D
102
{ACAD_REACTORS
330
C
102
}
330
C
100
AcDbDictionary
  0
DICTIONARY
  5
533
102
{ACAD_REACTORS
330
C
102
}
330
C
100
AcDbDictionary
  0
DICTIONARY
  5
E
102
{ACAD_REACTORS
330
C
102
}
330
C
100
AcDbDictionary
  3
STANDARD
350
1B
  0
DICTIONARY
  5
534
102
{ACAD_REACTORS
330
C
102
}
330
C
100
AcDbDictionary
  0
ACDBDICTIONARYWDFLT
  5
531
102
{ACAD_REACTORS
330
C
102
}
330
C
100
AcDbDictionary
281
     1
  3
Normal
350
532
100
AcDbDictionaryWithDefault
340
532
  0
DICTIONARY
  5
53F
102
{ACAD_REACTORS
330
C
102
}
330
C
100
AcDbDictionary
  3
CEPSNTYPE
350
549
  3
FINGERPRINTGUID
350
54A
  3
HYPERLINKBASE
350
542
  3
INSUNITS
350
548
  3
LAYOUTDICT
350
544
  3
LWETCUNION
350
547
  3
PLOTSETDICT
350
545
  3
PLOTSTYLNAMDICT
350
546
  3
PSVPSCALE
350
54C
  3
PUCSBASE
350
54F
  3
PUCSORGBACK
350
555
  3
PUCSORGBOTTOM
350
551
  3
PUCSORGFRONT
350
554
  3
PUCSORGLEFT
350
552
  3
PUCSORGRIGHT
350
553
  3
PUCSORGTOP
350
550
  3
PUCSORTHOREF
350
54D
  3
PUCSORTHOVIEW
350
54E
  3
STYLESHEET
350
543
  3
TSTACKALIGN
350
540
  3
TSTACKSIZE
350
541
  3
UCSBASE
350
558
  3
UCSORGBACK
350
55E
  3
UCSORGBOTTOM
350
55A
  3
UCSORGFRONT
350
55D
  3
UCSORGLEFT
350
55B
  3
UCSORGRIGHT
350
55C
  3
UCSORGTOP
350
559
  3
UCSORTHOREF
350
556
  3
UCSORTHOVIEW
350
557
  3
VERSIONGUID
350
54B
  0
DICTIONARY
  5
53C
102
{ACAD_REACTORS
330
C
102
}
330
C
100
AcDbDictionary
  3
DIMASSOC
350
53D
  0
XRECORD
  5
562
102
{ACAD_REACTORS
330
561
102
}
330
561
100
AcDbXrecord
340
18
  0
XRECORD
  5
560
102
{ACAD_REACTORS
330
55F
102
}
330
55F
100
AcDbXrecord
340
15
  0
MLINESTYLE
  5
1B
102
{ACAD_REACTORS
330
E
102
}
330
E
100
AcDbMlineStyle
  2
STANDARD
 70
     0
  3

 62
     0
 51
90.0
 52
90.0
 71
     2
 49
0.5
 62
   256
  6
BYLAYER
 49
-0.5
 62
   256
  6
BYLAYER
  0
ACDBPLACEHOLDER
  5
532
102
{ACAD_REACTORS
330
531
102
}
330
531
100
AcDbPlaceHolder
280
     0
  0
XRECORD
  5
549
102
{ACAD_REACTORS
330
53F
102
}
330
53F
100
AcDbXrecord
 90
        0
  0
XRECORD
  5
54A
102
{ACAD_REACTORS
330
53F
102
}
330
53F
100
AcDbXrecord
  1
{583E7860-8DB6-11D6-88E6-0090279574E7}
  0
XRECORD
  5
542
102
{ACAD_REACTORS
330
53F
102
}
330
53F
100
AcDbXrecord
  1

  0
XRECORD
  5
548
102
{ACAD_REACTORS
330
53F
102
}
330
53F
100
AcDbXrecord
 90
        0
  0
XRECORD
  5
544
102
{ACAD_REACTORS
330
53F
102
}
330
53F
100
AcDbXrecord
340
533
  0
XRECORD
  5
547
102
{ACAD_REACTORS
330
53F
102
}
330
53F
100
AcDbXrecord
 90
    14877
  0
XRECORD
  5
545
102
{ACAD_REACTORS
330
53F
102
}
330
53F
100
AcDbXrecord
340
534
  0
XRECORD
  5
546
102
{ACAD_REACTORS
330
53F
102
}
330
53F
100
AcDbXrecord
340
531
  0
XRECORD
  5
54C
102
{ACAD_REACTORS
330
53F
102
}
330
53F
100
AcDbXrecord
 40
0.0
  0
XRECORD
  5
54F
102
{ACAD_REACTORS
330
53F
102
}
330
53F
100
AcDbXrecord
340
0
  0
XRECORD
  5
555
102
{ACAD_REACTORS
330
53F
102
}
330
53F
100
AcDbXrecord
 10
0.0
 20
0.0
 30
0.0
  0
XRECORD
  5
551
102
{ACAD_REACTORS
330
53F
102
}
330
53F
100
AcDbXrecord
 10
0.0
 20
0.0
 30
0.0
  0
XRECORD
  5
554
102
{ACAD_REACTORS
330
53F
102
}
330
53F
100
AcDbXrecord
 10
0.0
 20
0.0
 30
0.0
  0
XRECORD
  5
552
102
{ACAD_REACTORS
330
53F
102
}
330
53F
100
AcDbXrecord
 10
0.0
 20
0.0
 30
0.0
  0
XRECORD
  5
553
102
{ACAD_REACTORS
330
53F
102
}
330
53F
100
AcDbXrecord
 10
0.0
 20
0.0
 30
0.0
  0
XRECORD
  5
550
102
{ACAD_REACTORS
330
53F
102
}
330
53F
100
AcDbXrecord
 10
0.0
 20
0.0
 30
0.0
  0
XRECORD
  5
54D
102
{ACAD_REACTORS
330
53F
102
}
330
53F
100
AcDbXrecord
340
0
  0
XRECORD
  5
54E
102
{ACAD_REACTORS
330
53F
102
}
330
53F
100
AcDbXrecord
 70
     0
  0
XRECORD
  5
543
102
{ACAD_REACTORS
330
53F
102
}
330
53F
100
AcDbXrecord
  1

  0
XRECORD
  5
540
102
{ACAD_REACTORS
330
53F
102
}
330
53F
100
AcDbXrecord
 90
        1
  0
XRECORD
  5
541
102
{ACAD_REACTORS
330
53F
102
}
330
53F
100
AcDbXrecord
 90
       70
  0
XRECORD
  5
558
102
{ACAD_REACTORS
330
53F
102
}
330
53F
100
AcDbXrecord
340
0
  0
XRECORD
  5
55E
102
{ACAD_REACTORS
330
53F
102
}
330
53F
100
AcDbXrecord
 10
0.0
 20
0.0
 30
0.0
  0
XRECORD
  5
55A
102
{ACAD_REACTORS
330
53F
102
}
330
53F
100
AcDbXrecord
 10
0.0
 20
0.0
 30
0.0
  0
XRECORD
  5
55D
102
{ACAD_REACTORS
330
53F
102
}
330
53F
100
AcDbXrecord
 10
0.0
 20
0.0
 30
0.0
  0
XRECORD
  5
55B
102
{ACAD_REACTORS
330
53F
102
}
330
53F
100
AcDbXrecord
 10
0.0
 20
0.0
 30
0.0
  0
XRECORD
  5
55C
102
{ACAD_REACTORS
330
53F
102
}
330
53F
100
AcDbXrecord
 10
0.0
 20
0.0
 30
0.0
  0
XRECORD
  5
559
102
{ACAD_REACTORS
330
53F
102
}
330
53F
100
AcDbXrecord
 10
0.0
 20
0.0
 30
0.0
  0
XRECORD
  5
556
102
{ACAD_REACTORS
330
53F
102
}
330
53F
100
AcDbXrecord
340
0
  0
XRECORD
  5
557
102
{ACAD_REACTORS
330
53F
102
}
330
53F
100
AcDbXrecord
 70
     0
  0
XRECORD
  5
54B
102
{ACAD_REACTORS
330
53F
102
}
330
53F
100
AcDbXrecord
  1
{583E7862-8DB6-11D6-88E6-0090279574E7}
  0
DICTIONARYVAR
  5
53D
102
{ACAD_REACTORS
330
53C
102
}
330
53C
100
DictionaryVariables
280
     0
  1
1
  0
ENDSEC
  0
EOF
