  0
SECTION
  2
HEADER
  9
$ACADVER
  1
AC1014
  9
$ACADMAINTVER
 70
     9
  9
$DWGCODEPAGE
  3
ANSI_1252
  9
$INSBASE
 10
5.89559872547754
 20
5.554498561967554
 30
0.0
  9
$EXTMIN
 10
4.509283706352745
 20
3.591661551115687
 30
0.0
  9
$EXTMAX
 10
7.994503028099879
 20
7.496417249202385
 30
0.0
  9
$LIMMIN
 10
0.0
 20
0.0
  9
$LIMMAX
 10
18.0
 20
12.0
  9
$ORTHOMODE
 70
     1
  9
$REGENMODE
 70
     1
  9
$FILLMODE
 70
     1
  9
$QTEXTMODE
 70
     0
  9
$MIRRTEXT
 70
     0
  9
$DRAGMODE
 70
     2
  9
$LTSCALE
 40
1.0
  9
$OSMODE
 70
    39
  9
$ATTMODE
 70
     1
  9
$TEXTSIZE
 40
0.125
  9
$TRACEWID
 40
0.05
  9
$TEXTSTYLE
  7
ROMANS
  9
$CLAYER
  8
0
  9
$CELTYPE
  6
BYLAYER
  9
$CECOLOR
 62
   256
  9
$CELTSCALE
 40
1.0
  9
$DELOBJ
 70
     1
  9
$DISPSILH
 70
     1
  9
$DIMSCALE
 40
1.0
  9
$DIMASZ
 40
0.125
  9
$DIMEXO
 40
0.125
  9
$DIMDLI
 40
0.375
  9
$DIMRND
 40
0.0
  9
$DIMDLE
 40
0.0
  9
$DIMEXE
 40
0.125
  9
$DIMTP
 40
0.0
  9
$DIMTM
 40
0.0
  9
$DIMTXT
 40
0.125
  9
$DIMCEN
 40
-0.125
  9
$DIMTSZ
 40
0.0
  9
$DIMTOL
 70
     0
  9
$DIMLIM
 70
     0
  9
$DIMTIH
 70
     1
  9
$DIMTOH
 70
     1
  9
$DIMSE1
 70
     0
  9
$DIMSE2
 70
     0
  9
$DIMTAD
 70
     0
  9
$DIMZIN
 70
     4
  9
$DIMBLK
  1

  9
$DIMASO
 70
     1
  9
$DIMSHO
 70
     1
  9
$DIMPOST
  1

  9
$DIMAPOST
  1

  9
$DIMALT
 70
     0
  9
$DIMALTD
 70
     2
  9
$DIMALTF
 40
25.4
  9
$DIMLFAC
 40
1.0
  9
$DIMTOFL
 70
     0
  9
$DIMTVP
 40
0.0
  9
$DIMTIX
 70
     1
  9
$DIMSOXD
 70
     0
  9
$DIMSAH
 70
     0
  9
$DIMBLK1
  1

  9
$DIMBLK2
  1

  9
$DIMSTYLE
  2
STANDARD
  9
$DIMCLRD
 70
     0
  9
$DIMCLRE
 70
     0
  9
$DIMCLRT
 70
     0
  9
$DIMTFAC
 40
1.0
  9
$DIMGAP
 40
0.09
  9
$DIMJUST
 70
     0
  9
$DIMSD1
 70
     0
  9
$DIMSD2
 70
     0
  9
$DIMTOLJ
 70
     1
  9
$DIMTZIN
 70
     4
  9
$DIMALTZ
 70
     0
  9
$DIMALTTZ
 70
     0
  9
$DIMFIT
 70
     3
  9
$DIMUPT
 70
     0
  9
$DIMUNIT
 70
     2
  9
$DIMDEC
 70
     3
  9
$DIMTDEC
 70
     3
  9
$DIMALTU
 70
     2
  9
$DIMALTTD
 70
     2
  9
$DIMTXSTY
  7
ROMANS
  9
$DIMAUNIT
 70
     0
  9
$LUNITS
 70
     2
  9
$LUPREC
 70
     3
  9
$SKETCHINC
 40
0.1
  9
$FILLETRAD
 40
0.03125
  9
$AUNITS
 70
     0
  9
$AUPREC
 70
     0
  9
$MENU
  1
ACAD
  9
$ELEVATION
 40
0.0
  9
$PELEVATION
 40
0.0
  9
$THICKNESS
 40
0.0
  9
$LIMCHECK
 70
     0
  9
$BLIPMODE
 70
     0
  9
$CHAMFERA
 40
0.0
  9
$CHAMFERB
 40
0.0
  9
$CHAMFERC
 40
0.0
  9
$CHAMFERD
 40
0.0
  9
$SKPOLY
 70
     0
  9
$TDCREATE
 40
2448994.577030439
  9
$TDUPDATE
 40
2452458.307071145
  9
$TDINDWG
 40
0.0006182523
  9
$TDUSRTIMER
 40
0.0006182523
  9
$USRTIMER
 70
     1
  9
$ANGBASE
 50
0.0
  9
$ANGDIR
 70
     0
  9
$PDMODE
 70
     0
  9
$PDSIZE
 40
0.0
  9
$PLINEWID
 40
0.0
  9
$COORDS
 70
     2
  9
$SPLFRAME
 70
     0
  9
$SPLINETYPE
 70
     6
  9
$SPLINESEGS
 70
     8
  9
$ATTDIA
 70
     0
  9
$ATTREQ
 70
     1
  9
$HANDLING
 70
 22529
  9
$HANDSEED
  5
7DE1B343D9E423F
  9
$SURFTAB1
 70
     6
  9
$SURFTAB2
 70
     6
  9
$SURFTYPE
 70
     6
  9
$SURFU
 70
     6
  9
$SURFV
 70
     6
  9
$UCSNAME
  2

  9
$UCSORG
 10
0.0
 20
0.0
 30
0.0
  9
$UCSXDIR
 10
1.0
 20
0.0
 30
0.0
  9
$UCSYDIR
 10
0.0
 20
1.0
 30
0.0
  9
$PUCSNAME
  2

  9
$PUCSORG
 10
0.0
 20
0.0
 30
0.0
  9
$PUCSXDIR
 10
1.0
 20
0.0
 30
0.0
  9
$PUCSYDIR
 10
0.0
 20
1.0
 30
0.0
  9
$USERI1
 70
     0
  9
$USERI2
 70
     0
  9
$USERI3
 70
     0
  9
$USERI4
 70
     0
  9
$USERI5
 70
     0
  9
$USERR1
 40
0.0
  9
$USERR2
 40
0.0
  9
$USERR3
 40
0.0
  9
$USERR4
 40
0.0
  9
$USERR5
 40
0.0
  9
$WORLDVIEW
 70
     1
  9
$SHADEDGE
 70
     3
  9
$SHADEDIF
 70
    70
  9
$TILEMODE
 70
     1
  9
$MAXACTVP
 70
    16
  9
$PINSBASE
 10
6.555904640042003
 20
50.00000000000001
 30
9.121050021408388
  9
$PLIMCHECK
 70
     0
  9
$PEXTMIN
 10
1.000000000000000E+20
 20
1.000000000000000E+20
 30
1.000000000000000E+20
  9
$PEXTMAX
 10
-1.000000000000000E+20
 20
-1.000000000000000E+20
 30
-1.000000000000000E+20
  9
$PLIMMIN
 10
0.0
 20
0.0
  9
$PLIMMAX
 10
12.0
 20
9.0
  9
$UNITMODE
 70
     0
  9
$VISRETAIN
 70
     0
  9
$PLINEGEN
 70
     1
  9
$PSLTSCALE
 70
     0
  9
$TREEDEPTH
 70
  3020
  9
$PICKSTYLE
 70
     1
  9
$CMLSTYLE
  2
STANDARD
  9
$CMLJUST
 70
     0
  9
$CMLSCALE
 40
1.0
  9
$PROXYGRAPHICS
 70
     1
  9
$MEASUREMENT
 70
     0
  0
ENDSEC
  0
SECTION
  2
CLASSES
  0
CLASS
  1
LWPOLYLINE
  2
AcDbPolyline
  3
AutoCAD 2000
 90
        0
280
     0
281
     1
  0
CLASS
  1
ACDBDICTIONARYWDFLT
  2
AcDbDictionaryWithDefault
  3
AutoCAD 2000
 90
        0
280
     0
281
     0
  0
CLASS
  1
ACDBPLACEHOLDER
  2
AcDbPlaceHolder
  3
AutoCAD 2000
 90
        0
280
     0
281
     0
  0
CLASS
  1
LAYOUT
  2
AcDbLayout
  3
AutoCAD 2000
 90
        0
280
     0
281
     0
  0
CLASS
  1
DICTIONARYVAR
  2
AcDbDictionaryVar
  3
AutoCAD 2000
 90
        0
280
     0
281
     0
  0
CLASS
  1
LONG_TRANSACTION
  2
AcDbLongTransaction
  3
AutoCAD 2000
 90
        0
280
     0
281
     0
  0
CLASS
  1
LWPOLYLINE
  2
AcDbPolyline
  3
AutoCAD 2000
 90
        0
280
     0
281
     1
  0
CLASS
  1
HATCH
  2
AcDbHatch
  3
AutoCAD 2000
 90
        0
280
     0
281
     1
  0
CLASS
  1
XRECORD
  2
AcDbXrecord
  3
AutoCAD 2000
 90
        0
280
     0
281
     0
  0
ENDSEC
  0
SECTION
  2
TABLES
  0
TABLE
  2
VPORT
  5
7DE1B343D9E41E6
330
0
100
AcDbSymbolTable
 70
     2
  0
VPORT
  5
7DE1B343D9E421A
330
7DE1B343D9E41E6
100
AcDbSymbolTableRecord
100
AcDbViewportTableRecord
  2
*ACTIVE
 70
     0
 10
0.0
 20
0.0
 11
1.0
 21
1.0
 12
12.00052419876885
 22
5.544067410221401
 13
0.0
 23
0.0
 14
0.015625
 24
0.015625
 15
0.0
 25
0.0
 16
0.0
 26
0.0
 36
1.0
 17
0.0
 27
0.0
 37
0.0
 40
4.409218843807133
 41
4.320930232558139
 42
50.0
 43
0.0
 44
0.0
 50
0.0
 51
0.0
 71
     0
 72
  2000
 73
     1
 74
     0
 75
     0
 76
     0
 77
     0
 78
     0
  0
ENDTAB
  0
TABLE
  2
LTYPE
  5
7DE1B343D9E41E3
330
0
100
AcDbSymbolTable
 70
     1
  0
LTYPE
  5
7DE1B343D9E41F0
330
7DE1B343D9E41E3
100
AcDbSymbolTableRecord
100
AcDbLinetypeTableRecord
  2
BYBLOCK
 70
     0
  3

 72
    65
 73
     0
 40
0.0
  0
LTYPE
  5
7DE1B343D9E41F1
330
7DE1B343D9E41E3
100
AcDbSymbolTableRecord
100
AcDbLinetypeTableRecord
  2
BYLAYER
 70
     0
  3

 72
    65
 73
     0
 40
0.0
  0
LTYPE
  5
7DE1B343D9E41F2
330
7DE1B343D9E41E3
100
AcDbSymbolTableRecord
100
AcDbLinetypeTableRecord
  2
CONTINUOUS
 70
     0
  3
Solid line
 72
    65
 73
     0
 40
0.0
  0
ENDTAB
  0
TABLE
  2
LAYER
  5
7DE1B343D9E41E0
330
0
100
AcDbSymbolTable
 70
     2
  0
LAYER
  5
7DE1B343D9E41ED
330
7DE1B343D9E41E0
100
AcDbSymbolTableRecord
100
AcDbLayerTableRecord
  2
0
 70
     0
 62
     7
  6
CONTINUOUS
  0
LAYER
  5
7DE1B343D9E41FD
330
7DE1B343D9E41E0
100
AcDbSymbolTableRecord
100
AcDbLayerTableRecord
  2
TEXT
 70
     0
 62
     3
  6
CONTINUOUS
  0
ENDTAB
  0
TABLE
  2
STYLE
  5
7DE1B343D9E41E1
330
0
100
AcDbSymbolTable
 70
     3
  0
STYLE
  5
7DE1B343D9E41EE
330
7DE1B343D9E41E1
100
AcDbSymbolTableRecord
100
AcDbTextStyleTableRecord
  2
STANDARD
 70
     0
 40
0.0
 41
1.0
 50
0.0
 71
     0
 42
0.3125
  3
txt
  4

  0
STYLE
  5
7DE1B343D9E41FA
330
7DE1B343D9E41E1
100
AcDbSymbolTableRecord
100
AcDbTextStyleTableRecord
  2
ITALICC
 70
     0
 40
0.0
 41
1.0
 50
0.0
 71
     0
 42
0.125
  3
italicc
  4

  0
STYLE
  5
7DE1B343D9E420A
330
7DE1B343D9E41E1
100
AcDbSymbolTableRecord
100
AcDbTextStyleTableRecord
  2
ROMANS
 70
     0
 40
0.0
 41
1.0
 50
0.0
 71
     0
 42
0.125
  3
romans.shx
  4

  0
ENDTAB
  0
TABLE
  2
VIEW
  5
7DE1B343D9E41E4
330
0
100
AcDbSymbolTable
 70
     0
  0
ENDTAB
  0
TABLE
  2
UCS
  5
7DE1B343D9E41E5
330
0
100
AcDbSymbolTable
 70
     0
  0
ENDTAB
  0
TABLE
  2
APPID
  5
7DE1B343D9E41E7
330
0
100
AcDbSymbolTable
 70
     1
  0
APPID
  5
7DE1B343D9E41EF
330
7DE1B343D9E41E7
100
AcDbSymbolTableRecord
100
AcDbRegAppTableRecord
  2
ACAD
 70
     0
  0
ENDTAB
  0
TABLE
  2
DIMSTYLE
  5
7DE1B343D9E41E8
330
0
100
AcDbSymbolTable
 70
     1
  0
DIMSTYLE
105
7DE1B343D9E4202
330
7DE1B343D9E41E8
100
AcDbSymbolTableRecord
100
AcDbDimStyleTableRecord
  2
STANDARD
 70
     0
  3

  4

  5

  6

  7

 40
1.0
 41
0.125
 42
0.125
 43
0.375
 44
0.125
 45
0.0
 46
0.0
 47
0.0
 48
0.0
140
0.125
141
-0.125
142
0.0
143
25.4
144
1.0
145
0.0
146
1.0
147
0.09
 71
     0
 72
     0
 73
     1
 74
     1
 75
     0
 76
     0
 77
     0
 78
     4
170
     0
171
     2
172
     0
173
     0
174
     1
175
     0
176
     0
177
     0
178
     0
270
     2
271
     3
272
     3
273
     2
274
     2
340
7DE1B343D9E420A
275
     0
280
     0
281
     0
282
     0
283
     1
284
     4
285
     0
286
     0
287
     3
288
     0
  0
ENDTAB
  0
TABLE
  2
BLOCK_RECORD
  5
7DE1B343D9E41DF
330
0
100
AcDbSymbolTable
 70
     0
  0
BLOCK_RECORD
  5
7DE1B343D9E41F6
102
{ACAD_XDICTIONARY
360
7DE1B343D9E423D
102
}
330
7DE1B343D9E41DF
100
AcDbSymbolTableRecord
100
AcDbBlockTableRecord
  2
*MODEL_SPACE
  0
BLOCK_RECORD
  5
7DE1B343D9E41F3
102
{ACAD_XDICTIONARY
360
7DE1B343D9E423B
102
}
330
7DE1B343D9E41DF
100
AcDbSymbolTableRecord
100
AcDbBlockTableRecord
  2
*PAPER_SPACE
  0
ENDTAB
  0
ENDSEC
  0
SECTION
  2
BLOCKS
  0
BLOCK
  5
7DE1B343D9E4200
330
7DE1B343D9E41F6
100
AcDbEntity
  8
0
100
AcDbBlockBegin
  2
*MODEL_SPACE
 70
     0
 10
0.0
 20
0.0
 30
0.0
  3
*MODEL_SPACE
  1

  0
ENDBLK
  5
7DE1B343D9E4201
330
7DE1B343D9E41F6
100
AcDbEntity
  8
0
100
AcDbBlockEnd
  0
BLOCK
  5
7DE1B343D9E41FE
330
7DE1B343D9E41F3
100
AcDbEntity
 67
     1
  8
0
100
AcDbBlockBegin
  2
*PAPER_SPACE
 70
     0
 10
0.0
 20
0.0
 30
0.0
  3
*PAPER_SPACE
  1

  0
ENDBLK
  5
7DE1B343D9E41FF
330
7DE1B343D9E41F3
100
AcDbEntity
 67
     1
  8
0
100
AcDbBlockEnd
  0
ENDSEC
  0
SECTION
  2
ENTITIES
  0
LWPOLYLINE
  5
7DE1B343D9E2D88
330
7DE1B343D9E41F6
100
AcDbEntity
  8
0
100
AcDbPolyline
 90
       27
 70
     1
 43
0.0
 10
5.586509173400676
 20
6.375904547310167
 10
5.336509173400676
 20
6.23156698001276
 10
5.336509173400676
 20
5.208730898040025
 10
5.543509173400676
 20
5.145444646978082
 10
5.543509173400677
 20
4.998394243722077
 10
6.217985427681719
 20
4.792186158873048
 10
6.224624758194122
 20
4.779699394266191
 10
6.237111522800979
 20
4.786338724778594
 10
6.959719304025547
 20
4.565415355397476
 10
7.005402382888475
 20
4.7148379735167
 10
7.229536310067312
 20
4.646313355222308
 42
-0.999999999999995
 10
7.192989846976971
 20
4.526775260726929
 10
7.103336276105436
 20
4.554185108044686
 42
1.000000000000018
 10
7.075926428787679
 20
4.464531537173151
 10
7.195464523283058
 20
4.427985074082809
 42
-0.999999999999996
 10
7.177191291737885
 20
4.368216026835119
 10
5.327339279421889
 20
4.933772543158164
 42
-0.9999999999999991
 10
5.34561251096706
 20
4.993541590405854
 10
5.368025903684944
 20
4.986689128576414
 42
1.000000000000007
 10
5.390867443116408
 20
5.061400437636026
 10
5.211509173400676
 20
5.116235763661464
 10
5.211509173400676
 20
6.303735763661465
 10
5.415755997927622
 20
6.421657722783221
 10
5.211509173400676
 20
6.775423600148495
 10
5.211509173400676
 20
7.433917249202385
 42
-1.0
 10
5.336509173400676
 20
7.433917249202385
 10
5.336509173400676
 20
6.808917249202385
  0
TEXT
  5
7DE1B343D9E40A1
330
7DE1B343D9E41F6
100
AcDbEntity
  8
TEXT
100
AcDbText
 10
5.499289095103697
 20
4.049680155198268
 30
0.0
 40
0.125
  1
PART #110333
  7
ITALICC
 72
     1
 11
6.252265285579888
 21
4.049680155198268
 31
0.0
100
AcDbText
  0
TEXT
  5
7DE1B343D9E40A2
330
7DE1B343D9E41F6
100
AcDbEntity
  8
TEXT
100
AcDbText
 10
6.665570443830208
 20
3.602757512525893
 30
0.0
 40
0.0522247191011236
  1
Phone  1-800-328-2495
 41
1.272321428571429
 72
     5
 11
7.994503028099872
 21
3.602757512525893
 31
0.0
100
AcDbText
  0
TEXT
  5
7DE1B343D9E40A3
330
7DE1B343D9E41F6
100
AcDbEntity
  8
TEXT
100
AcDbText
 10
6.665570443830208
 20
3.88253279342477
 30
0.0
 40
0.0522247191011236
  1
Stylmark  Incorporated
 41
1.221428571428573
 72
     5
 11
7.994503028099872
 21
3.88253279342477
 31
0.0
100
AcDbText
  0
TEXT
  5
7DE1B343D9E40A4
330
7DE1B343D9E41F6
100
AcDbEntity
  8
TEXT
100
AcDbText
 10
6.665570443830208
 20
3.789274366458478
 30
0.0
 40
0.0522247191011236
  1
6536 Main St. N.E. * P.O. Box 32008
 41
0.8388932496075366
 72
     5
 11
7.994503028099872
 21
3.789274366458478
 31
0.0
100
AcDbText
  0
TEXT
  5
7DE1B343D9E40A5
330
7DE1B343D9E41F6
100
AcDbEntity
  8
TEXT
100
AcDbText
 10
6.665570443830208
 20
3.696015939492185
 30
0.0
 40
0.0522247191011236
  1
Minneapolis, MN 55432-0008
 41
1.11444212721585
 72
     5
 11
7.994503028099872
 21
3.696015939492185
 31
0.0
100
AcDbText
  0
LWPOLYLINE
  5
7DE1B343D9E40A6
330
7DE1B343D9E41F6
100
AcDbEntity
  8
TEXT
100
AcDbPolyline
 90
        3
 70
     0
 43
0.0006660908203125
 10
4.509616751762901
 20
3.716402275163328
 10
4.509616751762901
 20
3.6031668357102
 10
4.622852191216023
 20
3.6031668357102
  0
LWPOLYLINE
  5
7DE1B343D9E40AB
330
7DE1B343D9E41F6
100
AcDbEntity
  8
TEXT
100
AcDbPolyline
 90
        3
 70
     0
 43
0.0006660908203125
 10
4.536260384575398
 20
3.716402275163328
 10
4.536260384575398
 20
3.629810468522701
 10
4.622852191216023
 20
3.629810468522701
  0
LWPOLYLINE
  5
7DE1B343D9E40B0
330
7DE1B343D9E41F6
100
AcDbEntity
  8
TEXT
100
AcDbPolyline
 90
        2
 70
     0
 43
0.0001332181640625
 10
4.582886741997275
 20
3.726393637468013
 10
4.509616751762901
 20
3.716402275163328
  0
LWPOLYLINE
  5
7DE1B343D9E40B4
330
7DE1B343D9E41F6
100
AcDbEntity
  8
TEXT
100
AcDbPolyline
 90
        2
 70
     0
 43
0.0001332181640625
 10
4.536260384575398
 20
3.716402275163328
 10
4.596208558403525
 20
3.726393637468013
  0
LWPOLYLINE
  5
7DE1B343D9E40B8
330
7DE1B343D9E41F6
100
AcDbEntity
  8
TEXT
100
AcDbPolyline
 90
        2
 70
     0
 43
0.0001332181640625
 10
4.536260384575398
 20
3.629810468522701
 10
4.596208558403525
 20
3.689758642350827
  0
LWPOLYLINE
  5
7DE1B343D9E40BC
330
7DE1B343D9E41F6
100
AcDbEntity
  8
TEXT
100
AcDbPolyline
 90
        3
 70
     0
 43
0.0006660908203125
 10
4.622852191216023
 20
3.869603163835204
 10
4.509616751762901
 20
3.869603163835204
 10
4.509616751762901
 20
3.756367724382076
  0
LWPOLYLINE
  5
7DE1B343D9E40C1
330
7DE1B343D9E41F6
100
AcDbEntity
  8
TEXT
100
AcDbPolyline
 90
        3
 70
     0
 43
0.0006660908203125
 10
4.622852191216023
 20
3.842959531022703
 10
4.536260384575398
 20
3.842959531022703
 10
4.536260384575398
 20
3.756367724382076
  0
LWPOLYLINE
  5
7DE1B343D9E40C6
330
7DE1B343D9E41F6
100
AcDbEntity
  8
TEXT
100
AcDbPolyline
 90
        2
 70
     0
 43
0.0001332181640625
 10
4.536260384575398
 20
3.842959531022703
 10
4.596208558403524
 20
3.783011357194577
  0
LWPOLYLINE
  5
7DE1B343D9E40CA
330
7DE1B343D9E41F6
100
AcDbEntity
  8
TEXT
100
AcDbPolyline
 90
        2
 70
     0
 43
0.0001332181640625
 10
4.536260384575398
 20
3.756367724382076
 10
4.596208558403524
 20
3.746376362077387
  0
LWPOLYLINE
  5
7DE1B343D9E40CE
330
7DE1B343D9E41F6
100
AcDbEntity
  8
TEXT
100
AcDbPolyline
 90
        2
 70
     0
 43
0.0001332181640625
 10
4.509616751762901
 20
3.756367724382076
 10
4.582886741997275
 20
3.746376362077387
  0
LWPOLYLINE
  5
7DE1B343D9E40D2
330
7DE1B343D9E41F6
100
AcDbEntity
  8
TEXT
100
AcDbPolyline
 90
        2
 70
     0
 43
0.0006660908203125
 10
4.536260384575398
 20
3.716402275163328
 10
4.509616751762901
 20
3.716402275163328
  0
LWPOLYLINE
  5
7DE1B343D9E40D6
330
7DE1B343D9E41F6
100
AcDbEntity
  8
TEXT
100
AcDbPolyline
 90
        2
 70
     0
 43
0.0006660908203125
 10
4.536260384575398
 20
3.756367724382076
 10
4.509616751762901
 20
3.756367724382076
  0
LINE
  5
7DE1B343D9E40DA
330
7DE1B343D9E41F6
100
AcDbEntity
  8
TEXT
100
AcDbLine
 10
6.024807180889398
 20
3.805326469178435
 30
0.0
 11
5.917600907502109
 21
3.805326469178435
 31
0.0
  0
LINE
  5
7DE1B343D9E40DB
330
7DE1B343D9E41F6
100
AcDbEntity
  8
TEXT
100
AcDbLine
 10
6.053838079233877
 20
3.8696031638352
 30
0.0
 11
5.919006170016817
 21
3.8696031638352
 31
0.0
  0
ARC
  5
7DE1B343D9E40DC
330
7DE1B343D9E41F6
100
AcDbEntity
  8
TEXT
100
AcDbCircle
 10
5.978320266410134
 20
3.700365914572184
 30
0.0
 40
0.0676855811441166
100
AcDbArc
 50
90.0
 51
153.7768192527749
  0
LWPOLYLINE
  5
7DE1B343D9E40DD
330
7DE1B343D9E41F6
100
AcDbEntity
  8
TEXT
100
AcDbPolyline
 90
        2
 70
     0
 43
0.0
 10
5.916568412047299
 20
3.646621075797127
 42
0.2901071551932823
 10
5.959644344914934
 20
3.603130130846689
 42
5.328517124445801
  0
ARC
  5
7DE1B343D9E40E1
330
7DE1B343D9E41F6
100
AcDbEntity
  8
TEXT
100
AcDbCircle
 10
5.273188888738649
 20
3.662922522184739
 30
0.0
 40
0.0601160179737537
100
AcDbArc
 50
180.0000000000003
 51
264.0521544866073
  0
LINE
  5
7DE1B343D9E40E2
330
7DE1B343D9E41F6
100
AcDbEntity
  8
TEXT
100
AcDbLine
 10
5.276704244364196
 20
3.903991081429338
 30
0.0
 11
5.216661639520189
 21
3.903991081429338
 31
0.0
  0
ARC
  5
7DE1B343D9E40E3
330
7DE1B343D9E41F6
100
AcDbEntity
  8
TEXT
100
AcDbCircle
 10
5.040929886621678
 20
3.787515704388698
 30
0.0
 40
0.0820874594465043
100
AcDbArc
 50
90.0
 51
270.0
  0
LWPOLYLINE
  5
7DE1B343D9E40E4
330
7DE1B343D9E41F6
100
AcDbEntity
  8
TEXT
100
AcDbPolyline
 90
        2
 70
     0
 43
0.0001332181640625
 10
4.632843553520713
 20
3.796333173600824
 10
4.622852191216023
 20
3.869603163835204
  0
LWPOLYLINE
  5
7DE1B343D9E40E8
330
7DE1B343D9E41F6
100
AcDbEntity
  8
TEXT
100
AcDbPolyline
 90
        2
 70
     0
 43
0.0001332181640625
 10
4.622852191216023
 20
3.842959531022703
 10
4.632843553520713
 20
3.783011357194577
  0
LWPOLYLINE
  5
7DE1B343D9E40EC
330
7DE1B343D9E41F6
100
AcDbEntity
  8
TEXT
100
AcDbPolyline
 90
        3
 70
     0
 43
0.0006660908203125
 10
4.7760530798879
 20
3.756367724382076
 10
4.7760530798879
 20
3.869603163835204
 10
4.662817640434774
 20
3.869603163835204
  0
LWPOLYLINE
  5
7DE1B343D9E40F1
330
7DE1B343D9E41F6
100
AcDbEntity
  8
TEXT
100
AcDbPolyline
 90
        3
 70
     0
 43
0.0006660908203125
 10
4.749409447075399
 20
3.756367724382076
 10
4.749409447075399
 20
3.842959531022703
 10
4.662817640434774
 20
3.842959531022703
  0
LWPOLYLINE
  5
7DE1B343D9E40F6
330
7DE1B343D9E41F6
100
AcDbEntity
  8
TEXT
100
AcDbPolyline
 90
        2
 70
     0
 43
0.0001332181640625
 10
4.749409447075399
 20
3.842959531022703
 10
4.689461273247276
 20
3.783011357194577
  0
LWPOLYLINE
  5
7DE1B343D9E40FA
330
7DE1B343D9E41F6
100
AcDbEntity
  8
TEXT
100
AcDbPolyline
 90
        2
 70
     0
 43
0.0001332181640625
 10
4.662817640434774
 20
3.842959531022703
 10
4.652826278130086
 20
3.783011357194577
  0
LWPOLYLINE
  5
7DE1B343D9E40FE
330
7DE1B343D9E41F6
100
AcDbEntity
  8
TEXT
100
AcDbPolyline
 90
        2
 70
     0
 43
0.0001332181640625
 10
4.662817640434774
 20
3.869603163835204
 10
4.652826278130086
 20
3.796333173600824
  0
LWPOLYLINE
  5
7DE1B343D9E4102
330
7DE1B343D9E41F6
100
AcDbEntity
  8
TEXT
100
AcDbPolyline
 90
        2
 70
     0
 43
0.0001332181640625
 10
4.702783089653524
 20
3.746376362077387
 10
4.7760530798879
 20
3.756367724382076
  0
LWPOLYLINE
  5
7DE1B343D9E4106
330
7DE1B343D9E41F6
100
AcDbEntity
  8
TEXT
100
AcDbPolyline
 90
        2
 70
     0
 43
0.0001332181640625
 10
4.749409447075399
 20
3.756367724382076
 10
4.689461273247276
 20
3.746376362077387
  0
LWPOLYLINE
  5
7DE1B343D9E410A
330
7DE1B343D9E41F6
100
AcDbEntity
  8
TEXT
100
AcDbPolyline
 90
        2
 70
     0
 43
0.0001332181640625
 10
4.7760530798879
 20
3.716402275163328
 10
4.702783089653524
 20
3.726393637468013
  0
LWPOLYLINE
  5
7DE1B343D9E410E
330
7DE1B343D9E41F6
100
AcDbEntity
  8
TEXT
100
AcDbPolyline
 90
        2
 70
     0
 43
0.0001332181640625
 10
4.749409447075399
 20
3.716402275163328
 10
4.689461273247276
 20
3.726393637468013
  0
LWPOLYLINE
  5
7DE1B343D9E4112
330
7DE1B343D9E41F6
100
AcDbEntity
  8
TEXT
100
AcDbPolyline
 90
        2
 70
     0
 43
0.0001332181640625
 10
4.749409447075399
 20
3.629810468522701
 10
4.689461273247276
 20
3.689758642350827
  0
LWPOLYLINE
  5
7DE1B343D9E4116
330
7DE1B343D9E41F6
100
AcDbEntity
  8
TEXT
100
AcDbPolyline
 90
        3
 70
     0
 43
0.0006660908203125
 10
4.662817640434774
 20
3.629810468522701
 10
4.749409447075399
 20
3.629810468522701
 10
4.749409447075399
 20
3.716402275163328
  0
LWPOLYLINE
  5
7DE1B343D9E411B
330
7DE1B343D9E41F6
100
AcDbEntity
  8
TEXT
100
AcDbPolyline
 90
        3
 70
     0
 43
0.0006660908203125
 10
4.662817640434774
 20
3.6031668357102
 10
4.7760530798879
 20
3.6031668357102
 10
4.7760530798879
 20
3.716402275163328
  0
LWPOLYLINE
  5
7DE1B343D9E4120
330
7DE1B343D9E41F6
100
AcDbEntity
  8
TEXT
100
AcDbPolyline
 90
        5
 70
     0
 43
0.0001332181640625
 10
4.632843553520713
 20
3.676436825944576
 10
4.632843553520713
 20
3.689758642350827
 10
4.596208558403525
 20
3.689758642350827
 10
4.596208558403525
 20
3.726393637468013
 10
4.582886741997275
 20
3.726393637468013
  0
LWPOLYLINE
  5
7DE1B343D9E4127
330
7DE1B343D9E41F6
100
AcDbEntity
  8
TEXT
100
AcDbPolyline
 90
        2
 70
     0
 43
0.0006660908203125
 10
4.622852191216023
 20
3.629810468522701
 10
4.622852191216023
 20
3.6031668357102
  0
LWPOLYLINE
  5
7DE1B343D9E412B
330
7DE1B343D9E41F6
100
AcDbEntity
  8
TEXT
100
AcDbPolyline
 90
        2
 70
     0
 43
0.0001332181640625
 10
4.622852191216023
 20
3.629810468522701
 10
4.632843553520713
 20
3.689758642350827
  0
LWPOLYLINE
  5
7DE1B343D9E412F
330
7DE1B343D9E41F6
100
AcDbEntity
  8
TEXT
100
AcDbPolyline
 90
        2
 70
     0
 43
0.0001332181640625
 10
4.622852191216023
 20
3.6031668357102
 10
4.632843553520713
 20
3.676436825944576
  0
LWPOLYLINE
  5
7DE1B343D9E4133
330
7DE1B343D9E41F6
100
AcDbEntity
  8
TEXT
100
AcDbPolyline
 90
        5
 70
     0
 43
0.0001332181640625
 10
4.582886741997275
 20
3.746376362077387
 10
4.596208558403524
 20
3.746376362077387
 10
4.596208558403524
 20
3.783011357194577
 10
4.632843553520713
 20
3.783011357194577
 10
4.632843553520713
 20
3.796333173600824
  0
LWPOLYLINE
  5
7DE1B343D9E413A
330
7DE1B343D9E41F6
100
AcDbEntity
  8
TEXT
100
AcDbPolyline
 90
        5
 70
     0
 43
0.0001332181640625
 10
4.652826278130086
 20
3.796333173600824
 10
4.652826278130086
 20
3.783011357194577
 10
4.689461273247276
 20
3.783011357194577
 10
4.689461273247276
 20
3.746376362077387
 10
4.702783089653524
 20
3.746376362077387
  0
LWPOLYLINE
  5
7DE1B343D9E4141
330
7DE1B343D9E41F6
100
AcDbEntity
  8
TEXT
100
AcDbPolyline
 90
        2
 70
     0
 43
0.0001332181640625
 10
4.662817640434774
 20
3.629810468522701
 10
4.652826278130086
 20
3.689758642350827
  0
LWPOLYLINE
  5
7DE1B343D9E4145
330
7DE1B343D9E41F6
100
AcDbEntity
  8
TEXT
100
AcDbPolyline
 90
        2
 70
     0
 43
0.0001332181640625
 10
4.652826278130086
 20
3.676436825944576
 10
4.662817640434774
 20
3.6031668357102
  0
LWPOLYLINE
  5
7DE1B343D9E4149
330
7DE1B343D9E41F6
100
AcDbEntity
  8
TEXT
100
AcDbPolyline
 90
        2
 70
     0
 43
0.0006660908203125
 10
4.662817640434774
 20
3.629810468522701
 10
4.662817640434774
 20
3.6031668357102
  0
LWPOLYLINE
  5
7DE1B343D9E414D
330
7DE1B343D9E41F6
100
AcDbEntity
  8
TEXT
100
AcDbPolyline
 90
        5
 70
     0
 43
0.0001332181640625
 10
4.702783089653524
 20
3.726393637468013
 10
4.689461273247276
 20
3.726393637468013
 10
4.689461273247276
 20
3.689758642350827
 10
4.652826278130086
 20
3.689758642350827
 10
4.652826278130086
 20
3.676436825944576
  0
LWPOLYLINE
  5
7DE1B343D9E4154
330
7DE1B343D9E41F6
100
AcDbEntity
  8
TEXT
100
AcDbPolyline
 90
        2
 70
     0
 43
0.0006660908203125
 10
4.749409447075399
 20
3.756367724382076
 10
4.7760530798879
 20
3.756367724382076
  0
LWPOLYLINE
  5
7DE1B343D9E4158
330
7DE1B343D9E41F6
100
AcDbEntity
  8
TEXT
100
AcDbPolyline
 90
        2
 70
     0
 43
0.0006660908203125
 10
4.749409447075399
 20
3.716402275163328
 10
4.7760530798879
 20
3.716402275163328
  0
LINE
  5
7DE1B343D9E415C
330
7DE1B343D9E41F6
100
AcDbEntity
  8
TEXT
100
AcDbLine
 10
5.046167216735925
 20
3.805326469178435
 30
0.0
 11
5.213072870764897
 21
3.805326469178435
 31
0.0
  0
LINE
  5
7DE1B343D9E415D
330
7DE1B343D9E41F6
100
AcDbEntity
  8
TEXT
100
AcDbLine
 10
5.111767352980226
 20
3.769521747567807
 30
0.0
 11
5.046167216735925
 21
3.769521747567807
 31
0.0
  0
LINE
  5
7DE1B343D9E415E
330
7DE1B343D9E41F6
100
AcDbEntity
  8
TEXT
100
AcDbLine
 10
4.958842427175174
 20
3.603130130846689
 30
0.0
 11
5.111767352980226
 21
3.603130130846689
 31
0.0
  0
LINE
  5
7DE1B343D9E415F
330
7DE1B343D9E41F6
100
AcDbEntity
  8
TEXT
100
AcDbLine
 10
5.116707726886506
 20
3.671487137180128
 30
0.0
 11
4.958842427175172
 21
3.671487137180128
 31
0.0
  0
LINE
  5
7DE1B343D9E4160
330
7DE1B343D9E41F6
100
AcDbEntity
  8
TEXT
100
AcDbLine
 10
5.040929886621677
 20
3.705428244942193
 30
0.0
 11
5.116707726886506
 21
3.705428244942193
 31
0.0
  0
ARC
  5
7DE1B343D9E4161
330
7DE1B343D9E41F6
100
AcDbEntity
  8
TEXT
100
AcDbCircle
 10
5.046167216735926
 20
3.787424108373123
 30
0.0
 40
0.017902360805315
100
AcDbArc
 50
90.0
 51
270.0
  0
LINE
  5
7DE1B343D9E4162
330
7DE1B343D9E41F6
100
AcDbEntity
  8
TEXT
100
AcDbLine
 10
4.958842427175172
 20
3.671487137180128
 30
0.0
 11
4.958842427175174
 21
3.603130130846689
 31
0.0
  0
LINE
  5
7DE1B343D9E4163
330
7DE1B343D9E41F6
100
AcDbEntity
  8
TEXT
100
AcDbLine
 10
5.213072870764897
 20
3.805326469178435
 30
0.0
 11
5.213072870764897
 21
3.662922522184739
 31
0.0
  0
ARC
  5
7DE1B343D9E4164
330
7DE1B343D9E41F6
100
AcDbEntity
  8
TEXT
100
AcDbCircle
 10
5.111767352980227
 20
3.686325939207246
 30
0.0
 40
0.0831958083605586
100
AcDbArc
 50
270.0
 51
90.0
  0
ARC
  5
7DE1B343D9E4165
330
7DE1B343D9E41F6
100
AcDbEntity
  8
TEXT
100
AcDbCircle
 10
5.116707726886507
 20
3.688457691061163
 30
0.0
 40
0.0169705538810321
100
AcDbArc
 50
270.0
 51
90.0
  0
LWPOLYLINE
  5
7DE1B343D9E4166
330
7DE1B343D9E41F6
100
AcDbEntity
  8
TEXT
100
AcDbPolyline
 90
        2
 70
     0
 43
0.0006660908203125
 10
4.622852191216023
 20
3.842959531022703
 10
4.622852191216023
 20
3.869603163835204
  0
LWPOLYLINE
  5
7DE1B343D9E416A
330
7DE1B343D9E41F6
100
AcDbEntity
  8
TEXT
100
AcDbPolyline
 90
        2
 70
     0
 43
0.0006660908203125
 10
4.662817640434774
 20
3.842959531022703
 10
4.662817640434774
 20
3.869603163835204
  0
LINE
  5
7DE1B343D9E416E
330
7DE1B343D9E41F6
100
AcDbEntity
  8
TEXT
100
AcDbLine
 10
5.216661639520189
 20
3.8696031638352
 30
0.0
 11
5.040929886621677
 21
3.8696031638352
 31
0.0
  0
LINE
  5
7DE1B343D9E416F
330
7DE1B343D9E41F6
100
AcDbEntity
  8
TEXT
100
AcDbLine
 10
5.216661639520189
 20
3.903991081429338
 30
0.0
 11
5.216661639520189
 21
3.8696031638352
 31
0.0
  0
LINE
  5
7DE1B343D9E4170
330
7DE1B343D9E41F6
100
AcDbEntity
  8
TEXT
100
AcDbLine
 10
5.407133531540042
 20
3.76873116772208
 30
0.0
 11
5.348503210508104
 21
3.8696031638352
 31
0.0
  0
LINE
  5
7DE1B343D9E4171
330
7DE1B343D9E41F6
100
AcDbEntity
  8
TEXT
100
AcDbLine
 10
5.465882094345907
 20
3.8696031638352
 30
0.0
 11
5.407133531540042
 21
3.76873116772208
 31
0.0
  0
LINE
  5
7DE1B343D9E4172
330
7DE1B343D9E41F6
100
AcDbEntity
  8
TEXT
100
AcDbLine
 10
5.562812719705648
 20
3.685517968949688
 30
0.0
 11
5.562812719705648
 21
3.937614641574011
 31
0.0
  0
LINE
  5
7DE1B343D9E4173
330
7DE1B343D9E41F6
100
AcDbEntity
  8
TEXT
100
AcDbLine
 10
5.595124573843309
 20
3.8696031638352
 30
0.0
 11
5.595124573843309
 21
3.668738957102792
 31
0.0
  0
LINE
  5
7DE1B343D9E4174
330
7DE1B343D9E41F6
100
AcDbEntity
  8
TEXT
100
AcDbLine
 10
5.595124573843309
 20
3.668738957102792
 30
0.0
 11
5.578130936958707
 21
3.668738957102792
 31
0.0
  0
LINE
  5
7DE1B343D9E4175
330
7DE1B343D9E41F6
100
AcDbEntity
  8
TEXT
100
AcDbLine
 10
5.563952293201843
 20
3.603130130846689
 30
0.0
 11
5.661955626901278
 21
3.603130130846689
 31
0.0
  0
LINE
  5
7DE1B343D9E4176
330
7DE1B343D9E41F6
100
AcDbEntity
  8
TEXT
100
AcDbLine
 10
5.397533294543087
 20
3.623088636951702
 30
0.0
 11
5.494833000636532
 21
3.78743884788697
 31
0.0
  0
ARC
  5
7DE1B343D9E4177
330
7DE1B343D9E41F6
100
AcDbEntity
  8
TEXT
100
AcDbCircle
 10
5.363489734630873
 20
3.642677853120385
 30
0.0
 40
0.0392772371940762
100
AcDbArc
 50
270.1604552698595
 51
330.0831797321295
  0
LINE
  5
7DE1B343D9E4178
330
7DE1B343D9E41F6
100
AcDbEntity
  8
TEXT
100
AcDbLine
 10
5.266959478245002
 20
3.603130130846689
 30
0.0
 11
5.363599729319997
 21
3.603400769944971
 31
0.0
  0
LWPOLYLINE
  5
7DE1B343D9E4179
330
7DE1B343D9E41F6
100
AcDbEntity
  8
TEXT
100
AcDbPolyline
 90
        6
 70
     1
 43
0.0
 10
5.309483281820152
 20
3.805326469178435
 10
5.279166687599944
 20
3.805326469178435
 10
5.279166687599944
 20
3.68221547112354
 42
0.407328721240804
 10
5.29071033876142
 20
3.670396556447154
 10
5.351332037806151
 20
3.670396556447154
 10
5.368797378213469
 20
3.703208785490633
  0
LINE
  5
7DE1B343D9E4181
330
7DE1B343D9E41F6
100
AcDbEntity
  8
TEXT
100
AcDbLine
 10
5.494833000636532
 20
3.78743884788697
 30
0.0
 11
5.494833000636532
 21
3.654681473061614
 31
0.0
  0
ARC
  5
7DE1B343D9E4182
330
7DE1B343D9E41F6
100
AcDbEntity
  8
TEXT
100
AcDbCircle
 10
5.578130936958705
 20
3.684120763346217
 30
0.0
 40
0.0153818062434269
100
AcDbArc
 50
174.7883570302258
 51
270.0
  0
LWPOLYLINE
  5
7DE1B343D9E4183
330
7DE1B343D9E41F6
100
AcDbEntity
  8
TEXT
100
AcDbPolyline
 90
        2
 70
     0
 43
0.0
 10
5.49483300063653
 20
3.654681473061617
 42
0.3318488747599744
 10
5.563952293201843
 20
3.603130130846689
 42
-6.868794160588311
  0
LINE
  5
7DE1B343D9E4187
330
7DE1B343D9E41F6
100
AcDbEntity
  8
TEXT
100
AcDbLine
 10
5.719344695890539
 20
3.603130130846689
 30
0.0
 11
5.786402742672379
 21
3.603130130846689
 31
0.0
  0
LINE
  5
7DE1B343D9E4188
330
7DE1B343D9E41F6
100
AcDbEntity
  8
TEXT
100
AcDbLine
 10
5.719344695890539
 20
3.797772680012325
 30
0.0
 11
5.719344695890539
 21
3.603130130846689
 31
0.0
  0
LINE
  5
7DE1B343D9E4189
330
7DE1B343D9E41F6
100
AcDbEntity
  8
TEXT
100
AcDbLine
 10
5.661955626901278
 20
3.805326469178435
 30
0.0
 11
5.711790906724425
 21
3.805326469178435
 31
0.0
  0
LINE
  5
7DE1B343D9E418A
330
7DE1B343D9E41F6
100
AcDbEntity
  8
TEXT
100
AcDbLine
 10
5.661955626901278
 20
3.603130130846689
 30
0.0
 11
5.661955626901278
 21
3.805326469178435
 31
0.0
  0
LWPOLYLINE
  5
7DE1B343D9E418B
330
7DE1B343D9E41F6
100
AcDbEntity
  8
TEXT
100
AcDbPolyline
 90
        2
 70
     0
 43
0.0
 10
5.711790906724424
 20
3.805326469178435
 42
-0.4142135623731017
 10
5.719344695890537
 20
3.797772680012325
 42
-0.9999999999999998
  0
LINE
  5
7DE1B343D9E418F
330
7DE1B343D9E41F6
100
AcDbEntity
  8
TEXT
100
AcDbLine
 10
5.917600907502109
 20
3.805326469178435
 30
0.0
 11
5.917600907502109
 21
3.730274063104228
 31
0.0
  0
LINE
  5
7DE1B343D9E4190
330
7DE1B343D9E41F6
100
AcDbEntity
  8
TEXT
100
AcDbLine
 10
5.786402742672379
 20
3.805326469178435
 30
0.0
 11
5.840536339593329
 21
3.805326469178435
 31
0.0
  0
LINE
  5
7DE1B343D9E4191
330
7DE1B343D9E41F6
100
AcDbEntity
  8
TEXT
100
AcDbLine
 10
5.786402742672379
 20
3.603130130846689
 30
0.0
 11
5.786402742672379
 21
3.805326469178435
 31
0.0
  0
LWPOLYLINE
  5
7DE1B343D9E4192
330
7DE1B343D9E41F6
100
AcDbEntity
  8
TEXT
100
AcDbPolyline
 90
        2
 70
     0
 43
0.0
 10
5.840536339593327
 20
3.805326469178435
 42
-0.4142135623731017
 10
5.848090128759441
 20
3.797772680012325
 42
-0.9999999999999998
  0
LWPOLYLINE
  5
7DE1B343D9E4196
330
7DE1B343D9E41F6
100
AcDbEntity
  8
TEXT
100
AcDbPolyline
 90
        4
 70
     0
 43
0.0
 10
5.848090128759441
 20
3.797772680012325
 10
5.848090128759441
 20
3.603130130846689
 10
5.916568412047299
 20
3.603130130846689
 10
5.916568412047299
 20
3.646621075797127
 42
-1.714843617202739
  0
LINE
  5
7DE1B343D9E419C
330
7DE1B343D9E41F6
100
AcDbEntity
  8
TEXT
100
AcDbLine
 10
5.276704244364196
 20
3.8696031638352
 30
0.0
 11
5.276704244364196
 21
3.903991081429338
 31
0.0
  0
LINE
  5
7DE1B343D9E419D
330
7DE1B343D9E41F6
100
AcDbEntity
  8
TEXT
100
AcDbLine
 10
5.348503210508104
 20
3.8696031638352
 30
0.0
 11
5.276704244364196
 21
3.8696031638352
 31
0.0
  0
LINE
  5
7DE1B343D9E419E
330
7DE1B343D9E41F6
100
AcDbEntity
  8
TEXT
100
AcDbLine
 10
5.496004007139283
 20
3.8696031638352
 30
0.0
 11
5.465882094345907
 21
3.8696031638352
 31
0.0
  0
LINE
  5
7DE1B343D9E419F
330
7DE1B343D9E41F6
100
AcDbEntity
  8
TEXT
100
AcDbLine
 10
5.496004007139283
 20
3.937614641574011
 30
0.0
 11
5.496004007139283
 21
3.8696031638352
 31
0.0
  0
LINE
  5
7DE1B343D9E41A0
330
7DE1B343D9E41F6
100
AcDbEntity
  8
TEXT
100
AcDbLine
 10
5.562812719705648
 20
3.937614641574011
 30
0.0
 11
5.496004007139283
 21
3.937614641574011
 31
0.0
  0
LWPOLYLINE
  5
7DE1B343D9E41A1
330
7DE1B343D9E41F6
100
AcDbEntity
  8
TEXT
100
AcDbPolyline
 90
        3
 70
     0
 43
0.0
 10
5.883224479303651
 20
3.869603163835204
 10
5.764924320487606
 20
3.869603163835204
 10
5.764924320487606
 20
3.842435667074308
 42
-1.960274751411753
  0
LINE
  5
7DE1B343D9E41A6
330
7DE1B343D9E41F6
100
AcDbEntity
  8
TEXT
100
AcDbLine
 10
5.729142629774445
 20
3.8696031638352
 30
0.0
 11
5.595124573843309
 21
3.8696031638352
 31
0.0
  0
LWPOLYLINE
  5
7DE1B343D9E41A7
330
7DE1B343D9E41F6
100
AcDbEntity
  8
TEXT
100
AcDbPolyline
 90
        2
 70
     0
 43
0.0
 10
5.729142629774445
 20
3.869603163835204
 42
-0.3328679258950098
 10
5.764924320487606
 20
3.842435667074308
 42
6.772930709997214
  0
LINE
  5
7DE1B343D9E41AB
330
7DE1B343D9E41F6
100
AcDbEntity
  8
TEXT
100
AcDbLine
 10
5.919006170016817
 20
3.8696031638352
 30
0.0
 11
5.919006170016817
 21
3.841280618065556
 31
0.0
  0
LWPOLYLINE
  5
7DE1B343D9E41AC
330
7DE1B343D9E41F6
100
AcDbEntity
  8
TEXT
100
AcDbPolyline
 90
        2
 70
     0
 43
0.0
 10
5.883224479303651
 20
3.869603163835204
 42
-0.3277054968067132
 10
5.919006170016816
 20
3.84128061806556
 42
6.667889725900311
  0
LINE
  5
7DE1B343D9E41B0
330
7DE1B343D9E41F6
100
AcDbEntity
  8
TEXT
100
AcDbLine
 10
6.132798018108918
 20
3.764391185281773
 30
0.0
 11
6.089047246927016
 21
3.846641461277918
 31
0.0
  0
LINE
  5
7DE1B343D9E41B1
330
7DE1B343D9E41F6
100
AcDbEntity
  8
TEXT
100
AcDbLine
 10
6.132798018108918
 20
3.8696031638352
 30
0.0
 11
6.132798018108918
 21
3.764391185281773
 31
0.0
  0
LINE
  5
7DE1B343D9E41B2
330
7DE1B343D9E41F6
100
AcDbEntity
  8
TEXT
100
AcDbLine
 10
6.360481757047287
 20
3.793737837423662
 30
0.0
 11
6.360481757047287
 21
3.935067369602801
 31
0.0
  0
LINE
  5
7DE1B343D9E41B3
330
7DE1B343D9E41F6
100
AcDbEntity
  8
TEXT
100
AcDbLine
 10
6.407579915603271
 20
3.8696031638352
 30
0.0
 11
6.360481757047287
 21
3.793737837423662
 31
0.0
  0
LINE
  5
7DE1B343D9E41B4
330
7DE1B343D9E41F6
100
AcDbEntity
  8
TEXT
100
AcDbLine
 10
6.418014632367194
 20
3.759709920894227
 30
0.0
 11
6.482571748332899
 21
3.8696031638352
 31
0.0
  0
LINE
  5
7DE1B343D9E41B5
330
7DE1B343D9E41F6
100
AcDbEntity
  8
TEXT
100
AcDbLine
 10
6.296646765824513
 20
3.603130130846689
 30
0.0
 11
6.361024950143134
 21
3.603130130846689
 31
0.0
  0
LWPOLYLINE
  5
7DE1B343D9E41B6
330
7DE1B343D9E41F6
100
AcDbEntity
  8
TEXT
100
AcDbPolyline
 90
        2
 70
     0
 43
0.0
 10
6.136737695413955
 20
3.646621075797127
 42
-0.2901071551932486
 10
6.093661762546311
 20
3.603130130846689
 42
-5.328517124445184
  0
ARC
  5
7DE1B343D9E41BA
330
7DE1B343D9E41F6
100
AcDbEntity
  8
TEXT
100
AcDbCircle
 10
6.024807180889396
 20
3.776967094178437
 30
0.0
 40
0.028359375
100
AcDbArc
 50
25.78218179591245
 51
90.0
  0
LINE
  5
7DE1B343D9E41BB
330
7DE1B343D9E41F6
100
AcDbEntity
  8
TEXT
100
AcDbLine
 10
6.060608256193519
 20
3.768051495716302
 30
0.0
 11
6.050343495779955
 21
3.789302035288997
 31
0.0
  0
LINE
  5
7DE1B343D9E41BC
330
7DE1B343D9E41F6
100
AcDbEntity
  8
TEXT
100
AcDbLine
 10
5.978320266410136
 20
3.768051495716302
 30
0.0
 11
6.060608256193519
 21
3.768051495716302
 31
0.0
  0
LWPOLYLINE
  5
7DE1B343D9E41BD
330
7DE1B343D9E41F6
100
AcDbEntity
  8
TEXT
100
AcDbPolyline
 90
        4
 70
     1
 43
0.0
 10
6.073539297476418
 20
3.706094108830714
 10
5.98487897881656
 20
3.706094108830714
 42
0.9999999999999998
 10
5.98487897881656
 20
3.663695568326854
 10
6.073539297476418
 20
3.663695568326854
 42
1.0
  0
LWPOLYLINE
  5
7DE1B343D9E41C3
330
7DE1B343D9E41F6
100
AcDbEntity
  8
TEXT
100
AcDbPolyline
 90
        2
 70
     0
 43
0.0
 10
5.959644344914934
 20
3.603130130846689
 10
6.093661762546311
 20
3.603130130846689
 42
0.9999999999999998
  0
LINE
  5
7DE1B343D9E41C7
330
7DE1B343D9E41F6
100
AcDbEntity
  8
TEXT
100
AcDbLine
 10
6.21999878453195
 20
3.805326469178435
 30
0.0
 11
6.296646765824508
 21
3.805326469178435
 31
0.0
  0
LINE
  5
7DE1B343D9E41C8
330
7DE1B343D9E41F6
100
AcDbEntity
  8
TEXT
100
AcDbLine
 10
6.296646765824508
 20
3.805326469178435
 30
0.0
 11
6.296646765824513
 21
3.603130130846689
 31
0.0
  0
ARC
  5
7DE1B343D9E41C9
330
7DE1B343D9E41F6
100
AcDbEntity
  8
TEXT
100
AcDbCircle
 10
6.219998784531949
 20
3.780420593895772
 30
0.0
 40
0.0249058752826653
100
AcDbArc
 50
89.99971217465335
 51
179.9999999999985
  0
LINE
  5
7DE1B343D9E41CA
330
7DE1B343D9E41F6
100
AcDbEntity
  8
TEXT
100
AcDbLine
 10
6.195092909249291
 20
3.603130130846689
 30
0.0
 11
6.195092909249286
 21
3.780420636278158
 31
0.0
  0
LWPOLYLINE
  5
7DE1B343D9E41CB
330
7DE1B343D9E41F6
100
AcDbEntity
  8
TEXT
100
AcDbPolyline
 90
        2
 70
     0
 43
0.0
 10
6.136737695413955
 20
3.603130130846689
 10
6.195092909249289
 20
3.603130130846689
  0
LWPOLYLINE
  5
7DE1B343D9E41CF
330
7DE1B343D9E41F6
100
AcDbEntity
  8
TEXT
100
AcDbPolyline
 90
        2
 70
     0
 43
0.0
 10
6.136737695413955
 20
3.646621075797127
 10
6.136737695413955
 20
3.603130130846689
  0
LINE
  5
7DE1B343D9E41D3
330
7DE1B343D9E41F6
100
AcDbEntity
  8
TEXT
100
AcDbLine
 10
6.513506855730804
 20
3.603130130846689
 30
0.0
 11
6.418014632367194
 21
3.759709920894227
 31
0.0
  0
LINE
  5
7DE1B343D9E41D4
330
7DE1B343D9E41F6
100
AcDbEntity
  8
TEXT
100
AcDbLine
 10
6.436928483354598
 20
3.603130130846689
 30
0.0
 11
6.513506855730804
 21
3.603130130846689
 31
0.0
  0
LINE
  5
7DE1B343D9E41D5
330
7DE1B343D9E41F6
100
AcDbEntity
  8
TEXT
100
AcDbLine
 10
6.361024950143134
 20
3.734709699322869
 30
0.0
 11
6.436928483354598
 21
3.603130130846689
 31
0.0
  0
LINE
  5
7DE1B343D9E41D6
330
7DE1B343D9E41F6
100
AcDbEntity
  8
TEXT
100
AcDbLine
 10
6.361024950143134
 20
3.603130130846689
 30
0.0
 11
6.361024950143134
 21
3.734709699322869
 31
0.0
  0
LINE
  5
7DE1B343D9E41D7
330
7DE1B343D9E41F6
100
AcDbEntity
  8
TEXT
100
AcDbLine
 10
6.360481757047287
 20
3.935067369602801
 30
0.0
 11
6.292166878498013
 21
3.935067369602801
 31
0.0
  0
ARC
  5
7DE1B343D9E41D8
330
7DE1B343D9E41F6
100
AcDbEntity
  8
TEXT
100
AcDbCircle
 10
6.051811139456807
 20
3.828019596714298
 30
0.0
 40
0.0416329381542859
100
AcDbArc
 50
26.56974201007528
 51
87.20939649401342
  0
LINE
  5
7DE1B343D9E41D9
330
7DE1B343D9E41F6
100
AcDbEntity
  8
TEXT
100
AcDbLine
 10
6.196694924408419
 20
3.8696031638352
 30
0.0
 11
6.132798018108918
 21
3.8696031638352
 31
0.0
  0
LINE
  5
7DE1B343D9E41DA
330
7DE1B343D9E41F6
100
AcDbEntity
  8
TEXT
100
AcDbLine
 10
6.196694924408419
 20
3.842055513974326
 30
0.0
 11
6.196694924408419
 21
3.8696031638352
 31
0.0
  0
ARC
  5
7DE1B343D9E41DB
330
7DE1B343D9E41F6
100
AcDbEntity
  8
TEXT
100
AcDbCircle
 10
6.227887741471526
 20
3.838357436552935
 30
0.0
 40
0.0314112657011332
100
AcDbArc
 50
95.88484768694724
 51
173.2388340632136
  0
LINE
  5
7DE1B343D9E41DC
330
7DE1B343D9E41F6
100
AcDbEntity
  8
TEXT
100
AcDbLine
 10
6.292166878498008
 20
3.8696031638352
 30
0.0
 11
6.224667160848492
 21
3.8696031638352
 31
0.0
  0
LINE
  5
7DE1B343D9E41DD
330
7DE1B343D9E41F6
100
AcDbEntity
  8
TEXT
100
AcDbLine
 10
6.292166878498013
 20
3.935067369602801
 30
0.0
 11
6.292166878498008
 21
3.8696031638352
 31
0.0
  0
LINE
  5
7DE1B343D9E41DE
330
7DE1B343D9E41F6
100
AcDbEntity
  8
TEXT
100
AcDbLine
 10
6.482571748332899
 20
3.8696031638352
 30
0.0
 11
6.407579915603273
 21
3.8696031638352
 31
0.0
  0
ENDSEC
  0
SECTION
  2
OBJECTS
  0
DICTIONARY
  5
7DE1B343D9E41EA
330
0
100
AcDbDictionary
  3
ACAD_GROUP
350
7DE1B343D9E41EB
  3
ACAD_LAYOUT
350
7DE1B343D9E4210
  3
ACAD_MLINESTYLE
350
7DE1B343D9E41EC
  3
ACAD_PLOTSETTINGS
350
7DE1B343D9E4211
  3
ACAD_PLOTSTYLENAME
350
7DE1B343D9E420E
  3
ACDBHEADERROUNDTRIPXREC
350
7DE1B343D9E421B
  3
ACDBVARIABLEDICTIONARY
350
7DE1B343D9E4218
  0
DICTIONARY
  5
7DE1B343D9E423D
330
7DE1B343D9E41F6
100
AcDbDictionary
280
     1
  3
ACAD_LAYOUTSELFREF
360
7DE1B343D9E423E
  0
DICTIONARY
  5
7DE1B343D9E423B
330
7DE1B343D9E41F3
100
AcDbDictionary
280
     1
  3
ACAD_LAYOUTSELFREF
360
7DE1B343D9E423C
  0
DICTIONARY
  5
7DE1B343D9E41EB
102
{ACAD_REACTORS
330
7DE1B343D9E41EA
102
}
330
7DE1B343D9E41EA
100
AcDbDictionary
  0
DICTIONARY
  5
7DE1B343D9E4210
102
{ACAD_REACTORS
330
7DE1B343D9E41EA
102
}
330
7DE1B343D9E41EA
100
AcDbDictionary
  0
DICTIONARY
  5
7DE1B343D9E41EC
102
{ACAD_REACTORS
330
7DE1B343D9E41EA
102
}
330
7DE1B343D9E41EA
100
AcDbDictionary
  3
STANDARD
350
7DE1B343D9E41F9
  0
DICTIONARY
  5
7DE1B343D9E4211
102
{ACAD_REACTORS
330
7DE1B343D9E41EA
102
}
330
7DE1B343D9E41EA
100
AcDbDictionary
  0
ACDBDICTIONARYWDFLT
  5
7DE1B343D9E420E
102
{ACAD_REACTORS
330
7DE1B343D9E41EA
102
}
330
7DE1B343D9E41EA
100
AcDbDictionary
281
     1
  3
Normal
350
7DE1B343D9E420F
100
AcDbDictionaryWithDefault
340
7DE1B343D9E420F
  0
DICTIONARY
  5
7DE1B343D9E421B
102
{ACAD_REACTORS
330
7DE1B343D9E41EA
102
}
330
7DE1B343D9E41EA
100
AcDbDictionary
  3
CEPSNTYPE
350
7DE1B343D9E4225
  3
FINGERPRINTGUID
350
7DE1B343D9E4226
  3
HYPERLINKBASE
350
7DE1B343D9E421E
  3
INSUNITS
350
7DE1B343D9E4224
  3
LAYOUTDICT
350
7DE1B343D9E4220
  3
LWETCUNION
350
7DE1B343D9E4223
  3
PLOTSETDICT
350
7DE1B343D9E4221
  3
PLOTSTYLNAMDICT
350
7DE1B343D9E4222
  3
PSVPSCALE
350
7DE1B343D9E4228
  3
PUCSBASE
350
7DE1B343D9E422B
  3
PUCSORGBACK
350
7DE1B343D9E4231
  3
PUCSORGBOTTOM
350
7DE1B343D9E422D
  3
PUCSORGFRONT
350
7DE1B343D9E4230
  3
PUCSORGLEFT
350
7DE1B343D9E422E
  3
PUCSORGRIGHT
350
7DE1B343D9E422F
  3
PUCSORGTOP
350
7DE1B343D9E422C
  3
PUCSORTHOREF
350
7DE1B343D9E4229
  3
PUCSORTHOVIEW
350
7DE1B343D9E422A
  3
STYLESHEET
350
7DE1B343D9E421F
  3
TSTACKALIGN
350
7DE1B343D9E421C
  3
TSTACKSIZE
350
7DE1B343D9E421D
  3
UCSBASE
350
7DE1B343D9E4234
  3
UCSORGBACK
350
7DE1B343D9E423A
  3
UCSORGBOTTOM
350
7DE1B343D9E4236
  3
UCSORGFRONT
350
7DE1B343D9E4239
  3
UCSORGLEFT
350
7DE1B343D9E4237
  3
UCSORGRIGHT
350
7DE1B343D9E4238
  3
UCSORGTOP
350
7DE1B343D9E4235
  3
UCSORTHOREF
350
7DE1B343D9E4232
  3
UCSORTHOVIEW
350
7DE1B343D9E4233
  3
VERSIONGUID
350
7DE1B343D9E4227
  0
DICTIONARY
  5
7DE1B343D9E4218
102
{ACAD_REACTORS
330
7DE1B343D9E41EA
102
}
330
7DE1B343D9E41EA
100
AcDbDictionary
  3
DIMASSOC
350
7DE1B343D9E4219
  0
XRECORD
  5
7DE1B343D9E423E
102
{ACAD_REACTORS
330
7DE1B343D9E423D
102
}
330
7DE1B343D9E423D
100
AcDbXrecord
340
7DE1B343D9E41F6
  0
XRECORD
  5
7DE1B343D9E423C
102
{ACAD_REACTORS
330
7DE1B343D9E423B
102
}
330
7DE1B343D9E423B
100
AcDbXrecord
340
7DE1B343D9E41F3
  0
MLINESTYLE
  5
7DE1B343D9E41F9
102
{ACAD_REACTORS
330
7DE1B343D9E41EC
102
}
330
7DE1B343D9E41EC
100
AcDbMlineStyle
  2
STANDARD
 70
     0
  3

 62
     0
 51
90.0
 52
90.0
 71
     2
 49
0.5
 62
   256
  6
BYLAYER
 49
-0.5
 62
   256
  6
BYLAYER
  0
ACDBPLACEHOLDER
  5
7DE1B343D9E420F
102
{ACAD_REACTORS
330
7DE1B343D9E420E
102
}
330
7DE1B343D9E420E
100
AcDbPlaceHolder
280
     0
  0
XRECORD
  5
7DE1B343D9E4225
102
{ACAD_REACTORS
330
7DE1B343D9E421B
102
}
330
7DE1B343D9E421B
100
AcDbXrecord
 90
        0
  0
XRECORD
  5
7DE1B343D9E4226
102
{ACAD_REACTORS
330
7DE1B343D9E421B
102
}
330
7DE1B343D9E421B
100
AcDbXrecord
  1
{53BFD430-8DB6-11D6-88E6-0090279574E7}
  0
XRECORD
  5
7DE1B343D9E421E
102
{ACAD_REACTORS
330
7DE1B343D9E421B
102
}
330
7DE1B343D9E421B
100
AcDbXrecord
  1

  0
XRECORD
  5
7DE1B343D9E4224
102
{ACAD_REACTORS
330
7DE1B343D9E421B
102
}
330
7DE1B343D9E421B
100
AcDbXrecord
 90
        0
  0
XRECORD
  5
7DE1B343D9E4220
102
{ACAD_REACTORS
330
7DE1B343D9E421B
102
}
330
7DE1B343D9E421B
100
AcDbXrecord
340
7DE1B343D9E4210
  0
XRECORD
  5
7DE1B343D9E4223
102
{ACAD_REACTORS
330
7DE1B343D9E421B
102
}
330
7DE1B343D9E421B
100
AcDbXrecord
 90
    14877
  0
XRECORD
  5
7DE1B343D9E4221
102
{ACAD_REACTORS
330
7DE1B343D9E421B
102
}
330
7DE1B343D9E421B
100
AcDbXrecord
340
7DE1B343D9E4211
  0
XRECORD
  5
7DE1B343D9E4222
102
{ACAD_REACTORS
330
7DE1B343D9E421B
102
}
330
7DE1B343D9E421B
100
AcDbXrecord
340
7DE1B343D9E420E
  0
XRECORD
  5
7DE1B343D9E4228
102
{ACAD_REACTORS
330
7DE1B343D9E421B
102
}
330
7DE1B343D9E421B
100
AcDbXrecord
 40
0.0
  0
XRECORD
  5
7DE1B343D9E422B
102
{ACAD_REACTORS
330
7DE1B343D9E421B
102
}
330
7DE1B343D9E421B
100
AcDbXrecord
340
0
  0
XRECORD
  5
7DE1B343D9E4231
102
{ACAD_REACTORS
330
7DE1B343D9E421B
102
}
330
7DE1B343D9E421B
100
AcDbXrecord
 10
0.0
 20
0.0
 30
0.0
  0
XRECORD
  5
7DE1B343D9E422D
102
{ACAD_REACTORS
330
7DE1B343D9E421B
102
}
330
7DE1B343D9E421B
100
AcDbXrecord
 10
0.0
 20
0.0
 30
0.0
  0
XRECORD
  5
7DE1B343D9E4230
102
{ACAD_REACTORS
330
7DE1B343D9E421B
102
}
330
7DE1B343D9E421B
100
AcDbXrecord
 10
0.0
 20
0.0
 30
0.0
  0
XRECORD
  5
7DE1B343D9E422E
102
{ACAD_REACTORS
330
7DE1B343D9E421B
102
}
330
7DE1B343D9E421B
100
AcDbXrecord
 10
0.0
 20
0.0
 30
0.0
  0
XRECORD
  5
7DE1B343D9E422F
102
{ACAD_REACTORS
330
7DE1B343D9E421B
102
}
330
7DE1B343D9E421B
100
AcDbXrecord
 10
0.0
 20
0.0
 30
0.0
  0
XRECORD
  5
7DE1B343D9E422C
102
{ACAD_REACTORS
330
7DE1B343D9E421B
102
}
330
7DE1B343D9E421B
100
AcDbXrecord
 10
0.0
 20
0.0
 30
0.0
  0
XRECORD
  5
7DE1B343D9E4229
102
{ACAD_REACTORS
330
7DE1B343D9E421B
102
}
330
7DE1B343D9E421B
100
AcDbXrecord
340
0
  0
XRECORD
  5
7DE1B343D9E422A
102
{ACAD_REACTORS
330
7DE1B343D9E421B
102
}
330
7DE1B343D9E421B
100
AcDbXrecord
 70
     0
  0
XRECORD
  5
7DE1B343D9E421F
102
{ACAD_REACTORS
330
7DE1B343D9E421B
102
}
330
7DE1B343D9E421B
100
AcDbXrecord
  1

  0
XRECORD
  5
7DE1B343D9E421C
102
{ACAD_REACTORS
330
7DE1B343D9E421B
102
}
330
7DE1B343D9E421B
100
AcDbXrecord
 90
        1
  0
XRECORD
  5
7DE1B343D9E421D
102
{ACAD_REACTORS
330
7DE1B343D9E421B
102
}
330
7DE1B343D9E421B
100
AcDbXrecord
 90
       70
  0
XRECORD
  5
7DE1B343D9E4234
102
{ACAD_REACTORS
330
7DE1B343D9E421B
102
}
330
7DE1B343D9E421B
100
AcDbXrecord
340
0
  0
XRECORD
  5
7DE1B343D9E423A
102
{ACAD_REACTORS
330
7DE1B343D9E421B
102
}
330
7DE1B343D9E421B
100
AcDbXrecord
 10
0.0
 20
0.0
 30
0.0
  0
XRECORD
  5
7DE1B343D9E4236
102
{ACAD_REACTORS
330
7DE1B343D9E421B
102
}
330
7DE1B343D9E421B
100
AcDbXrecord
 10
0.0
 20
0.0
 30
0.0
  0
XRECORD
  5
7DE1B343D9E4239
102
{ACAD_REACTORS
330
7DE1B343D9E421B
102
}
330
7DE1B343D9E421B
100
AcDbXrecord
 10
0.0
 20
0.0
 30
0.0
  0
XRECORD
  5
7DE1B343D9E4237
102
{ACAD_REACTORS
330
7DE1B343D9E421B
102
}
330
7DE1B343D9E421B
100
AcDbXrecord
 10
0.0
 20
0.0
 30
0.0
  0
XRECORD
  5
7DE1B343D9E4238
102
{ACAD_REACTORS
330
7DE1B343D9E421B
102
}
330
7DE1B343D9E421B
100
AcDbXrecord
 10
0.0
 20
0.0
 30
0.0
  0
XRECORD
  5
7DE1B343D9E4235
102
{ACAD_REACTORS
330
7DE1B343D9E421B
102
}
330
7DE1B343D9E421B
100
AcDbXrecord
 10
0.0
 20
0.0
 30
0.0
  0
XRECORD
  5
7DE1B343D9E4232
102
{ACAD_REACTORS
330
7DE1B343D9E421B
102
}
330
7DE1B343D9E421B
100
AcDbXrecord
340
0
  0
XRECORD
  5
7DE1B343D9E4233
102
{ACAD_REACTORS
330
7DE1B343D9E421B
102
}
330
7DE1B343D9E421B
100
AcDbXrecord
 70
     0
  0
XRECORD
  5
7DE1B343D9E4227
102
{ACAD_REACTORS
330
7DE1B343D9E421B
102
}
330
7DE1B343D9E421B
100
AcDbXrecord
  1
{53BFD432-8DB6-11D6-88E6-0090279574E7}
  0
DICTIONARYVAR
  5
7DE1B343D9E4219
102
{ACAD_REACTORS
330
7DE1B343D9E4218
102
}
330
7DE1B343D9E4218
100
DictionaryVariables
280
     0
  1
1
  0
ENDSEC
  0
EOF
