  0
SECTION
  2
HEADER
  9
$ACADVER
  1
AC1014
  9
$ACADMAINTVER
 70
     9
  9
$DWGCODEPAGE
  3
ANSI_1252
  9
$INSBASE
 10
2.398628054799772
 20
1.75267932760502
 30
0.0
  9
$EXTMIN
 10
0.6556464755726291
 20
1.002175198194833
 30
0.0
  9
$EXTMAX
 10
4.140865797319756
 20
2.25267932760502
 30
0.0
  9
$LIMMIN
 10
0.0
 20
0.0
  9
$LIMMAX
 10
18.0
 20
12.0
  9
$ORTHOMODE
 70
     1
  9
$REGENMODE
 70
     1
  9
$FILLMODE
 70
     1
  9
$QTEXTMODE
 70
     0
  9
$MIRRTEXT
 70
     0
  9
$DRAGMODE
 70
     2
  9
$LTSCALE
 40
1.0
  9
$OSMODE
 70
    39
  9
$ATTMODE
 70
     1
  9
$TEXTSIZE
 40
0.125
  9
$TRACEWID
 40
0.05
  9
$TEXTSTYLE
  7
ROMANS
  9
$CLAYER
  8
0
  9
$CELTYPE
  6
BYLAYER
  9
$CECOLOR
 62
   256
  9
$CELTSCALE
 40
1.0
  9
$DELOBJ
 70
     1
  9
$DISPSILH
 70
     1
  9
$DIMSCALE
 40
1.0
  9
$DIMASZ
 40
0.125
  9
$DIMEXO
 40
0.125
  9
$DIMDLI
 40
0.375
  9
$DIMRND
 40
0.0
  9
$DIMDLE
 40
0.0
  9
$DIMEXE
 40
0.125
  9
$DIMTP
 40
0.0
  9
$DIMTM
 40
0.0
  9
$DIMTXT
 40
0.125
  9
$DIMCEN
 40
-0.125
  9
$DIMTSZ
 40
0.0
  9
$DIMTOL
 70
     0
  9
$DIMLIM
 70
     0
  9
$DIMTIH
 70
     1
  9
$DIMTOH
 70
     1
  9
$DIMSE1
 70
     0
  9
$DIMSE2
 70
     0
  9
$DIMTAD
 70
     0
  9
$DIMZIN
 70
     4
  9
$DIMBLK
  1

  9
$DIMASO
 70
     1
  9
$DIMSHO
 70
     1
  9
$DIMPOST
  1

  9
$DIMAPOST
  1

  9
$DIMALT
 70
     0
  9
$DIMALTD
 70
     2
  9
$DIMALTF
 40
25.4
  9
$DIMLFAC
 40
1.0
  9
$DIMTOFL
 70
     0
  9
$DIMTVP
 40
0.0
  9
$DIMTIX
 70
     1
  9
$DIMSOXD
 70
     0
  9
$DIMSAH
 70
     0
  9
$DIMBLK1
  1

  9
$DIMBLK2
  1

  9
$DIMSTYLE
  2
STANDARD
  9
$DIMCLRD
 70
     0
  9
$DIMCLRE
 70
     0
  9
$DIMCLRT
 70
     0
  9
$DIMTFAC
 40
1.0
  9
$DIMGAP
 40
0.09
  9
$DIMJUST
 70
     0
  9
$DIMSD1
 70
     0
  9
$DIMSD2
 70
     0
  9
$DIMTOLJ
 70
     1
  9
$DIMTZIN
 70
     4
  9
$DIMALTZ
 70
     0
  9
$DIMALTTZ
 70
     0
  9
$DIMFIT
 70
     3
  9
$DIMUPT
 70
     0
  9
$DIMUNIT
 70
     2
  9
$DIMDEC
 70
     3
  9
$DIMTDEC
 70
     3
  9
$DIMALTU
 70
     2
  9
$DIMALTTD
 70
     2
  9
$DIMTXSTY
  7
ROMANS
  9
$DIMAUNIT
 70
     0
  9
$LUNITS
 70
     2
  9
$LUPREC
 70
     3
  9
$SKETCHINC
 40
0.1
  9
$FILLETRAD
 40
0.03125
  9
$AUNITS
 70
     0
  9
$AUPREC
 70
     0
  9
$MENU
  1
ACAD
  9
$ELEVATION
 40
0.0
  9
$PELEVATION
 40
0.0
  9
$THICKNESS
 40
0.0
  9
$LIMCHECK
 70
     0
  9
$BLIPMODE
 70
     0
  9
$CHAMFERA
 40
0.0
  9
$CHAMFERB
 40
0.0
  9
$CHAMFERC
 40
0.0
  9
$CHAMFERD
 40
0.0
  9
$SKPOLY
 70
     0
  9
$TDCREATE
 40
2448994.576268865
  9
$TDUPDATE
 40
2452458.306986076
  9
$TDINDWG
 40
0.0014644213
  9
$TDUSRTIMER
 40
0.0014644213
  9
$USRTIMER
 70
     1
  9
$ANGBASE
 50
0.0
  9
$ANGDIR
 70
     0
  9
$PDMODE
 70
     0
  9
$PDSIZE
 40
0.0
  9
$PLINEWID
 40
0.0
  9
$COORDS
 70
     2
  9
$SPLFRAME
 70
     0
  9
$SPLINETYPE
 70
     6
  9
$SPLINESEGS
 70
     8
  9
$ATTDIA
 70
     0
  9
$ATTREQ
 70
     1
  9
$HANDLING
 70
 22529
  9
$HANDSEED
  5
7DE1B343D9E3DC5
  9
$SURFTAB1
 70
     6
  9
$SURFTAB2
 70
     6
  9
$SURFTYPE
 70
     6
  9
$SURFU
 70
     6
  9
$SURFV
 70
     6
  9
$UCSNAME
  2

  9
$UCSORG
 10
0.0
 20
0.0
 30
0.0
  9
$UCSXDIR
 10
1.0
 20
0.0
 30
0.0
  9
$UCSYDIR
 10
0.0
 20
1.0
 30
0.0
  9
$PUCSNAME
  2

  9
$PUCSORG
 10
0.0
 20
0.0
 30
0.0
  9
$PUCSXDIR
 10
1.0
 20
0.0
 30
0.0
  9
$PUCSYDIR
 10
0.0
 20
1.0
 30
0.0
  9
$USERI1
 70
     0
  9
$USERI2
 70
     0
  9
$USERI3
 70
     0
  9
$USERI4
 70
     0
  9
$USERI5
 70
     0
  9
$USERR1
 40
0.0
  9
$USERR2
 40
0.0
  9
$USERR3
 40
0.0
  9
$USERR4
 40
0.0
  9
$USERR5
 40
0.0
  9
$WORLDVIEW
 70
     1
  9
$SHADEDGE
 70
     3
  9
$SHADEDIF
 70
    70
  9
$TILEMODE
 70
     1
  9
$MAXACTVP
 70
    16
  9
$PINSBASE
 10
1.130334672598317
 20
50.00000000000001
 30
1.411585371872942
  9
$PLIMCHECK
 70
     0
  9
$PEXTMIN
 10
1.000000000000000E+20
 20
1.000000000000000E+20
 30
1.000000000000000E+20
  9
$PEXTMAX
 10
-1.000000000000000E+20
 20
-1.000000000000000E+20
 30
-1.000000000000000E+20
  9
$PLIMMIN
 10
0.0
 20
0.0
  9
$PLIMMAX
 10
12.0
 20
9.0
  9
$UNITMODE
 70
     0
  9
$VISRETAIN
 70
     0
  9
$PLINEGEN
 70
     1
  9
$PSLTSCALE
 70
     0
  9
$TREEDEPTH
 70
  3020
  9
$PICKSTYLE
 70
     1
  9
$CMLSTYLE
  2
STANDARD
  9
$CMLJUST
 70
     0
  9
$CMLSCALE
 40
1.0
  9
$PROXYGRAPHICS
 70
     1
  9
$MEASUREMENT
 70
     0
  0
ENDSEC
  0
SECTION
  2
CLASSES
  0
CLASS
  1
LWPOLYLINE
  2
AcDbPolyline
  3
AutoCAD 2000
 90
        0
280
     0
281
     1
  0
CLASS
  1
ACDBDICTIONARYWDFLT
  2
AcDbDictionaryWithDefault
  3
AutoCAD 2000
 90
        0
280
     0
281
     0
  0
CLASS
  1
ACDBPLACEHOLDER
  2
AcDbPlaceHolder
  3
AutoCAD 2000
 90
        0
280
     0
281
     0
  0
CLASS
  1
LAYOUT
  2
AcDbLayout
  3
AutoCAD 2000
 90
        0
280
     0
281
     0
  0
CLASS
  1
DICTIONARYVAR
  2
AcDbDictionaryVar
  3
AutoCAD 2000
 90
        0
280
     0
281
     0
  0
CLASS
  1
LONG_TRANSACTION
  2
AcDbLongTransaction
  3
AutoCAD 2000
 90
        0
280
     0
281
     0
  0
CLASS
  1
LWPOLYLINE
  2
AcDbPolyline
  3
AutoCAD 2000
 90
        0
280
     0
281
     1
  0
CLASS
  1
HATCH
  2
AcDbHatch
  3
AutoCAD 2000
 90
        0
280
     0
281
     1
  0
CLASS
  1
XRECORD
  2
AcDbXrecord
  3
AutoCAD 2000
 90
        0
280
     0
281
     0
  0
ENDSEC
  0
SECTION
  2
TABLES
  0
TABLE
  2
VPORT
  5
7DE1B343D9E3D51
330
0
100
AcDbSymbolTable
 70
     2
  0
VPORT
  5
7DE1B343D9E3DA0
330
7DE1B343D9E3D51
100
AcDbSymbolTableRecord
100
AcDbViewportTableRecord
  2
*ACTIVE
 70
     0
 10
0.0
 20
0.0
 11
1.0
 21
1.0
 12
5.374239765645083
 22
1.627441429099349
 13
0.0
 23
0.0
 14
0.015625
 24
0.015625
 15
0.0
 25
0.0
 16
0.0
 26
0.0
 36
1.0
 17
0.0
 27
0.0
 37
0.0
 40
2.282647215150728
 41
4.320930232558139
 42
50.0
 43
0.0
 44
0.0
 50
0.0
 51
0.0
 71
     0
 72
  2000
 73
     1
 74
     0
 75
     0
 76
     0
 77
     0
 78
     0
  0
ENDTAB
  0
TABLE
  2
LTYPE
  5
7DE1B343D9E3D4E
330
0
100
AcDbSymbolTable
 70
     1
  0
LTYPE
  5
7DE1B343D9E3D5B
330
7DE1B343D9E3D4E
100
AcDbSymbolTableRecord
100
AcDbLinetypeTableRecord
  2
BYBLOCK
 70
     0
  3

 72
    65
 73
     0
 40
0.0
  0
LTYPE
  5
7DE1B343D9E3D5C
330
7DE1B343D9E3D4E
100
AcDbSymbolTableRecord
100
AcDbLinetypeTableRecord
  2
BYLAYER
 70
     0
  3

 72
    65
 73
     0
 40
0.0
  0
LTYPE
  5
7DE1B343D9E3D5D
330
7DE1B343D9E3D4E
100
AcDbSymbolTableRecord
100
AcDbLinetypeTableRecord
  2
CONTINUOUS
 70
     0
  3
Solid line
 72
    65
 73
     0
 40
0.0
  0
ENDTAB
  0
TABLE
  2
LAYER
  5
7DE1B343D9E3D4B
330
0
100
AcDbSymbolTable
 70
     3
  0
LAYER
  5
7DE1B343D9E3D58
330
7DE1B343D9E3D4B
100
AcDbSymbolTableRecord
100
AcDbLayerTableRecord
  2
0
 70
     0
 62
     7
  6
CONTINUOUS
  0
LAYER
  5
7DE1B343D9E3D68
330
7DE1B343D9E3D4B
100
AcDbSymbolTableRecord
100
AcDbLayerTableRecord
  2
TEXT
 70
     0
 62
     3
  6
CONTINUOUS
  0
LAYER
  5
7DE1B343D9E3D78
330
7DE1B343D9E3D4B
100
AcDbSymbolTableRecord
100
AcDbLayerTableRecord
  2
ASHADE
 70
     4
 62
     7
  6
CONTINUOUS
  0
ENDTAB
  0
TABLE
  2
STYLE
  5
7DE1B343D9E3D4C
330
0
100
AcDbSymbolTable
 70
     4
  0
STYLE
  5
7DE1B343D9E3D59
330
7DE1B343D9E3D4C
100
AcDbSymbolTableRecord
100
AcDbTextStyleTableRecord
  2
STANDARD
 70
     0
 40
0.0
 41
1.0
 50
0.0
 71
     0
 42
0.3125
  3
txt
  4

  0
STYLE
  5
7DE1B343D9E3D65
330
7DE1B343D9E3D4C
100
AcDbSymbolTableRecord
100
AcDbTextStyleTableRecord
  2
ITALICC
 70
     0
 40
0.0
 41
1.0
 50
0.0
 71
     0
 42
0.125
  3
italicc
  4

  0
STYLE
  5
7DE1B343D9E3D75
330
7DE1B343D9E3D4C
100
AcDbSymbolTableRecord
100
AcDbTextStyleTableRecord
  2
ASHADE
 70
     0
 40
0.2
 41
1.0
 50
0.0
 71
     0
 42
0.3125
  3
simplex
  4

  0
STYLE
  5
7DE1B343D9E3D90
330
7DE1B343D9E3D4C
100
AcDbSymbolTableRecord
100
AcDbTextStyleTableRecord
  2
ROMANS
 70
     0
 40
0.0
 41
1.0
 50
0.0
 71
     0
 42
0.125
  3
romans.shx
  4

  0
ENDTAB
  0
TABLE
  2
VIEW
  5
7DE1B343D9E3D4F
330
0
100
AcDbSymbolTable
 70
     0
  0
ENDTAB
  0
TABLE
  2
UCS
  5
7DE1B343D9E3D50
330
0
100
AcDbSymbolTable
 70
     0
  0
ENDTAB
  0
TABLE
  2
APPID
  5
7DE1B343D9E3D52
330
0
100
AcDbSymbolTable
 70
     6
  0
APPID
  5
7DE1B343D9E3D5A
330
7DE1B343D9E3D52
100
AcDbSymbolTableRecord
100
AcDbRegAppTableRecord
  2
ACAD
 70
     0
  0
APPID
  5
7DE1B343D9E3D76
330
7DE1B343D9E3D52
100
AcDbSymbolTableRecord
100
AcDbRegAppTableRecord
  2
AVE_RENDER
 70
     0
  0
APPID
  5
7DE1B343D9E3D77
330
7DE1B343D9E3D52
100
AcDbSymbolTableRecord
100
AcDbRegAppTableRecord
  2
AVE_ENTITY_MATERIAL
 70
     0
  0
APPID
  5
7DE1B343D9E3D84
330
7DE1B343D9E3D52
100
AcDbSymbolTableRecord
100
AcDbRegAppTableRecord
  2
AVE_FINISH
 70
     0
  0
APPID
  5
7DE1B343D9E3D85
330
7DE1B343D9E3D52
100
AcDbSymbolTableRecord
100
AcDbRegAppTableRecord
  2
AVE_MATERIAL
 70
     0
  0
APPID
  5
7DE1B343D9E3D86
330
7DE1B343D9E3D52
100
AcDbSymbolTableRecord
100
AcDbRegAppTableRecord
  2
AVE_GLOBAL
 70
     0
  0
ENDTAB
  0
TABLE
  2
DIMSTYLE
  5
7DE1B343D9E3D53
330
0
100
AcDbSymbolTable
 70
     1
  0
DIMSTYLE
105
7DE1B343D9E3D6D
330
7DE1B343D9E3D53
100
AcDbSymbolTableRecord
100
AcDbDimStyleTableRecord
  2
STANDARD
 70
     0
  3

  4

  5

  6

  7

 40
1.0
 41
0.125
 42
0.125
 43
0.375
 44
0.125
 45
0.0
 46
0.0
 47
0.0
 48
0.0
140
0.125
141
-0.125
142
0.0
143
25.4
144
1.0
145
0.0
146
1.0
147
0.09
 71
     0
 72
     0
 73
     1
 74
     1
 75
     0
 76
     0
 77
     0
 78
     4
170
     0
171
     2
172
     0
173
     0
174
     1
175
     0
176
     0
177
     0
178
     0
270
     2
271
     3
272
     3
273
     2
274
     2
340
7DE1B343D9E3D90
275
     0
280
     0
281
     0
282
     0
283
     1
284
     4
285
     0
286
     0
287
     3
288
     0
  0
ENDTAB
  0
TABLE
  2
BLOCK_RECORD
  5
7DE1B343D9E3D4A
330
0
100
AcDbSymbolTable
 70
     2
  0
BLOCK_RECORD
  5
7DE1B343D9E3D61
102
{ACAD_XDICTIONARY
360
7DE1B343D9E3DC3
102
}
330
7DE1B343D9E3D4A
100
AcDbSymbolTableRecord
100
AcDbBlockTableRecord
  2
*MODEL_SPACE
  0
BLOCK_RECORD
  5
7DE1B343D9E3D5E
102
{ACAD_XDICTIONARY
360
7DE1B343D9E3DC1
102
}
330
7DE1B343D9E3D4A
100
AcDbSymbolTableRecord
100
AcDbBlockTableRecord
  2
*PAPER_SPACE
  0
BLOCK_RECORD
  5
7DE1B343D9E3D79
330
7DE1B343D9E3D4A
100
AcDbSymbolTableRecord
100
AcDbBlockTableRecord
  2
AVE_RENDER
  0
BLOCK_RECORD
  5
7DE1B343D9E3D87
330
7DE1B343D9E3D4A
100
AcDbSymbolTableRecord
100
AcDbBlockTableRecord
  2
AVE_GLOBAL
  0
ENDTAB
  0
ENDSEC
  0
SECTION
  2
BLOCKS
  0
BLOCK
  5
7DE1B343D9E3D6B
330
7DE1B343D9E3D61
100
AcDbEntity
  8
0
100
AcDbBlockBegin
  2
*MODEL_SPACE
 70
     0
 10
0.0
 20
0.0
 30
0.0
  3
*MODEL_SPACE
  1

  0
ENDBLK
  5
7DE1B343D9E3D6C
330
7DE1B343D9E3D61
100
AcDbEntity
  8
0
100
AcDbBlockEnd
  0
BLOCK
  5
7DE1B343D9E3D69
330
7DE1B343D9E3D5E
100
AcDbEntity
 67
     1
  8
0
100
AcDbBlockBegin
  2
*PAPER_SPACE
 70
     0
 10
0.0
 20
0.0
 30
0.0
  3
*PAPER_SPACE
  1

  0
ENDBLK
  5
7DE1B343D9E3D6A
330
7DE1B343D9E3D5E
100
AcDbEntity
 67
     1
  8
0
100
AcDbBlockEnd
  0
BLOCK
  5
7DE1B343D9E3D7A
330
7DE1B343D9E3D79
100
AcDbEntity
  8
0
100
AcDbBlockBegin
  2
AVE_RENDER
 70
     0
 10
0.0
 20
0.0
 30
0.0
  3
AVE_RENDER
  1
AVE_RENDER
  0
ENDBLK
  5
7DE1B343D9E3D7B
330
7DE1B343D9E3D79
100
AcDbEntity
  8
0
100
AcDbBlockEnd
  0
BLOCK
  5
7DE1B343D9E3D88
330
7DE1B343D9E3D87
100
AcDbEntity
  8
0
100
AcDbBlockBegin
  2
AVE_GLOBAL
 70
     0
 10
0.0
 20
0.0
 30
0.0
  3
AVE_GLOBAL
  1
AVE_GLOBAL
  0
ENDBLK
  5
7DE1B343D9E3D89
330
7DE1B343D9E3D87
100
AcDbEntity
  8
0
100
AcDbBlockEnd
  0
ENDSEC
  0
SECTION
  2
ENTITIES
  0
LWPOLYLINE
  5
7DE1B343D9E277F
330
7DE1B343D9E3D61
100
AcDbEntity
  8
0
100
AcDbPolyline
 90
       31
 70
     1
 43
0.0
 10
1.899740403229913
 20
1.786012660938354
 42
-0.9354143466934853
 10
2.89751570636963
 20
1.786012660938354
 42
-1.0
 10
2.835154749923399
 20
1.781845994271687
 42
0.0306902562564685
 10
2.828301221724738
 20
1.835063911264041
 42
0.8241222132162141
 10
2.779222490339134
 20
1.835201461174774
 42
-0.1593799754892208
 10
2.74865701396211
 20
1.780704259404366
 42
-0.4802053212546202
 10
2.720884265500737
 20
1.78495352535075
 10
2.70943328950608
 20
1.804787197569748
 42
-0.3000993905501952
 10
2.711048744220883
 20
1.831906939606738
 42
0.6877213321014827
 10
2.673214193796869
 20
1.891949082970874
 42
-0.3213087207092035
 10
2.654113907632639
 20
1.900603177617852
 10
2.640371844098831
 20
1.924405129859246
 42
-0.4802053212546645
 10
2.650578246072504
 20
1.950581668532938
 42
-0.2514248431450892
 10
2.743948985816603
 20
1.93272232661942
 42
0.8241222132162127
 10
2.781583637339024
 20
1.964224291624544
 42
0.2668208035704087
 10
2.408745045880262
 20
2.190062336524523
 10
2.398628054799772
 20
2.20017932760502
 10
2.388511063719272
 20
2.190062336524521
 42
0.2668208035704034
 10
2.015672472260519
 20
1.964224291624544
 42
0.8241222132162127
 10
2.053307123782941
 20
1.93272232661942
 42
-0.2514248431450892
 10
2.146677863527039
 20
1.950581668532938
 42
-0.4802053212546645
 10
2.156884265500712
 20
1.924405129859246
 10
2.143142201966904
 20
1.900603177617852
 42
-0.3213087207092035
 10
2.124041915802674
 20
1.891949082970874
 42
0.6877213321014827
 10
2.086207365378661
 20
1.831906939606738
 42
-0.3000993905501952
 10
2.087822820093464
 20
1.804787197569748
 10
2.076371844098806
 20
1.78495352535075
 42
-0.4802053212546201
 10
2.048599095637434
 20
1.780704259404366
 42
-0.1593799754892206
 10
2.01803361926041
 20
1.835201461174774
 42
0.8241222132162141
 10
1.968954887874806
 20
1.835063911264041
 42
0.0306902562564685
 10
1.962101359676146
 20
1.781845994271687
 42
-1.0
  0
TEXT
  5
7DE1B343D9E3C0C
330
7DE1B343D9E3D61
100
AcDbEntity
  8
TEXT
100
AcDbText
 10
1.645651864323582
 20
1.460193802277415
 30
0.0
 40
0.125
  1
PART #110328
  7
ITALICC
 72
     1
 11
2.398628054799772
 21
1.460193802277415
 31
0.0
100
AcDbText
  0
TEXT
  5
7DE1B343D9E3C0D
330
7DE1B343D9E3D61
100
AcDbEntity
  8
TEXT
100
AcDbText
 10
2.811933213050092
 20
1.013271159605039
 30
0.0
 40
0.0522247191011236
  1
Phone  1-800-328-2495
 41
1.272321428571429
 72
     5
 11
4.140865797319756
 21
1.013271159605039
 31
0.0
100
AcDbText
  0
TEXT
  5
7DE1B343D9E3C0E
330
7DE1B343D9E3D61
100
AcDbEntity
  8
TEXT
100
AcDbText
 10
2.811933213050092
 20
1.293046440503916
 30
0.0
 40
0.0522247191011236
  1
Stylmark  Incorporated
 41
1.221428571428573
 72
     5
 11
4.140865797319756
 21
1.293046440503916
 31
0.0
100
AcDbText
  0
TEXT
  5
7DE1B343D9E3C0F
330
7DE1B343D9E3D61
100
AcDbEntity
  8
TEXT
100
AcDbText
 10
2.811933213050092
 20
1.199788013537624
 30
0.0
 40
0.0522247191011236
  1
6536 Main St. N.E. * P.O. Box 32008
 41
0.8388932496075366
 72
     5
 11
4.140865797319756
 21
1.199788013537624
 31
0.0
100
AcDbText
  0
TEXT
  5
7DE1B343D9E3C10
330
7DE1B343D9E3D61
100
AcDbEntity
  8
TEXT
100
AcDbText
 10
2.811933213050092
 20
1.106529586571332
 30
0.0
 40
0.0522247191011236
  1
Minneapolis, MN 55432-0008
 41
1.11444212721585
 72
     5
 11
4.140865797319756
 21
1.106529586571332
 31
0.0
100
AcDbText
  0
LWPOLYLINE
  5
7DE1B343D9E3C11
330
7DE1B343D9E3D61
100
AcDbEntity
  8
TEXT
100
AcDbPolyline
 90
        3
 70
     0
 43
0.0006660908203125
 10
0.6559795209827853
 20
1.126915922242474
 10
0.6559795209827853
 20
1.013680482789347
 10
0.7692149604359076
 20
1.013680482789347
  0
LWPOLYLINE
  5
7DE1B343D9E3C16
330
7DE1B343D9E3D61
100
AcDbEntity
  8
TEXT
100
AcDbPolyline
 90
        3
 70
     0
 43
0.0006660908203125
 10
0.6826231537952827
 20
1.126915922242474
 10
0.6826231537952827
 20
1.040324115601848
 10
0.7692149604359076
 20
1.040324115601848
  0
LWPOLYLINE
  5
7DE1B343D9E3C1B
330
7DE1B343D9E3D61
100
AcDbEntity
  8
TEXT
100
AcDbPolyline
 90
        2
 70
     0
 43
0.0001332181640625
 10
0.7292495112171596
 20
1.136907284547159
 10
0.6559795209827853
 20
1.126915922242474
  0
LWPOLYLINE
  5
7DE1B343D9E3C1F
330
7DE1B343D9E3D61
100
AcDbEntity
  8
TEXT
100
AcDbPolyline
 90
        2
 70
     0
 43
0.0001332181640625
 10
0.6826231537952827
 20
1.126915922242474
 10
0.7425713276234101
 20
1.136907284547159
  0
LWPOLYLINE
  5
7DE1B343D9E3C23
330
7DE1B343D9E3D61
100
AcDbEntity
  8
TEXT
100
AcDbPolyline
 90
        2
 70
     0
 43
0.0001332181640625
 10
0.6826231537952827
 20
1.040324115601848
 10
0.7425713276234101
 20
1.100272289429973
  0
LWPOLYLINE
  5
7DE1B343D9E3C27
330
7DE1B343D9E3D61
100
AcDbEntity
  8
TEXT
100
AcDbPolyline
 90
        3
 70
     0
 43
0.0006660908203125
 10
0.7692149604359076
 20
1.28011681091435
 10
0.6559795209827853
 20
1.28011681091435
 10
0.6559795209827853
 20
1.166881371461222
  0
LWPOLYLINE
  5
7DE1B343D9E3C2C
330
7DE1B343D9E3D61
100
AcDbEntity
  8
TEXT
100
AcDbPolyline
 90
        3
 70
     0
 43
0.0006660908203125
 10
0.7692149604359076
 20
1.253473178101849
 10
0.6826231537952827
 20
1.253473178101849
 10
0.6826231537952827
 20
1.166881371461222
  0
LWPOLYLINE
  5
7DE1B343D9E3C31
330
7DE1B343D9E3D61
100
AcDbEntity
  8
TEXT
100
AcDbPolyline
 90
        2
 70
     0
 43
0.0001332181640625
 10
0.6826231537952827
 20
1.253473178101849
 10
0.7425713276234083
 20
1.193525004273723
  0
LWPOLYLINE
  5
7DE1B343D9E3C35
330
7DE1B343D9E3D61
100
AcDbEntity
  8
TEXT
100
AcDbPolyline
 90
        2
 70
     0
 43
0.0001332181640625
 10
0.6826231537952827
 20
1.166881371461222
 10
0.7425713276234083
 20
1.156890009156533
  0
LWPOLYLINE
  5
7DE1B343D9E3C39
330
7DE1B343D9E3D61
100
AcDbEntity
  8
TEXT
100
AcDbPolyline
 90
        2
 70
     0
 43
0.0001332181640625
 10
0.6559795209827853
 20
1.166881371461222
 10
0.7292495112171596
 20
1.156890009156533
  0
LWPOLYLINE
  5
7DE1B343D9E3C3D
330
7DE1B343D9E3D61
100
AcDbEntity
  8
TEXT
100
AcDbPolyline
 90
        2
 70
     0
 43
0.0006660908203125
 10
0.6826231537952827
 20
1.126915922242474
 10
0.6559795209827853
 20
1.126915922242474
  0
LWPOLYLINE
  5
7DE1B343D9E3C41
330
7DE1B343D9E3D61
100
AcDbEntity
  8
TEXT
100
AcDbPolyline
 90
        2
 70
     0
 43
0.0006660908203125
 10
0.6826231537952827
 20
1.166881371461222
 10
0.6559795209827853
 20
1.166881371461222
  0
LINE
  5
7DE1B343D9E3C45
330
7DE1B343D9E3D61
100
AcDbEntity
  8
TEXT
100
AcDbLine
 10
2.171169950109282
 20
1.215840116257581
 30
0.0
 11
2.063963676721993
 21
1.215840116257581
 31
0.0
  0
LINE
  5
7DE1B343D9E3C46
330
7DE1B343D9E3D61
100
AcDbEntity
  8
TEXT
100
AcDbLine
 10
2.200200848453761
 20
1.280116810914346
 30
0.0
 11
2.065368939236702
 21
1.280116810914346
 31
0.0
  0
ARC
  5
7DE1B343D9E3C47
330
7DE1B343D9E3D61
100
AcDbEntity
  8
TEXT
100
AcDbCircle
 10
2.124683035630019
 20
1.11087956165133
 30
0.0
 40
0.0676855811441166
100
AcDbArc
 50
90.0
 51
153.7768192527749
  0
LWPOLYLINE
  5
7DE1B343D9E3C48
330
7DE1B343D9E3D61
100
AcDbEntity
  8
TEXT
100
AcDbPolyline
 90
        2
 70
     0
 43
0.0
 10
2.062931181267183
 20
1.057134722876273
 42
0.2901071551932823
 10
2.106007114134818
 20
1.013643777925835
 42
5.328517124445801
  0
ARC
  5
7DE1B343D9E3C4C
330
7DE1B343D9E3D61
100
AcDbEntity
  8
TEXT
100
AcDbCircle
 10
1.419551657958533
 20
1.073436169263885
 30
0.0
 40
0.0601160179737537
100
AcDbArc
 50
180.0000000000003
 51
264.0521544866073
  0
LINE
  5
7DE1B343D9E3C4D
330
7DE1B343D9E3D61
100
AcDbEntity
  8
TEXT
100
AcDbLine
 10
1.423067013584081
 20
1.314504728508484
 30
0.0
 11
1.363024408740074
 21
1.314504728508484
 31
0.0
  0
ARC
  5
7DE1B343D9E3C4E
330
7DE1B343D9E3D61
100
AcDbEntity
  8
TEXT
100
AcDbCircle
 10
1.187292655841562
 20
1.198029351467845
 30
0.0
 40
0.0820874594465043
100
AcDbArc
 50
90.0
 51
270.0
  0
LWPOLYLINE
  5
7DE1B343D9E3C4F
330
7DE1B343D9E3D61
100
AcDbEntity
  8
TEXT
100
AcDbPolyline
 90
        2
 70
     0
 43
0.0001332181640625
 10
0.7792063227405981
 20
1.20684682067997
 10
0.7692149604359076
 20
1.28011681091435
  0
LWPOLYLINE
  5
7DE1B343D9E3C53
330
7DE1B343D9E3D61
100
AcDbEntity
  8
TEXT
100
AcDbPolyline
 90
        2
 70
     0
 43
0.0001332181640625
 10
0.7692149604359076
 20
1.253473178101849
 10
0.7792063227405981
 20
1.193525004273723
  0
LWPOLYLINE
  5
7DE1B343D9E3C57
330
7DE1B343D9E3D61
100
AcDbEntity
  8
TEXT
100
AcDbPolyline
 90
        3
 70
     0
 43
0.0006660908203125
 10
0.9224158491077849
 20
1.166881371461222
 10
0.9224158491077849
 20
1.28011681091435
 10
0.809180409654659
 20
1.28011681091435
  0
LWPOLYLINE
  5
7DE1B343D9E3C5C
330
7DE1B343D9E3D61
100
AcDbEntity
  8
TEXT
100
AcDbPolyline
 90
        3
 70
     0
 43
0.0006660908203125
 10
0.8957722162952839
 20
1.166881371461222
 10
0.8957722162952839
 20
1.253473178101849
 10
0.809180409654659
 20
1.253473178101849
  0
LWPOLYLINE
  5
7DE1B343D9E3C61
330
7DE1B343D9E3D61
100
AcDbEntity
  8
TEXT
100
AcDbPolyline
 90
        2
 70
     0
 43
0.0001332181640625
 10
0.8957722162952839
 20
1.253473178101849
 10
0.8358240424671601
 20
1.193525004273723
  0
LWPOLYLINE
  5
7DE1B343D9E3C65
330
7DE1B343D9E3D61
100
AcDbEntity
  8
TEXT
100
AcDbPolyline
 90
        2
 70
     0
 43
0.0001332181640625
 10
0.809180409654659
 20
1.253473178101849
 10
0.7991890473499704
 20
1.193525004273723
  0
LWPOLYLINE
  5
7DE1B343D9E3C69
330
7DE1B343D9E3D61
100
AcDbEntity
  8
TEXT
100
AcDbPolyline
 90
        2
 70
     0
 43
0.0001332181640625
 10
0.809180409654659
 20
1.28011681091435
 10
0.7991890473499704
 20
1.20684682067997
  0
LWPOLYLINE
  5
7DE1B343D9E3C6D
330
7DE1B343D9E3D61
100
AcDbEntity
  8
TEXT
100
AcDbPolyline
 90
        2
 70
     0
 43
0.0001332181640625
 10
0.8491458588734088
 20
1.156890009156533
 10
0.9224158491077849
 20
1.166881371461222
  0
LWPOLYLINE
  5
7DE1B343D9E3C71
330
7DE1B343D9E3D61
100
AcDbEntity
  8
TEXT
100
AcDbPolyline
 90
        2
 70
     0
 43
0.0001332181640625
 10
0.8957722162952839
 20
1.166881371461222
 10
0.8358240424671601
 20
1.156890009156533
  0
LWPOLYLINE
  5
7DE1B343D9E3C75
330
7DE1B343D9E3D61
100
AcDbEntity
  8
TEXT
100
AcDbPolyline
 90
        2
 70
     0
 43
0.0001332181640625
 10
0.9224158491077849
 20
1.126915922242474
 10
0.8491458588734088
 20
1.136907284547159
  0
LWPOLYLINE
  5
7DE1B343D9E3C79
330
7DE1B343D9E3D61
100
AcDbEntity
  8
TEXT
100
AcDbPolyline
 90
        2
 70
     0
 43
0.0001332181640625
 10
0.8957722162952839
 20
1.126915922242474
 10
0.8358240424671601
 20
1.136907284547159
  0
LWPOLYLINE
  5
7DE1B343D9E3C7D
330
7DE1B343D9E3D61
100
AcDbEntity
  8
TEXT
100
AcDbPolyline
 90
        2
 70
     0
 43
0.0001332181640625
 10
0.8957722162952839
 20
1.040324115601848
 10
0.8358240424671601
 20
1.100272289429973
  0
LWPOLYLINE
  5
7DE1B343D9E3C81
330
7DE1B343D9E3D61
100
AcDbEntity
  8
TEXT
100
AcDbPolyline
 90
        3
 70
     0
 43
0.0006660908203125
 10
0.809180409654659
 20
1.040324115601848
 10
0.8957722162952839
 20
1.040324115601848
 10
0.8957722162952839
 20
1.126915922242474
  0
LWPOLYLINE
  5
7DE1B343D9E3C86
330
7DE1B343D9E3D61
100
AcDbEntity
  8
TEXT
100
AcDbPolyline
 90
        3
 70
     0
 43
0.0006660908203125
 10
0.809180409654659
 20
1.013680482789347
 10
0.9224158491077849
 20
1.013680482789347
 10
0.9224158491077849
 20
1.126915922242474
  0
LWPOLYLINE
  5
7DE1B343D9E3C8B
330
7DE1B343D9E3D61
100
AcDbEntity
  8
TEXT
100
AcDbPolyline
 90
        5
 70
     0
 43
0.0001332181640625
 10
0.7792063227405981
 20
1.086950473023723
 10
0.7792063227405981
 20
1.100272289429973
 10
0.7425713276234101
 20
1.100272289429973
 10
0.7425713276234101
 20
1.136907284547159
 10
0.7292495112171596
 20
1.136907284547159
  0
LWPOLYLINE
  5
7DE1B343D9E3C92
330
7DE1B343D9E3D61
100
AcDbEntity
  8
TEXT
100
AcDbPolyline
 90
        2
 70
     0
 43
0.0006660908203125
 10
0.7692149604359076
 20
1.040324115601848
 10
0.7692149604359076
 20
1.013680482789347
  0
LWPOLYLINE
  5
7DE1B343D9E3C96
330
7DE1B343D9E3D61
100
AcDbEntity
  8
TEXT
100
AcDbPolyline
 90
        2
 70
     0
 43
0.0001332181640625
 10
0.7692149604359076
 20
1.040324115601848
 10
0.7792063227405981
 20
1.100272289429973
  0
LWPOLYLINE
  5
7DE1B343D9E3C9A
330
7DE1B343D9E3D61
100
AcDbEntity
  8
TEXT
100
AcDbPolyline
 90
        2
 70
     0
 43
0.0001332181640625
 10
0.7692149604359076
 20
1.013680482789347
 10
0.7792063227405981
 20
1.086950473023723
  0
LWPOLYLINE
  5
7DE1B343D9E3C9E
330
7DE1B343D9E3D61
100
AcDbEntity
  8
TEXT
100
AcDbPolyline
 90
        5
 70
     0
 43
0.0001332181640625
 10
0.7292495112171596
 20
1.156890009156533
 10
0.7425713276234083
 20
1.156890009156533
 10
0.7425713276234083
 20
1.193525004273723
 10
0.7792063227405981
 20
1.193525004273723
 10
0.7792063227405981
 20
1.20684682067997
  0
LWPOLYLINE
  5
7DE1B343D9E3CA5
330
7DE1B343D9E3D61
100
AcDbEntity
  8
TEXT
100
AcDbPolyline
 90
        5
 70
     0
 43
0.0001332181640625
 10
0.7991890473499704
 20
1.20684682067997
 10
0.7991890473499704
 20
1.193525004273723
 10
0.8358240424671601
 20
1.193525004273723
 10
0.8358240424671601
 20
1.156890009156533
 10
0.8491458588734088
 20
1.156890009156533
  0
LWPOLYLINE
  5
7DE1B343D9E3CAC
330
7DE1B343D9E3D61
100
AcDbEntity
  8
TEXT
100
AcDbPolyline
 90
        2
 70
     0
 43
0.0001332181640625
 10
0.809180409654659
 20
1.040324115601848
 10
0.7991890473499704
 20
1.100272289429973
  0
LWPOLYLINE
  5
7DE1B343D9E3CB0
330
7DE1B343D9E3D61
100
AcDbEntity
  8
TEXT
100
AcDbPolyline
 90
        2
 70
     0
 43
0.0001332181640625
 10
0.7991890473499704
 20
1.086950473023723
 10
0.809180409654659
 20
1.013680482789347
  0
LWPOLYLINE
  5
7DE1B343D9E3CB4
330
7DE1B343D9E3D61
100
AcDbEntity
  8
TEXT
100
AcDbPolyline
 90
        2
 70
     0
 43
0.0006660908203125
 10
0.809180409654659
 20
1.040324115601848
 10
0.809180409654659
 20
1.013680482789347
  0
LWPOLYLINE
  5
7DE1B343D9E3CB8
330
7DE1B343D9E3D61
100
AcDbEntity
  8
TEXT
100
AcDbPolyline
 90
        5
 70
     0
 43
0.0001332181640625
 10
0.8491458588734088
 20
1.136907284547159
 10
0.8358240424671601
 20
1.136907284547159
 10
0.8358240424671601
 20
1.100272289429973
 10
0.7991890473499704
 20
1.100272289429973
 10
0.7991890473499704
 20
1.086950473023723
  0
LWPOLYLINE
  5
7DE1B343D9E3CBF
330
7DE1B343D9E3D61
100
AcDbEntity
  8
TEXT
100
AcDbPolyline
 90
        2
 70
     0
 43
0.0006660908203125
 10
0.8957722162952839
 20
1.166881371461222
 10
0.9224158491077849
 20
1.166881371461222
  0
LWPOLYLINE
  5
7DE1B343D9E3CC3
330
7DE1B343D9E3D61
100
AcDbEntity
  8
TEXT
100
AcDbPolyline
 90
        2
 70
     0
 43
0.0006660908203125
 10
0.8957722162952839
 20
1.126915922242474
 10
0.9224158491077849
 20
1.126915922242474
  0
LINE
  5
7DE1B343D9E3CC7
330
7DE1B343D9E3D61
100
AcDbEntity
  8
TEXT
100
AcDbLine
 10
1.192529985955809
 20
1.215840116257581
 30
0.0
 11
1.359435639984781
 21
1.215840116257581
 31
0.0
  0
LINE
  5
7DE1B343D9E3CC8
330
7DE1B343D9E3D61
100
AcDbEntity
  8
TEXT
100
AcDbLine
 10
1.25813012220011
 20
1.180035394646953
 30
0.0
 11
1.192529985955809
 21
1.180035394646953
 31
0.0
  0
LINE
  5
7DE1B343D9E3CC9
330
7DE1B343D9E3D61
100
AcDbEntity
  8
TEXT
100
AcDbLine
 10
1.105205196395058
 20
1.013643777925835
 30
0.0
 11
1.25813012220011
 21
1.013643777925835
 31
0.0
  0
LINE
  5
7DE1B343D9E3CCA
330
7DE1B343D9E3D61
100
AcDbEntity
  8
TEXT
100
AcDbLine
 10
1.26307049610639
 20
1.082000784259275
 30
0.0
 11
1.105205196395056
 21
1.082000784259275
 31
0.0
  0
LINE
  5
7DE1B343D9E3CCB
330
7DE1B343D9E3D61
100
AcDbEntity
  8
TEXT
100
AcDbLine
 10
1.187292655841561
 20
1.115941892021339
 30
0.0
 11
1.26307049610639
 21
1.115941892021339
 31
0.0
  0
ARC
  5
7DE1B343D9E3CCC
330
7DE1B343D9E3D61
100
AcDbEntity
  8
TEXT
100
AcDbCircle
 10
1.19252998595581
 20
1.197937755452269
 30
0.0
 40
0.017902360805315
100
AcDbArc
 50
90.0
 51
270.0
  0
LINE
  5
7DE1B343D9E3CCD
330
7DE1B343D9E3D61
100
AcDbEntity
  8
TEXT
100
AcDbLine
 10
1.105205196395056
 20
1.082000784259275
 30
0.0
 11
1.105205196395058
 21
1.013643777925835
 31
0.0
  0
LINE
  5
7DE1B343D9E3CCE
330
7DE1B343D9E3D61
100
AcDbEntity
  8
TEXT
100
AcDbLine
 10
1.359435639984781
 20
1.215840116257581
 30
0.0
 11
1.359435639984781
 21
1.073436169263885
 31
0.0
  0
ARC
  5
7DE1B343D9E3CCF
330
7DE1B343D9E3D61
100
AcDbEntity
  8
TEXT
100
AcDbCircle
 10
1.258130122200111
 20
1.096839586286392
 30
0.0
 40
0.0831958083605586
100
AcDbArc
 50
270.0
 51
90.0
  0
ARC
  5
7DE1B343D9E3CD0
330
7DE1B343D9E3D61
100
AcDbEntity
  8
TEXT
100
AcDbCircle
 10
1.263070496106391
 20
1.098971338140309
 30
0.0
 40
0.0169705538810321
100
AcDbArc
 50
270.0
 51
90.0
  0
LWPOLYLINE
  5
7DE1B343D9E3CD1
330
7DE1B343D9E3D61
100
AcDbEntity
  8
TEXT
100
AcDbPolyline
 90
        2
 70
     0
 43
0.0006660908203125
 10
0.7692149604359076
 20
1.253473178101849
 10
0.7692149604359076
 20
1.28011681091435
  0
LWPOLYLINE
  5
7DE1B343D9E3CD5
330
7DE1B343D9E3D61
100
AcDbEntity
  8
TEXT
100
AcDbPolyline
 90
        2
 70
     0
 43
0.0006660908203125
 10
0.809180409654659
 20
1.253473178101849
 10
0.809180409654659
 20
1.28011681091435
  0
LINE
  5
7DE1B343D9E3CD9
330
7DE1B343D9E3D61
100
AcDbEntity
  8
TEXT
100
AcDbLine
 10
1.363024408740074
 20
1.280116810914346
 30
0.0
 11
1.187292655841561
 21
1.280116810914346
 31
0.0
  0
LINE
  5
7DE1B343D9E3CDA
330
7DE1B343D9E3D61
100
AcDbEntity
  8
TEXT
100
AcDbLine
 10
1.363024408740074
 20
1.314504728508484
 30
0.0
 11
1.363024408740074
 21
1.280116810914346
 31
0.0
  0
LINE
  5
7DE1B343D9E3CDB
330
7DE1B343D9E3D61
100
AcDbEntity
  8
TEXT
100
AcDbLine
 10
1.553496300759926
 20
1.179244814801226
 30
0.0
 11
1.494865979727988
 21
1.280116810914346
 31
0.0
  0
LINE
  5
7DE1B343D9E3CDC
330
7DE1B343D9E3D61
100
AcDbEntity
  8
TEXT
100
AcDbLine
 10
1.612244863565791
 20
1.280116810914346
 30
0.0
 11
1.553496300759926
 21
1.179244814801226
 31
0.0
  0
LINE
  5
7DE1B343D9E3CDD
330
7DE1B343D9E3D61
100
AcDbEntity
  8
TEXT
100
AcDbLine
 10
1.709175488925533
 20
1.096031616028835
 30
0.0
 11
1.709175488925533
 21
1.348128288653157
 31
0.0
  0
LINE
  5
7DE1B343D9E3CDE
330
7DE1B343D9E3D61
100
AcDbEntity
  8
TEXT
100
AcDbLine
 10
1.741487343063193
 20
1.280116810914346
 30
0.0
 11
1.741487343063193
 21
1.079252604181938
 31
0.0
  0
LINE
  5
7DE1B343D9E3CDF
330
7DE1B343D9E3D61
100
AcDbEntity
  8
TEXT
100
AcDbLine
 10
1.741487343063193
 20
1.079252604181938
 30
0.0
 11
1.724493706178591
 21
1.079252604181938
 31
0.0
  0
LINE
  5
7DE1B343D9E3CE0
330
7DE1B343D9E3D61
100
AcDbEntity
  8
TEXT
100
AcDbLine
 10
1.710315062421727
 20
1.013643777925835
 30
0.0
 11
1.808318396121162
 21
1.013643777925835
 31
0.0
  0
LINE
  5
7DE1B343D9E3CE1
330
7DE1B343D9E3D61
100
AcDbEntity
  8
TEXT
100
AcDbLine
 10
1.543896063762971
 20
1.033602284030848
 30
0.0
 11
1.641195769856416
 21
1.197952494966116
 31
0.0
  0
ARC
  5
7DE1B343D9E3CE2
330
7DE1B343D9E3D61
100
AcDbEntity
  8
TEXT
100
AcDbCircle
 10
1.509852503850757
 20
1.053191500199531
 30
0.0
 40
0.0392772371940762
100
AcDbArc
 50
270.1604552698595
 51
330.0831797321295
  0
LINE
  5
7DE1B343D9E3CE3
330
7DE1B343D9E3D61
100
AcDbEntity
  8
TEXT
100
AcDbLine
 10
1.413322247464886
 20
1.013643777925835
 30
0.0
 11
1.509962498539881
 21
1.013914417024118
 31
0.0
  0
LWPOLYLINE
  5
7DE1B343D9E3CE4
330
7DE1B343D9E3D61
100
AcDbEntity
  8
TEXT
100
AcDbPolyline
 90
        6
 70
     1
 43
0.0
 10
1.455846051040036
 20
1.215840116257581
 10
1.425529456819828
 20
1.215840116257581
 10
1.425529456819828
 20
1.092729118202687
 42
0.407328721240804
 10
1.437073107981304
 20
1.0809102035263
 10
1.497694807026035
 20
1.0809102035263
 10
1.515160147433353
 20
1.11372243256978
  0
LINE
  5
7DE1B343D9E3CEC
330
7DE1B343D9E3D61
100
AcDbEntity
  8
TEXT
100
AcDbLine
 10
1.641195769856416
 20
1.197952494966116
 30
0.0
 11
1.641195769856416
 21
1.06519512014076
 31
0.0
  0
ARC
  5
7DE1B343D9E3CED
330
7DE1B343D9E3D61
100
AcDbEntity
  8
TEXT
100
AcDbCircle
 10
1.72449370617859
 20
1.094634410425364
 30
0.0
 40
0.0153818062434269
100
AcDbArc
 50
174.7883570302258
 51
270.0
  0
LWPOLYLINE
  5
7DE1B343D9E3CEE
330
7DE1B343D9E3D61
100
AcDbEntity
  8
TEXT
100
AcDbPolyline
 90
        2
 70
     0
 43
0.0
 10
1.641195769856414
 20
1.065195120140764
 42
0.3318488747599744
 10
1.710315062421727
 20
1.013643777925835
 42
-6.868794160588311
  0
LINE
  5
7DE1B343D9E3CF2
330
7DE1B343D9E3D61
100
AcDbEntity
  8
TEXT
100
AcDbLine
 10
1.865707465110423
 20
1.013643777925835
 30
0.0
 11
1.932765511892263
 21
1.013643777925835
 31
0.0
  0
LINE
  5
7DE1B343D9E3CF3
330
7DE1B343D9E3D61
100
AcDbEntity
  8
TEXT
100
AcDbLine
 10
1.865707465110423
 20
1.208286327091471
 30
0.0
 11
1.865707465110423
 21
1.013643777925835
 31
0.0
  0
LINE
  5
7DE1B343D9E3CF4
330
7DE1B343D9E3D61
100
AcDbEntity
  8
TEXT
100
AcDbLine
 10
1.808318396121162
 20
1.215840116257581
 30
0.0
 11
1.85815367594431
 21
1.215840116257581
 31
0.0
  0
LINE
  5
7DE1B343D9E3CF5
330
7DE1B343D9E3D61
100
AcDbEntity
  8
TEXT
100
AcDbLine
 10
1.808318396121162
 20
1.013643777925835
 30
0.0
 11
1.808318396121162
 21
1.215840116257581
 31
0.0
  0
LWPOLYLINE
  5
7DE1B343D9E3CF6
330
7DE1B343D9E3D61
100
AcDbEntity
  8
TEXT
100
AcDbPolyline
 90
        2
 70
     0
 43
0.0
 10
1.858153675944308
 20
1.215840116257581
 42
-0.4142135623731017
 10
1.865707465110421
 20
1.208286327091471
 42
-0.9999999999999998
  0
LINE
  5
7DE1B343D9E3CFA
330
7DE1B343D9E3D61
100
AcDbEntity
  8
TEXT
100
AcDbLine
 10
2.063963676721993
 20
1.215840116257581
 30
0.0
 11
2.063963676721993
 21
1.140787710183374
 31
0.0
  0
LINE
  5
7DE1B343D9E3CFB
330
7DE1B343D9E3D61
100
AcDbEntity
  8
TEXT
100
AcDbLine
 10
1.932765511892263
 20
1.215840116257581
 30
0.0
 11
1.986899108813213
 21
1.215840116257581
 31
0.0
  0
LINE
  5
7DE1B343D9E3CFC
330
7DE1B343D9E3D61
100
AcDbEntity
  8
TEXT
100
AcDbLine
 10
1.932765511892263
 20
1.013643777925835
 30
0.0
 11
1.932765511892263
 21
1.215840116257581
 31
0.0
  0
LWPOLYLINE
  5
7DE1B343D9E3CFD
330
7DE1B343D9E3D61
100
AcDbEntity
  8
TEXT
100
AcDbPolyline
 90
        2
 70
     0
 43
0.0
 10
1.986899108813211
 20
1.215840116257581
 42
-0.4142135623731017
 10
1.994452897979325
 20
1.208286327091471
 42
-0.9999999999999998
  0
LWPOLYLINE
  5
7DE1B343D9E3D01
330
7DE1B343D9E3D61
100
AcDbEntity
  8
TEXT
100
AcDbPolyline
 90
        4
 70
     0
 43
0.0
 10
1.994452897979325
 20
1.208286327091471
 10
1.994452897979325
 20
1.013643777925835
 10
2.062931181267183
 20
1.013643777925835
 10
2.062931181267183
 20
1.057134722876273
 42
-1.714843617202739
  0
LINE
  5
7DE1B343D9E3D07
330
7DE1B343D9E3D61
100
AcDbEntity
  8
TEXT
100
AcDbLine
 10
1.423067013584081
 20
1.280116810914346
 30
0.0
 11
1.423067013584081
 21
1.314504728508484
 31
0.0
  0
LINE
  5
7DE1B343D9E3D08
330
7DE1B343D9E3D61
100
AcDbEntity
  8
TEXT
100
AcDbLine
 10
1.494865979727988
 20
1.280116810914346
 30
0.0
 11
1.423067013584081
 21
1.280116810914346
 31
0.0
  0
LINE
  5
7DE1B343D9E3D09
330
7DE1B343D9E3D61
100
AcDbEntity
  8
TEXT
100
AcDbLine
 10
1.642366776359168
 20
1.280116810914346
 30
0.0
 11
1.612244863565791
 21
1.280116810914346
 31
0.0
  0
LINE
  5
7DE1B343D9E3D0A
330
7DE1B343D9E3D61
100
AcDbEntity
  8
TEXT
100
AcDbLine
 10
1.642366776359168
 20
1.348128288653157
 30
0.0
 11
1.642366776359168
 21
1.280116810914346
 31
0.0
  0
LINE
  5
7DE1B343D9E3D0B
330
7DE1B343D9E3D61
100
AcDbEntity
  8
TEXT
100
AcDbLine
 10
1.709175488925533
 20
1.348128288653157
 30
0.0
 11
1.642366776359168
 21
1.348128288653157
 31
0.0
  0
LWPOLYLINE
  5
7DE1B343D9E3D0C
330
7DE1B343D9E3D61
100
AcDbEntity
  8
TEXT
100
AcDbPolyline
 90
        3
 70
     0
 43
0.0
 10
2.029587248523535
 20
1.28011681091435
 10
1.91128708970749
 20
1.28011681091435
 10
1.91128708970749
 20
1.252949314153454
 42
-1.960274751411753
  0
LINE
  5
7DE1B343D9E3D11
330
7DE1B343D9E3D61
100
AcDbEntity
  8
TEXT
100
AcDbLine
 10
1.875505398994329
 20
1.280116810914346
 30
0.0
 11
1.741487343063193
 21
1.280116810914346
 31
0.0
  0
LWPOLYLINE
  5
7DE1B343D9E3D12
330
7DE1B343D9E3D61
100
AcDbEntity
  8
TEXT
100
AcDbPolyline
 90
        2
 70
     0
 43
0.0
 10
1.875505398994329
 20
1.28011681091435
 42
-0.3328679258950098
 10
1.91128708970749
 20
1.252949314153454
 42
6.772930709997214
  0
LINE
  5
7DE1B343D9E3D16
330
7DE1B343D9E3D61
100
AcDbEntity
  8
TEXT
100
AcDbLine
 10
2.065368939236702
 20
1.280116810914346
 30
0.0
 11
2.065368939236702
 21
1.251794265144702
 31
0.0
  0
LWPOLYLINE
  5
7DE1B343D9E3D17
330
7DE1B343D9E3D61
100
AcDbEntity
  8
TEXT
100
AcDbPolyline
 90
        2
 70
     0
 43
0.0
 10
2.029587248523535
 20
1.28011681091435
 42
-0.3277054968067132
 10
2.0653689392367
 20
1.251794265144706
 42
6.667889725900311
  0
LINE
  5
7DE1B343D9E3D1B
330
7DE1B343D9E3D61
100
AcDbEntity
  8
TEXT
100
AcDbLine
 10
2.279160787328802
 20
1.174904832360919
 30
0.0
 11
2.2354100161469
 21
1.257155108357064
 31
0.0
  0
LINE
  5
7DE1B343D9E3D1C
330
7DE1B343D9E3D61
100
AcDbEntity
  8
TEXT
100
AcDbLine
 10
2.279160787328802
 20
1.280116810914346
 30
0.0
 11
2.279160787328802
 21
1.174904832360919
 31
0.0
  0
LINE
  5
7DE1B343D9E3D1D
330
7DE1B343D9E3D61
100
AcDbEntity
  8
TEXT
100
AcDbLine
 10
2.506844526267171
 20
1.204251484502808
 30
0.0
 11
2.506844526267171
 21
1.345581016681947
 31
0.0
  0
LINE
  5
7DE1B343D9E3D1E
330
7DE1B343D9E3D61
100
AcDbEntity
  8
TEXT
100
AcDbLine
 10
2.553942684823155
 20
1.280116810914346
 30
0.0
 11
2.506844526267171
 21
1.204251484502808
 31
0.0
  0
LINE
  5
7DE1B343D9E3D1F
330
7DE1B343D9E3D61
100
AcDbEntity
  8
TEXT
100
AcDbLine
 10
2.564377401587078
 20
1.170223567973373
 30
0.0
 11
2.628934517552783
 21
1.280116810914346
 31
0.0
  0
LINE
  5
7DE1B343D9E3D20
330
7DE1B343D9E3D61
100
AcDbEntity
  8
TEXT
100
AcDbLine
 10
2.443009535044398
 20
1.013643777925835
 30
0.0
 11
2.507387719363018
 21
1.013643777925835
 31
0.0
  0
LWPOLYLINE
  5
7DE1B343D9E3D21
330
7DE1B343D9E3D61
100
AcDbEntity
  8
TEXT
100
AcDbPolyline
 90
        2
 70
     0
 43
0.0
 10
2.283100464633839
 20
1.057134722876273
 42
-0.2901071551932486
 10
2.240024531766195
 20
1.013643777925835
 42
-5.328517124445184
  0
ARC
  5
7DE1B343D9E3D25
330
7DE1B343D9E3D61
100
AcDbEntity
  8
TEXT
100
AcDbCircle
 10
2.17116995010928
 20
1.187480741257584
 30
0.0
 40
0.028359375
100
AcDbArc
 50
25.78218179591245
 51
90.0
  0
LINE
  5
7DE1B343D9E3D26
330
7DE1B343D9E3D61
100
AcDbEntity
  8
TEXT
100
AcDbLine
 10
2.206971025413404
 20
1.178565142795449
 30
0.0
 11
2.196706264999839
 21
1.199815682368143
 31
0.0
  0
LINE
  5
7DE1B343D9E3D27
330
7DE1B343D9E3D61
100
AcDbEntity
  8
TEXT
100
AcDbLine
 10
2.12468303563002
 20
1.178565142795449
 30
0.0
 11
2.206971025413404
 21
1.178565142795449
 31
0.0
  0
LWPOLYLINE
  5
7DE1B343D9E3D28
330
7DE1B343D9E3D61
100
AcDbEntity
  8
TEXT
100
AcDbPolyline
 90
        4
 70
     1
 43
0.0
 10
2.219902066696302
 20
1.116607755909861
 10
2.131241748036444
 20
1.116607755909861
 42
0.9999999999999998
 10
2.131241748036444
 20
1.074209215406
 10
2.219902066696302
 20
1.074209215406
 42
1.0
  0
LWPOLYLINE
  5
7DE1B343D9E3D2E
330
7DE1B343D9E3D61
100
AcDbEntity
  8
TEXT
100
AcDbPolyline
 90
        2
 70
     0
 43
0.0
 10
2.106007114134818
 20
1.013643777925835
 10
2.240024531766195
 20
1.013643777925835
 42
0.9999999999999998
  0
LINE
  5
7DE1B343D9E3D32
330
7DE1B343D9E3D61
100
AcDbEntity
  8
TEXT
100
AcDbLine
 10
2.366361553751834
 20
1.215840116257581
 30
0.0
 11
2.443009535044392
 21
1.215840116257581
 31
0.0
  0
LINE
  5
7DE1B343D9E3D33
330
7DE1B343D9E3D61
100
AcDbEntity
  8
TEXT
100
AcDbLine
 10
2.443009535044392
 20
1.215840116257581
 30
0.0
 11
2.443009535044398
 21
1.013643777925835
 31
0.0
  0
ARC
  5
7DE1B343D9E3D34
330
7DE1B343D9E3D61
100
AcDbEntity
  8
TEXT
100
AcDbCircle
 10
2.366361553751833
 20
1.190934240974918
 30
0.0
 40
0.0249058752826653
100
AcDbArc
 50
89.99971217465335
 51
179.9999999999985
  0
LINE
  5
7DE1B343D9E3D35
330
7DE1B343D9E3D61
100
AcDbEntity
  8
TEXT
100
AcDbLine
 10
2.341455678469175
 20
1.013643777925835
 30
0.0
 11
2.34145567846917
 21
1.190934283357304
 31
0.0
  0
LWPOLYLINE
  5
7DE1B343D9E3D36
330
7DE1B343D9E3D61
100
AcDbEntity
  8
TEXT
100
AcDbPolyline
 90
        2
 70
     0
 43
0.0
 10
2.283100464633839
 20
1.013643777925835
 10
2.341455678469174
 20
1.013643777925835
  0
LWPOLYLINE
  5
7DE1B343D9E3D3A
330
7DE1B343D9E3D61
100
AcDbEntity
  8
TEXT
100
AcDbPolyline
 90
        2
 70
     0
 43
0.0
 10
2.283100464633839
 20
1.057134722876273
 10
2.283100464633839
 20
1.013643777925835
  0
LINE
  5
7DE1B343D9E3D3E
330
7DE1B343D9E3D61
100
AcDbEntity
  8
TEXT
100
AcDbLine
 10
2.659869624950689
 20
1.013643777925835
 30
0.0
 11
2.564377401587078
 21
1.170223567973373
 31
0.0
  0
LINE
  5
7DE1B343D9E3D3F
330
7DE1B343D9E3D61
100
AcDbEntity
  8
TEXT
100
AcDbLine
 10
2.583291252574483
 20
1.013643777925835
 30
0.0
 11
2.659869624950689
 21
1.013643777925835
 31
0.0
  0
LINE
  5
7DE1B343D9E3D40
330
7DE1B343D9E3D61
100
AcDbEntity
  8
TEXT
100
AcDbLine
 10
2.507387719363018
 20
1.145223346402016
 30
0.0
 11
2.583291252574483
 21
1.013643777925835
 31
0.0
  0
LINE
  5
7DE1B343D9E3D41
330
7DE1B343D9E3D61
100
AcDbEntity
  8
TEXT
100
AcDbLine
 10
2.507387719363018
 20
1.013643777925835
 30
0.0
 11
2.507387719363018
 21
1.145223346402016
 31
0.0
  0
LINE
  5
7DE1B343D9E3D42
330
7DE1B343D9E3D61
100
AcDbEntity
  8
TEXT
100
AcDbLine
 10
2.506844526267171
 20
1.345581016681947
 30
0.0
 11
2.438529647717897
 21
1.345581016681947
 31
0.0
  0
ARC
  5
7DE1B343D9E3D43
330
7DE1B343D9E3D61
100
AcDbEntity
  8
TEXT
100
AcDbCircle
 10
2.198173908676691
 20
1.238533243793444
 30
0.0
 40
0.0416329381542859
100
AcDbArc
 50
26.56974201007528
 51
87.20939649401342
  0
LINE
  5
7DE1B343D9E3D44
330
7DE1B343D9E3D61
100
AcDbEntity
  8
TEXT
100
AcDbLine
 10
2.343057693628303
 20
1.280116810914346
 30
0.0
 11
2.279160787328802
 21
1.280116810914346
 31
0.0
  0
LINE
  5
7DE1B343D9E3D45
330
7DE1B343D9E3D61
100
AcDbEntity
  8
TEXT
100
AcDbLine
 10
2.343057693628303
 20
1.252569161053472
 30
0.0
 11
2.343057693628303
 21
1.280116810914346
 31
0.0
  0
ARC
  5
7DE1B343D9E3D46
330
7DE1B343D9E3D61
100
AcDbEntity
  8
TEXT
100
AcDbCircle
 10
2.37425051069141
 20
1.248871083632081
 30
0.0
 40
0.0314112657011332
100
AcDbArc
 50
95.88484768694724
 51
173.2388340632136
  0
LINE
  5
7DE1B343D9E3D47
330
7DE1B343D9E3D61
100
AcDbEntity
  8
TEXT
100
AcDbLine
 10
2.438529647717892
 20
1.280116810914346
 30
0.0
 11
2.371029930068376
 21
1.280116810914346
 31
0.0
  0
LINE
  5
7DE1B343D9E3D48
330
7DE1B343D9E3D61
100
AcDbEntity
  8
TEXT
100
AcDbLine
 10
2.438529647717897
 20
1.345581016681947
 30
0.0
 11
2.438529647717892
 21
1.280116810914346
 31
0.0
  0
LINE
  5
7DE1B343D9E3D49
330
7DE1B343D9E3D61
100
AcDbEntity
  8
TEXT
100
AcDbLine
 10
2.628934517552783
 20
1.280116810914346
 30
0.0
 11
2.553942684823157
 21
1.280116810914346
 31
0.0
  0
INSERT
  5
7DE1B343D9E3D7C
330
7DE1B343D9E3D61
100
AcDbEntity
  8
ASHADE
 62
     1
100
AcDbBlockReference
  2
AVE_RENDER
 10
0.0
 20
0.0
 30
0.0
1001
AVE_RENDER
1002
{
1070
     6
1000
Pref
1070
    30
1070
    20
1070
     1
1070
     0
1000

1070
    10
1070
     1
1070
    30
1040
1.0
1070
     1
1040
0.3
1040
0.7
1040
0.0
1040
10.0
1010
-1.0
1020
-1.0
1030
-1.0
1040
0.3
1070
    49
1070
     0
1070
     0
1010
1.0
1020
1.0
1030
1.0
1040
45.0
1070
     1
1070
     0
1000
WCS
1040
0.0
1002
}
  0
INSERT
  5
7DE1B343D9E3D7D
330
7DE1B343D9E3D61
100
AcDbEntity
  8
ASHADE
 62
     3
100
AcDbBlockReference
  2
AVE_RENDER
 10
0.0
 20
0.0
 30
0.0
1001
AVE_RENDER
1002
{
1070
     0
1000
Full Opt
1070
     0
1070
     1
1070
     1
1070
     1
1070
     0
1070
     0
1070
     0
1070
     1
1070
     1
1040
0.0001
1040
0.0001
1002
}
  0
INSERT
  5
7DE1B343D9E3D7E
330
7DE1B343D9E3D61
100
AcDbEntity
  8
ASHADE
 62
     4
100
AcDbBlockReference
  2
AVE_RENDER
 10
0.0
 20
0.0
 30
0.0
1001
AVE_RENDER
1002
{
1070
     0
1000
Quick Opt
1070
     0
1070
     1
1070
     1
1070
     1
1070
     0
1070
     0
1070
     1
1002
}
  0
INSERT
  5
7DE1B343D9E3D7F
330
7DE1B343D9E3D61
100
AcDbEntity
  8
ASHADE
 62
     5
100
AcDbBlockReference
  2
AVE_RENDER
 10
0.0
 20
0.0
 30
0.0
1001
AVE_RENDER
1002
{
1070
     1
1000
Scanl Opt
1070
     2
1070
     0
1070
     2
1040
2.0
1040
4.0
1070
     0
1070
     1
1070
     0
1040
0.03
1002
}
  0
INSERT
  5
7DE1B343D9E3D80
330
7DE1B343D9E3D61
100
AcDbEntity
  8
ASHADE
 62
     6
100
AcDbBlockReference
  2
AVE_RENDER
 10
0.0
 20
0.0
 30
0.0
1001
AVE_RENDER
1002
{
1070
     2
1000
Raytr Opt
1070
     2
1070
     0
1070
     2
1040
2.0
1040
4.0
1070
     0
1070
     1
1070
     1
1040
0.03
1070
     3
1040
0.03
1002
}
  0
INSERT
  5
7DE1B343D9E3D81
330
7DE1B343D9E3D61
100
AcDbEntity
  8
ASHADE
 62
     7
100
AcDbBlockReference
  2
AVE_RENDER
 10
0.0
 20
0.0
 30
0.0
1001
AVE_RENDER
1002
{
1070
     0
1000
RFile Opt
1070
     5
1070
   640
1070
   480
1070
 10000
1070
     3
1070
    32
1070
    24
1070
     0
1070
     0
1070
     0
1070
     1
1070
     0
1070
     0
1070
     0
1002
}
  0
INSERT
  5
7DE1B343D9E3D82
330
7DE1B343D9E3D61
100
AcDbEntity
  8
ASHADE
 62
     8
100
AcDbBlockReference
  2
AVE_RENDER
 10
0.0
 20
0.0
 30
0.0
1001
AVE_RENDER
1002
{
1070
     0
1000
Fog Opt
1070
     0
1070
     0
1040
0.0
1040
1.0
1040
0.0
1040
1.0
1010
0.5
1020
0.5
1030
0.5
1002
}
  0
INSERT
  5
7DE1B343D9E3D83
330
7DE1B343D9E3D61
100
AcDbEntity
  8
ASHADE
 62
     9
100
AcDbBlockReference
  2
AVE_RENDER
 10
0.0
 20
0.0
 30
0.0
1001
AVE_RENDER
1002
{
1070
     0
1000
BG Opt
1070
     0
1070
     1
1010
0.0
1020
0.0
1030
0.0
1010
1.0
1020
0.0
1030
0.0
1010
0.0
1020
1.0
1030
0.0
1010
0.0
1020
0.0
1030
1.0
1040
0.5
1040
0.33
1040
0.0
1000

1070
     1
1000

1070
     1
1070
     1
1040
1.0
1040
1.0
1040
0.0
1040
0.0
1070
     0
1002
}
  0
INSERT
  5
7DE1B343D9E3D8A
330
7DE1B343D9E3D61
100
AcDbEntity
  8
ASHADE
 62
     1
100
AcDbBlockReference
  2
AVE_GLOBAL
 10
0.0
 20
0.0
 30
0.0
1001
AVE_MATERIAL
1002
{
1000
*GLOBAL*
1000
1
1000
Global finish.
1002
{
1002
}
1002
{
1070
    63
1002
{
1002
{
1010
-1.0
1020
-1.0
1030
-1.0
1002
}
1040
0.1000000014901161
1000

1040
0.0
1002
{
1002
}
1040
0.0
1002
{
1002
}
1040
0.0
1002
}
1002
{
1002
{
1010
-1.0
1020
-1.0
1030
-1.0
1002
}
1040
0.6999999880790711
1000

1040
0.0
1002
{
1002
}
1040
0.0
1002
{
1002
}
1040
0.0
1002
}
1002
{
1002
{
1010
-1.0
1020
-1.0
1030
-1.0
1002
}
1040
0.2000000029802322
1000

1040
0.0
1002
{
1002
}
1040
0.0
1002
{
1002
}
1040
0.0
1002
}
1002
{
1070
     0
1002
{
1070
     1
1002
{
1040
1.0
1040
1.0
1000

1040
0.0
1002
{
1002
}
1040
0.0
1002
{
1002
}
1040
0.0
1002
}
1002
}
1040
1.0
1040
0.0
1040
0.0
1002
}
1002
{
1040
1.0
1040
1.0
1000

1040
0.0
1002
{
1002
}
1040
0.0
1002
{
1002
}
1040
0.0
1002
}
1002
{
1040
0.5
1040
1.0
1000

1040
0.0
1002
{
1002
}
1040
0.0
1002
{
1002
}
1040
0.0
1002
}
1002
{
1070
     0
1040
0.0
1002
{
1002
}
1040
1.0
1002
{
1002
}
1040
0.0
1002
}
1002
{
1040
0.0
1002
{
1002
{
1010
0.0
1020
0.0
1030
0.0
1002
}
1040
1.0
1000

1040
0.0
1002
{
1002
}
1040
0.0
1002
{
1002
}
1040
0.0
1002
}
1002
}
1002
{
1002
{
1070
     1
1002
{
1040
0.0
1040
1.0
1000

1040
0.0
1002
{
1002
}
1040
0.0
1002
{
1002
}
1040
0.0
1002
}
1002
}
1040
0.0
1002
{
1002
}
1010
1.0
1020
0.0
1030
0.0
1010
0.0
1020
1.0
1030
0.0
1010
0.0
1020
0.0
1030
1.0
1070
     0
1002
}
1002
{
1002
{
1040
1.0
1040
1.0
1002
{
1070
     1
1002
{
1040
1.0
1040
1.0
1000

1040
0.0
1002
{
1002
}
1040
0.0
1002
{
1002
}
1040
0.0
1002
}
1002
}
1002
}
1070
     0
1040
0.0
1002
{
1002
}
1002
}
1002
{
1002
}
1002
}
1002
{
1071
        3
1070
     3
1070
     0
1002
{
1070
     2
1070
     0
1070
     0
1040
0.0
1002
}
1070
     0
1070
     2
1002
{
1002
}
1002
}
1002
{
1040
8030.0
1040
190.3000030517578
1040
0.3050000071525574
1040
228.0
1040
545.0
1040
14.0
1040
17.39999961853027
1040
0.4560000002384186
1002
}
1002
}
  0
ENDSEC
  0
SECTION
  2
OBJECTS
  0
DICTIONARY
  5
7DE1B343D9E3D55
330
0
100
AcDbDictionary
  3
ACAD_GROUP
350
7DE1B343D9E3D56
  3
ACAD_LAYOUT
350
7DE1B343D9E3D96
  3
ACAD_MLINESTYLE
350
7DE1B343D9E3D57
  3
ACAD_PLOTSETTINGS
350
7DE1B343D9E3D97
  3
ACAD_PLOTSTYLENAME
350
7DE1B343D9E3D94
  3
ACDBHEADERROUNDTRIPXREC
350
7DE1B343D9E3DA1
  3
ACDBVARIABLEDICTIONARY
350
7DE1B343D9E3D9E
  0
DICTIONARY
  5
7DE1B343D9E3DC3
330
7DE1B343D9E3D61
100
AcDbDictionary
280
     1
  3
ACAD_LAYOUTSELFREF
360
7DE1B343D9E3DC4
  0
DICTIONARY
  5
7DE1B343D9E3DC1
330
7DE1B343D9E3D5E
100
AcDbDictionary
280
     1
  3
ACAD_LAYOUTSELFREF
360
7DE1B343D9E3DC2
  0
DICTIONARY
  5
7DE1B343D9E3D56
102
{ACAD_REACTORS
330
7DE1B343D9E3D55
102
}
330
7DE1B343D9E3D55
100
AcDbDictionary
  0
DICTIONARY
  5
7DE1B343D9E3D96
102
{ACAD_REACTORS
330
7DE1B343D9E3D55
102
}
330
7DE1B343D9E3D55
100
AcDbDictionary
  0
DICTIONARY
  5
7DE1B343D9E3D57
102
{ACAD_REACTORS
330
7DE1B343D9E3D55
102
}
330
7DE1B343D9E3D55
100
AcDbDictionary
  3
STANDARD
350
7DE1B343D9E3D64
  0
DICTIONARY
  5
7DE1B343D9E3D97
102
{ACAD_REACTORS
330
7DE1B343D9E3D55
102
}
330
7DE1B343D9E3D55
100
AcDbDictionary
  0
ACDBDICTIONARYWDFLT
  5
7DE1B343D9E3D94
102
{ACAD_REACTORS
330
7DE1B343D9E3D55
102
}
330
7DE1B343D9E3D55
100
AcDbDictionary
281
     1
  3
Normal
350
7DE1B343D9E3D95
100
AcDbDictionaryWithDefault
340
7DE1B343D9E3D95
  0
DICTIONARY
  5
7DE1B343D9E3DA1
102
{ACAD_REACTORS
330
7DE1B343D9E3D55
102
}
330
7DE1B343D9E3D55
100
AcDbDictionary
  3
CEPSNTYPE
350
7DE1B343D9E3DAB
  3
FINGERPRINTGUID
350
7DE1B343D9E3DAC
  3
HYPERLINKBASE
350
7DE1B343D9E3DA4
  3
INSUNITS
350
7DE1B343D9E3DAA
  3
LAYOUTDICT
350
7DE1B343D9E3DA6
  3
LWETCUNION
350
7DE1B343D9E3DA9
  3
PLOTSETDICT
350
7DE1B343D9E3DA7
  3
PLOTSTYLNAMDICT
350
7DE1B343D9E3DA8
  3
PSVPSCALE
350
7DE1B343D9E3DAE
  3
PUCSBASE
350
7DE1B343D9E3DB1
  3
PUCSORGBACK
350
7DE1B343D9E3DB7
  3
PUCSORGBOTTOM
350
7DE1B343D9E3DB3
  3
PUCSORGFRONT
350
7DE1B343D9E3DB6
  3
PUCSORGLEFT
350
7DE1B343D9E3DB4
  3
PUCSORGRIGHT
350
7DE1B343D9E3DB5
  3
PUCSORGTOP
350
7DE1B343D9E3DB2
  3
PUCSORTHOREF
350
7DE1B343D9E3DAF
  3
PUCSORTHOVIEW
350
7DE1B343D9E3DB0
  3
STYLESHEET
350
7DE1B343D9E3DA5
  3
TSTACKALIGN
350
7DE1B343D9E3DA2
  3
TSTACKSIZE
350
7DE1B343D9E3DA3
  3
UCSBASE
350
7DE1B343D9E3DBA
  3
UCSORGBACK
350
7DE1B343D9E3DC0
  3
UCSORGBOTTOM
350
7DE1B343D9E3DBC
  3
UCSORGFRONT
350
7DE1B343D9E3DBF
  3
UCSORGLEFT
350
7DE1B343D9E3DBD
  3
UCSORGRIGHT
350
7DE1B343D9E3DBE
  3
UCSORGTOP
350
7DE1B343D9E3DBB
  3
UCSORTHOREF
350
7DE1B343D9E3DB8
  3
UCSORTHOVIEW
350
7DE1B343D9E3DB9
  3
VERSIONGUID
350
7DE1B343D9E3DAD
  0
DICTIONARY
  5
7DE1B343D9E3D9E
102
{ACAD_REACTORS
330
7DE1B343D9E3D55
102
}
330
7DE1B343D9E3D55
100
AcDbDictionary
  3
DIMASSOC
350
7DE1B343D9E3D9F
  0
XRECORD
  5
7DE1B343D9E3DC4
102
{ACAD_REACTORS
330
7DE1B343D9E3DC3
102
}
330
7DE1B343D9E3DC3
100
AcDbXrecord
340
7DE1B343D9E3D61
  0
XRECORD
  5
7DE1B343D9E3DC2
102
{ACAD_REACTORS
330
7DE1B343D9E3DC1
102
}
330
7DE1B343D9E3DC1
100
AcDbXrecord
340
7DE1B343D9E3D5E
  0
MLINESTYLE
  5
7DE1B343D9E3D64
102
{ACAD_REACTORS
330
7DE1B343D9E3D57
102
}
330
7DE1B343D9E3D57
100
AcDbMlineStyle
  2
STANDARD
 70
     0
  3

 62
     0
 51
90.0
 52
90.0
 71
     2
 49
0.5
 62
   256
  6
BYLAYER
 49
-0.5
 62
   256
  6
BYLAYER
  0
ACDBPLACEHOLDER
  5
7DE1B343D9E3D95
102
{ACAD_REACTORS
330
7DE1B343D9E3D94
102
}
330
7DE1B343D9E3D94
100
AcDbPlaceHolder
280
     0
  0
XRECORD
  5
7DE1B343D9E3DAB
102
{ACAD_REACTORS
330
7DE1B343D9E3DA1
102
}
330
7DE1B343D9E3DA1
100
AcDbXrecord
 90
        0
  0
XRECORD
  5
7DE1B343D9E3DAC
102
{ACAD_REACTORS
330
7DE1B343D9E3DA1
102
}
330
7DE1B343D9E3DA1
100
AcDbXrecord
  1
{4F6146F0-8DB6-11D6-88E6-0090279574E7}
  0
XRECORD
  5
7DE1B343D9E3DA4
102
{ACAD_REACTORS
330
7DE1B343D9E3DA1
102
}
330
7DE1B343D9E3DA1
100
AcDbXrecord
  1

  0
XRECORD
  5
7DE1B343D9E3DAA
102
{ACAD_REACTORS
330
7DE1B343D9E3DA1
102
}
330
7DE1B343D9E3DA1
100
AcDbXrecord
 90
        0
  0
XRECORD
  5
7DE1B343D9E3DA6
102
{ACAD_REACTORS
330
7DE1B343D9E3DA1
102
}
330
7DE1B343D9E3DA1
100
AcDbXrecord
340
7DE1B343D9E3D96
  0
XRECORD
  5
7DE1B343D9E3DA9
102
{ACAD_REACTORS
330
7DE1B343D9E3DA1
102
}
330
7DE1B343D9E3DA1
100
AcDbXrecord
 90
    14877
  0
XRECORD
  5
7DE1B343D9E3DA7
102
{ACAD_REACTORS
330
7DE1B343D9E3DA1
102
}
330
7DE1B343D9E3DA1
100
AcDbXrecord
340
7DE1B343D9E3D97
  0
XRECORD
  5
7DE1B343D9E3DA8
102
{ACAD_REACTORS
330
7DE1B343D9E3DA1
102
}
330
7DE1B343D9E3DA1
100
AcDbXrecord
340
7DE1B343D9E3D94
  0
XRECORD
  5
7DE1B343D9E3DAE
102
{ACAD_REACTORS
330
7DE1B343D9E3DA1
102
}
330
7DE1B343D9E3DA1
100
AcDbXrecord
 40
0.0
  0
XRECORD
  5
7DE1B343D9E3DB1
102
{ACAD_REACTORS
330
7DE1B343D9E3DA1
102
}
330
7DE1B343D9E3DA1
100
AcDbXrecord
340
0
  0
XRECORD
  5
7DE1B343D9E3DB7
102
{ACAD_REACTORS
330
7DE1B343D9E3DA1
102
}
330
7DE1B343D9E3DA1
100
AcDbXrecord
 10
0.0
 20
0.0
 30
0.0
  0
XRECORD
  5
7DE1B343D9E3DB3
102
{ACAD_REACTORS
330
7DE1B343D9E3DA1
102
}
330
7DE1B343D9E3DA1
100
AcDbXrecord
 10
0.0
 20
0.0
 30
0.0
  0
XRECORD
  5
7DE1B343D9E3DB6
102
{ACAD_REACTORS
330
7DE1B343D9E3DA1
102
}
330
7DE1B343D9E3DA1
100
AcDbXrecord
 10
0.0
 20
0.0
 30
0.0
  0
XRECORD
  5
7DE1B343D9E3DB4
102
{ACAD_REACTORS
330
7DE1B343D9E3DA1
102
}
330
7DE1B343D9E3DA1
100
AcDbXrecord
 10
0.0
 20
0.0
 30
0.0
  0
XRECORD
  5
7DE1B343D9E3DB5
102
{ACAD_REACTORS
330
7DE1B343D9E3DA1
102
}
330
7DE1B343D9E3DA1
100
AcDbXrecord
 10
0.0
 20
0.0
 30
0.0
  0
XRECORD
  5
7DE1B343D9E3DB2
102
{ACAD_REACTORS
330
7DE1B343D9E3DA1
102
}
330
7DE1B343D9E3DA1
100
AcDbXrecord
 10
0.0
 20
0.0
 30
0.0
  0
XRECORD
  5
7DE1B343D9E3DAF
102
{ACAD_REACTORS
330
7DE1B343D9E3DA1
102
}
330
7DE1B343D9E3DA1
100
AcDbXrecord
340
0
  0
XRECORD
  5
7DE1B343D9E3DB0
102
{ACAD_REACTORS
330
7DE1B343D9E3DA1
102
}
330
7DE1B343D9E3DA1
100
AcDbXrecord
 70
     0
  0
XRECORD
  5
7DE1B343D9E3DA5
102
{ACAD_REACTORS
330
7DE1B343D9E3DA1
102
}
330
7DE1B343D9E3DA1
100
AcDbXrecord
  1

  0
XRECORD
  5
7DE1B343D9E3DA2
102
{ACAD_REACTORS
330
7DE1B343D9E3DA1
102
}
330
7DE1B343D9E3DA1
100
AcDbXrecord
 90
        1
  0
XRECORD
  5
7DE1B343D9E3DA3
102
{ACAD_REACTORS
330
7DE1B343D9E3DA1
102
}
330
7DE1B343D9E3DA1
100
AcDbXrecord
 90
       70
  0
XRECORD
  5
7DE1B343D9E3DBA
102
{ACAD_REACTORS
330
7DE1B343D9E3DA1
102
}
330
7DE1B343D9E3DA1
100
AcDbXrecord
340
0
  0
XRECORD
  5
7DE1B343D9E3DC0
102
{ACAD_REACTORS
330
7DE1B343D9E3DA1
102
}
330
7DE1B343D9E3DA1
100
AcDbXrecord
 10
0.0
 20
0.0
 30
0.0
  0
XRECORD
  5
7DE1B343D9E3DBC
102
{ACAD_REACTORS
330
7DE1B343D9E3DA1
102
}
330
7DE1B343D9E3DA1
100
AcDbXrecord
 10
0.0
 20
0.0
 30
0.0
  0
XRECORD
  5
7DE1B343D9E3DBF
102
{ACAD_REACTORS
330
7DE1B343D9E3DA1
102
}
330
7DE1B343D9E3DA1
100
AcDbXrecord
 10
0.0
 20
0.0
 30
0.0
  0
XRECORD
  5
7DE1B343D9E3DBD
102
{ACAD_REACTORS
330
7DE1B343D9E3DA1
102
}
330
7DE1B343D9E3DA1
100
AcDbXrecord
 10
0.0
 20
0.0
 30
0.0
  0
XRECORD
  5
7DE1B343D9E3DBE
102
{ACAD_REACTORS
330
7DE1B343D9E3DA1
102
}
330
7DE1B343D9E3DA1
100
AcDbXrecord
 10
0.0
 20
0.0
 30
0.0
  0
XRECORD
  5
7DE1B343D9E3DBB
102
{ACAD_REACTORS
330
7DE1B343D9E3DA1
102
}
330
7DE1B343D9E3DA1
100
AcDbXrecord
 10
0.0
 20
0.0
 30
0.0
  0
XRECORD
  5
7DE1B343D9E3DB8
102
{ACAD_REACTORS
330
7DE1B343D9E3DA1
102
}
330
7DE1B343D9E3DA1
100
AcDbXrecord
340
0
  0
XRECORD
  5
7DE1B343D9E3DB9
102
{ACAD_REACTORS
330
7DE1B343D9E3DA1
102
}
330
7DE1B343D9E3DA1
100
AcDbXrecord
 70
     0
  0
XRECORD
  5
7DE1B343D9E3DAD
102
{ACAD_REACTORS
330
7DE1B343D9E3DA1
102
}
330
7DE1B343D9E3DA1
100
AcDbXrecord
  1
{4F6146F2-8DB6-11D6-88E6-0090279574E7}
  0
DICTIONARYVAR
  5
7DE1B343D9E3D9F
102
{ACAD_REACTORS
330
7DE1B343D9E3D9E
102
}
330
7DE1B343D9E3D9E
100
DictionaryVariables
280
     0
  1
1
  0
ENDSEC
  0
EOF
