  0
SECTION
  2
HEADER
  9
$ACADVER
  1
AC1014
  9
$ACADMAINTVER
 70
     9
  9
$DWGCODEPAGE
  3
ANSI_1252
  9
$INSBASE
 10
0.0
 20
0.0
 30
0.0
  9
$EXTMIN
 10
2.124999996925747
 20
1.848279039937601
 30
0.0
  9
$EXTMAX
 10
5.610219318672882
 20
5.6875
 30
0.0
  9
$LIMMIN
 10
0.0
 20
0.0
  9
$LIMMAX
 10
8.5
 20
11.0
  9
$ORTHOMODE
 70
     1
  9
$REGENMODE
 70
     1
  9
$FILLMODE
 70
     1
  9
$QTEXTMODE
 70
     0
  9
$MIRRTEXT
 70
     0
  9
$DRAGMODE
 70
     2
  9
$LTSCALE
 40
1.0
  9
$OSMODE
 70
    39
  9
$ATTMODE
 70
     1
  9
$TEXTSIZE
 40
0.125
  9
$TRACEWID
 40
0.05
  9
$TEXTSTYLE
  7
ROMANS
  9
$CLAYER
  8
DIM
  9
$CELTYPE
  6
BYLAYER
  9
$CECOLOR
 62
   256
  9
$CELTSCALE
 40
1.0
  9
$DELOBJ
 70
     1
  9
$DISPSILH
 70
     1
  9
$DIMSCALE
 40
2.0
  9
$DIMASZ
 40
0.125
  9
$DIMEXO
 40
0.125
  9
$DIMDLI
 40
0.375
  9
$DIMRND
 40
0.0
  9
$DIMDLE
 40
0.0
  9
$DIMEXE
 40
0.125
  9
$DIMTP
 40
0.0
  9
$DIMTM
 40
0.03
  9
$DIMTXT
 40
0.125
  9
$DIMCEN
 40
-0.125
  9
$DIMTSZ
 40
0.0
  9
$DIMTOL
 70
     0
  9
$DIMLIM
 70
     0
  9
$DIMTIH
 70
     1
  9
$DIMTOH
 70
     1
  9
$DIMSE1
 70
     0
  9
$DIMSE2
 70
     0
  9
$DIMTAD
 70
     0
  9
$DIMZIN
 70
     4
  9
$DIMBLK
  1

  9
$DIMASO
 70
     1
  9
$DIMSHO
 70
     1
  9
$DIMPOST
  1

  9
$DIMAPOST
  1

  9
$DIMALT
 70
     0
  9
$DIMALTD
 70
     2
  9
$DIMALTF
 40
25.4
  9
$DIMLFAC
 40
1.0
  9
$DIMTOFL
 70
     0
  9
$DIMTVP
 40
0.0
  9
$DIMTIX
 70
     1
  9
$DIMSOXD
 70
     0
  9
$DIMSAH
 70
     0
  9
$DIMBLK1
  1

  9
$DIMBLK2
  1

  9
$DIMSTYLE
  2
STANDARD
  9
$DIMCLRD
 70
     0
  9
$DIMCLRE
 70
     0
  9
$DIMCLRT
 70
     0
  9
$DIMTFAC
 40
1.0
  9
$DIMGAP
 40
0.09
  9
$DIMJUST
 70
     0
  9
$DIMSD1
 70
     0
  9
$DIMSD2
 70
     0
  9
$DIMTOLJ
 70
     1
  9
$DIMTZIN
 70
     0
  9
$DIMALTZ
 70
     0
  9
$DIMALTTZ
 70
     0
  9
$DIMFIT
 70
     3
  9
$DIMUPT
 70
     0
  9
$DIMUNIT
 70
     2
  9
$DIMDEC
 70
     3
  9
$DIMTDEC
 70
     4
  9
$DIMALTU
 70
     2
  9
$DIMALTTD
 70
     2
  9
$DIMTXSTY
  7
ROMANS
  9
$DIMAUNIT
 70
     0
  9
$LUNITS
 70
     2
  9
$LUPREC
 70
     3
  9
$SKETCHINC
 40
0.1
  9
$FILLETRAD
 40
0.0
  9
$AUNITS
 70
     0
  9
$AUPREC
 70
     0
  9
$MENU
  1
AUTOMSTR
  9
$ELEVATION
 40
0.0
  9
$PELEVATION
 40
0.0
  9
$THICKNESS
 40
0.0
  9
$LIMCHECK
 70
     0
  9
$BLIPMODE
 70
     0
  9
$CHAMFERA
 40
0.0
  9
$CHAMFERB
 40
0.0
  9
$CHAMFERC
 40
0.0
  9
$CHAMFERD
 40
0.0
  9
$SKPOLY
 70
     0
  9
$TDCREATE
 40
2448355.575082523
  9
$TDUPDATE
 40
2452458.306901689
  9
$TDINDWG
 40
0.0491475347
  9
$TDUSRTIMER
 40
0.0491475347
  9
$USRTIMER
 70
     1
  9
$ANGBASE
 50
0.0
  9
$ANGDIR
 70
     0
  9
$PDMODE
 70
     0
  9
$PDSIZE
 40
0.0
  9
$PLINEWID
 40
0.0
  9
$COORDS
 70
     2
  9
$SPLFRAME
 70
     0
  9
$SPLINETYPE
 70
     6
  9
$SPLINESEGS
 70
     8
  9
$ATTDIA
 70
     0
  9
$ATTREQ
 70
     1
  9
$HANDLING
 70
 22529
  9
$HANDSEED
  5
531
  9
$SURFTAB1
 70
     6
  9
$SURFTAB2
 70
     6
  9
$SURFTYPE
 70
     6
  9
$SURFU
 70
     6
  9
$SURFV
 70
     6
  9
$UCSNAME
  2

  9
$UCSORG
 10
0.0
 20
0.0
 30
0.0
  9
$UCSXDIR
 10
1.0
 20
0.0
 30
0.0
  9
$UCSYDIR
 10
0.0
 20
1.0
 30
0.0
  9
$PUCSNAME
  2

  9
$PUCSORG
 10
0.0
 20
0.0
 30
0.0
  9
$PUCSXDIR
 10
1.0
 20
0.0
 30
0.0
  9
$PUCSYDIR
 10
0.0
 20
1.0
 30
0.0
  9
$USERI1
 70
     0
  9
$USERI2
 70
     0
  9
$USERI3
 70
     0
  9
$USERI4
 70
     0
  9
$USERI5
 70
     0
  9
$USERR1
 40
0.0
  9
$USERR2
 40
0.0
  9
$USERR3
 40
0.0
  9
$USERR4
 40
0.0
  9
$USERR5
 40
0.0
  9
$WORLDVIEW
 70
     1
  9
$SHADEDGE
 70
     3
  9
$SHADEDIF
 70
    70
  9
$TILEMODE
 70
     1
  9
$MAXACTVP
 70
    16
  9
$PINSBASE
 10
0.0
 20
0.0
 30
0.0
  9
$PLIMCHECK
 70
     0
  9
$PEXTMIN
 10
1.000000000000000E+20
 20
1.000000000000000E+20
 30
1.000000000000000E+20
  9
$PEXTMAX
 10
-1.000000000000000E+20
 20
-1.000000000000000E+20
 30
-1.000000000000000E+20
  9
$PLIMMIN
 10
0.0
 20
0.0
  9
$PLIMMAX
 10
12.0
 20
9.0
  9
$UNITMODE
 70
     0
  9
$VISRETAIN
 70
     0
  9
$PLINEGEN
 70
     1
  9
$PSLTSCALE
 70
     0
  9
$TREEDEPTH
 70
  3020
  9
$PICKSTYLE
 70
     1
  9
$CMLSTYLE
  2
STANDARD
  9
$CMLJUST
 70
     0
  9
$CMLSCALE
 40
1.0
  9
$PROXYGRAPHICS
 70
     1
  9
$MEASUREMENT
 70
     0
  0
ENDSEC
  0
SECTION
  2
CLASSES
  0
CLASS
  1
LWPOLYLINE
  2
AcDbPolyline
  3
AutoCAD 2000
 90
        0
280
     0
281
     1
  0
CLASS
  1
ACDBDICTIONARYWDFLT
  2
AcDbDictionaryWithDefault
  3
AutoCAD 2000
 90
        0
280
     0
281
     0
  0
CLASS
  1
ACDBPLACEHOLDER
  2
AcDbPlaceHolder
  3
AutoCAD 2000
 90
        0
280
     0
281
     0
  0
CLASS
  1
LAYOUT
  2
AcDbLayout
  3
AutoCAD 2000
 90
        0
280
     0
281
     0
  0
CLASS
  1
DICTIONARYVAR
  2
AcDbDictionaryVar
  3
AutoCAD 2000
 90
        0
280
     0
281
     0
  0
CLASS
  1
LONG_TRANSACTION
  2
AcDbLongTransaction
  3
AutoCAD 2000
 90
        0
280
     0
281
     0
  0
CLASS
  1
LWPOLYLINE
  2
AcDbPolyline
  3
AutoCAD 2000
 90
        0
280
     0
281
     1
  0
CLASS
  1
HATCH
  2
AcDbHatch
  3
AutoCAD 2000
 90
        0
280
     0
281
     1
  0
CLASS
  1
XRECORD
  2
AcDbXrecord
  3
AutoCAD 2000
 90
        0
280
     0
281
     0
  0
ENDSEC
  0
SECTION
  2
TABLES
  0
TABLE
  2
VPORT
  5
8
330
0
100
AcDbSymbolTable
 70
     2
  0
VPORT
  5
50C
330
8
100
AcDbSymbolTableRecord
100
AcDbViewportTableRecord
  2
*ACTIVE
 70
     0
 10
0.0
 20
0.0
 11
1.0
 21
1.0
 12
9.098649799799696
 22
3.768084511561125
 13
0.0
 23
0.0
 14
0.015625
 24
0.015625
 15
0.0
 25
0.0
 16
0.0
 26
0.0
 36
1.0
 17
0.0
 27
0.0
 37
0.0
 40
3.873349652179658
 41
4.320930232558139
 42
50.0
 43
0.0
 44
0.0
 50
0.0
 51
0.0
 71
     0
 72
  2000
 73
     1
 74
     1
 75
     1
 76
     0
 77
     0
 78
     0
  0
ENDTAB
  0
TABLE
  2
LTYPE
  5
5
330
0
100
AcDbSymbolTable
 70
     1
  0
LTYPE
  5
12
330
5
100
AcDbSymbolTableRecord
100
AcDbLinetypeTableRecord
  2
BYBLOCK
 70
     0
  3

 72
    65
 73
     0
 40
0.0
  0
LTYPE
  5
13
330
5
100
AcDbSymbolTableRecord
100
AcDbLinetypeTableRecord
  2
BYLAYER
 70
     0
  3

 72
    65
 73
     0
 40
0.0
  0
LTYPE
  5
14
330
5
100
AcDbSymbolTableRecord
100
AcDbLinetypeTableRecord
  2
CONTINUOUS
 70
     0
  3
Solid line
 72
    65
 73
     0
 40
0.0
  0
ENDTAB
  0
TABLE
  2
LAYER
  5
2
330
0
100
AcDbSymbolTable
 70
     3
  0
LAYER
  5
F
330
2
100
AcDbSymbolTableRecord
100
AcDbLayerTableRecord
  2
0
 70
     0
 62
     7
  6
CONTINUOUS
  0
LAYER
  5
2A
330
2
100
AcDbSymbolTableRecord
100
AcDbLayerTableRecord
  2
DIM
 70
     0
 62
     4
  6
CONTINUOUS
  0
LAYER
  5
2B
330
2
100
AcDbSymbolTableRecord
100
AcDbLayerTableRecord
  2
TEXT
 70
     0
 62
     3
  6
CONTINUOUS
  0
ENDTAB
  0
TABLE
  2
STYLE
  5
3
330
0
100
AcDbSymbolTable
 70
     3
  0
STYLE
  5
10
330
3
100
AcDbSymbolTableRecord
100
AcDbTextStyleTableRecord
  2
STANDARD
 70
     0
 40
0.0
 41
1.0
 50
0.0
 71
     0
 42
0.25
  3
txt
  4

  0
STYLE
  5
3F8
330
3
100
AcDbSymbolTableRecord
100
AcDbTextStyleTableRecord
  2
ITALICC
 70
     0
 40
0.0
 41
1.0
 50
0.0
 71
     0
 42
0.125
  3
italicc
  4

  0
STYLE
  5
508
330
3
100
AcDbSymbolTableRecord
100
AcDbTextStyleTableRecord
  2
ROMANS
 70
     0
 40
0.0
 41
1.0
 50
0.0
 71
     0
 42
0.125
  3
romans.shx
  4

  0
ENDTAB
  0
TABLE
  2
VIEW
  5
6
330
0
100
AcDbSymbolTable
 70
     0
  0
ENDTAB
  0
TABLE
  2
UCS
  5
7
330
0
100
AcDbSymbolTable
 70
     0
  0
ENDTAB
  0
TABLE
  2
APPID
  5
9
330
0
100
AcDbSymbolTable
 70
     1
  0
APPID
  5
11
330
9
100
AcDbSymbolTableRecord
100
AcDbRegAppTableRecord
  2
ACAD
 70
     0
  0
ENDTAB
  0
TABLE
  2
DIMSTYLE
  5
A
330
0
100
AcDbSymbolTable
 70
     1
  0
DIMSTYLE
105
3EB
330
A
100
AcDbSymbolTableRecord
100
AcDbDimStyleTableRecord
  2
STANDARD
 70
     0
  3

  4

  5

  6

  7

 40
1.0
 41
0.18
 42
0.0625
 43
0.38
 44
0.18
 45
0.0
 46
0.0
 47
0.0
 48
0.0
140
0.18
141
0.09
142
0.0
143
25.4
144
1.0
145
0.0
146
1.0
147
0.09
 71
     0
 72
     0
 73
     1
 74
     1
 75
     0
 76
     0
 77
     0
 78
     0
170
     0
171
     2
172
     0
173
     0
174
     0
175
     0
176
     0
177
     0
178
     0
270
     2
271
     4
272
     4
273
     2
274
     2
340
10
275
     0
280
     0
281
     0
282
     0
283
     1
284
     0
285
     0
286
     0
287
     3
288
     0
  0
ENDTAB
  0
TABLE
  2
BLOCK_RECORD
  5
1
330
0
100
AcDbSymbolTable
 70
     0
  0
BLOCK_RECORD
  5
18
102
{ACAD_XDICTIONARY
360
52F
102
}
330
1
100
AcDbSymbolTableRecord
100
AcDbBlockTableRecord
  2
*MODEL_SPACE
  0
BLOCK_RECORD
  5
15
102
{ACAD_XDICTIONARY
360
52D
102
}
330
1
100
AcDbSymbolTableRecord
100
AcDbBlockTableRecord
  2
*PAPER_SPACE
  0
ENDTAB
  0
ENDSEC
  0
SECTION
  2
BLOCKS
  0
BLOCK
  5
34
330
18
100
AcDbEntity
  8
0
100
AcDbBlockBegin
  2
*MODEL_SPACE
 70
     0
 10
0.0
 20
0.0
 30
0.0
  3
*MODEL_SPACE
  1

  0
ENDBLK
  5
35
330
18
100
AcDbEntity
  8
0
100
AcDbBlockEnd
  0
BLOCK
  5
32
330
15
100
AcDbEntity
 67
     1
  8
0
100
AcDbBlockBegin
  2
*PAPER_SPACE
 70
     0
 10
0.0
 20
0.0
 30
0.0
  3
*PAPER_SPACE
  1

  0
ENDBLK
  5
33
330
15
100
AcDbEntity
 67
     1
  8
0
100
AcDbBlockEnd
  0
ENDSEC
  0
SECTION
  2
ENTITIES
  0
LWPOLYLINE
  5
3A4
330
18
100
AcDbEntity
  8
0
100
AcDbPolyline
 90
       31
 70
     1
 43
0.0
 10
3.830624999999999
 20
3.1875
 10
3.820624999999999
 20
3.1775
 10
3.820625
 20
2.7575
 10
3.581875
 20
2.7575
 42
1.0
 10
3.581875
 20
2.6875
 10
3.890625
 20
2.6875
 10
3.890625
 20
3.6875
 10
4.21875
 20
3.6875
 10
4.21875
 20
4.6875
 10
4.546875
 20
4.6875
 10
4.546875
 20
5.6875
 10
3.581875
 20
5.6875
 42
1.0
 10
3.581875
 20
5.617499999999999
 10
3.609375
 20
5.617499999999999
 10
3.609375
 20
5.234126587736526
 42
0.2679491924311233
 10
3.625
 20
5.207063293868262
 10
3.671875
 20
5.179999999999999
 10
3.671875
 20
5.617499999999999
 10
4.476874999999999
 20
5.617499999999999
 10
4.476874999999999
 20
4.7575
 10
4.148749999999999
 20
4.7575
 10
4.148749999999999
 20
3.757499999999999
 10
3.671874999999999
 20
3.757499999999999
 10
3.671875
 20
4.179999999999999
 10
3.625
 20
4.152936706131736
 42
0.2679491924311233
 10
3.609375
 20
4.125873412263472
 10
3.609375
 20
3.757499999999999
 10
3.581874999999999
 20
3.757499999999999
 42
1.0
 10
3.581874999999999
 20
3.6875
 10
3.820625
 20
3.6875
 10
3.820624999999999
 20
3.197499999999999
  0
TEXT
  5
47E
330
18
100
AcDbEntity
  8
TEXT
100
AcDbText
 10
3.112029195200509
 20
2.306297644020183
 30
0.0
 40
0.125
  1
PART #110325
  7
ITALICC
 72
     1
 11
3.86798157615289
 21
2.306297644020183
 31
0.0
100
AcDbText
  0
LINE
  5
47F
330
18
100
AcDbEntity
  8
TEXT
100
AcDbLine
 10
3.835715075104952
 20
2.061943958000349
 30
0.0
 11
3.91236305639751
 21
2.061943958000349
 31
0.0
  0
LINE
  5
480
330
18
100
AcDbEntity
  8
TEXT
100
AcDbLine
 10
3.90788316907101
 20
2.126220652657115
 30
0.0
 11
3.840383451421494
 21
2.126220652657115
 31
0.0
  0
LWPOLYLINE
  5
481
330
18
100
AcDbEntity
  8
TEXT
100
AcDbPolyline
 90
        5
 70
     0
 43
0.0001332181640625
 10
2.198603032570277
 20
2.002993850899302
 10
2.211924848976526
 20
2.002993850899302
 10
2.211924848976526
 20
2.039628846016491
 10
2.248559844093716
 20
2.039628846016491
 10
2.248559844093716
 20
2.052950662422738
  0
LWPOLYLINE
  5
482
330
18
100
AcDbEntity
  8
TEXT
100
AcDbPolyline
 90
        3
 70
     0
 43
0.0006660908203125
 10
2.238568481789025
 20
2.099577019844617
 10
2.151976675148401
 20
2.099577019844617
 10
2.151976675148401
 20
2.01298521320399
  0
LWPOLYLINE
  5
483
330
18
100
AcDbEntity
  8
TEXT
100
AcDbPolyline
 90
        3
 70
     0
 43
0.0006660908203125
 10
2.238568481789025
 20
2.126220652657118
 10
2.125333042335903
 20
2.126220652657118
 10
2.125333042335903
 20
2.01298521320399
  0
LWPOLYLINE
  5
484
330
18
100
AcDbEntity
  8
TEXT
100
AcDbPolyline
 90
        5
 70
     0
 43
0.0001332181640625
 10
2.248559844093716
 20
1.933054314766491
 10
2.248559844093716
 20
1.946376131172741
 10
2.211924848976528
 20
1.946376131172741
 10
2.211924848976528
 20
1.983011126289928
 10
2.198603032570277
 20
1.983011126289928
  0
LWPOLYLINE
  5
485
330
18
100
AcDbEntity
  8
TEXT
100
AcDbPolyline
 90
        3
 70
     0
 43
0.0006660908203125
 10
2.151976675148401
 20
1.973019763985242
 10
2.151976675148401
 20
1.886427957344616
 10
2.238568481789025
 20
1.886427957344616
  0
LWPOLYLINE
  5
486
330
18
100
AcDbEntity
  8
TEXT
100
AcDbPolyline
 90
        3
 70
     0
 43
0.0006660908203125
 10
2.125333042335903
 20
1.973019763985242
 10
2.125333042335903
 20
1.859784324532115
 10
2.238568481789025
 20
1.859784324532115
  0
LWPOLYLINE
  5
487
330
18
100
AcDbEntity
  8
TEXT
100
AcDbPolyline
 90
        2
 70
     0
 43
0.0001332181640625
 10
2.151976675148401
 20
1.973019763985242
 10
2.211924848976528
 20
1.983011126289928
  0
LWPOLYLINE
  5
488
330
18
100
AcDbEntity
  8
TEXT
100
AcDbPolyline
 90
        2
 70
     0
 43
0.0001332181640625
 10
2.198603032570277
 20
1.983011126289928
 10
2.125333042335903
 20
1.973019763985242
  0
LWPOLYLINE
  5
489
330
18
100
AcDbEntity
  8
TEXT
100
AcDbPolyline
 90
        2
 70
     0
 43
0.0006660908203125
 10
2.151976675148401
 20
1.973019763985242
 10
2.125333042335903
 20
1.973019763985242
  0
LWPOLYLINE
  5
48A
330
18
100
AcDbEntity
  8
TEXT
100
AcDbPolyline
 90
        2
 70
     0
 43
0.0001332181640625
 10
2.151976675148401
 20
1.886427957344616
 10
2.211924848976528
 20
1.946376131172741
  0
LWPOLYLINE
  5
48B
330
18
100
AcDbEntity
  8
TEXT
100
AcDbPolyline
 90
        2
 70
     0
 43
0.0006660908203125
 10
2.151976675148401
 20
2.01298521320399
 10
2.125333042335903
 20
2.01298521320399
  0
LWPOLYLINE
  5
48C
330
18
100
AcDbEntity
  8
TEXT
100
AcDbPolyline
 90
        2
 70
     0
 43
0.0001332181640625
 10
2.125333042335903
 20
2.01298521320399
 10
2.198603032570277
 20
2.002993850899302
  0
LWPOLYLINE
  5
48D
330
18
100
AcDbEntity
  8
TEXT
100
AcDbPolyline
 90
        2
 70
     0
 43
0.0001332181640625
 10
2.151976675148401
 20
2.01298521320399
 10
2.211924848976526
 20
2.002993850899302
  0
LWPOLYLINE
  5
48E
330
18
100
AcDbEntity
  8
TEXT
100
AcDbPolyline
 90
        2
 70
     0
 43
0.0001332181640625
 10
2.151976675148401
 20
2.099577019844617
 10
2.211924848976526
 20
2.039628846016491
  0
LWPOLYLINE
  5
48F
330
18
100
AcDbEntity
  8
TEXT
100
AcDbPolyline
 90
        5
 70
     0
 43
0.0001332181640625
 10
2.318499380226527
 20
1.983011126289928
 10
2.305177563820278
 20
1.983011126289928
 10
2.305177563820278
 20
1.946376131172741
 10
2.268542568703088
 20
1.946376131172741
 10
2.268542568703088
 20
1.933054314766491
  0
LWPOLYLINE
  5
490
330
18
100
AcDbEntity
  8
TEXT
100
AcDbPolyline
 90
        2
 70
     0
 43
0.0001332181640625
 10
2.365125737648402
 20
1.973019763985242
 10
2.305177563820278
 20
1.983011126289928
  0
LWPOLYLINE
  5
491
330
18
100
AcDbEntity
  8
TEXT
100
AcDbPolyline
 90
        2
 70
     0
 43
0.0001332181640625
 10
2.391769370460903
 20
1.973019763985242
 10
2.318499380226527
 20
1.983011126289928
  0
LWPOLYLINE
  5
492
330
18
100
AcDbEntity
  8
TEXT
100
AcDbPolyline
 90
        3
 70
     0
 43
0.0006660908203125
 10
2.278533931007777
 20
1.859784324532115
 10
2.391769370460903
 20
1.859784324532115
 10
2.391769370460903
 20
1.973019763985242
  0
LWPOLYLINE
  5
493
330
18
100
AcDbEntity
  8
TEXT
100
AcDbPolyline
 90
        3
 70
     0
 43
0.0006660908203125
 10
2.278533931007777
 20
1.886427957344616
 10
2.365125737648402
 20
1.886427957344616
 10
2.365125737648402
 20
1.973019763985242
  0
LWPOLYLINE
  5
494
330
18
100
AcDbEntity
  8
TEXT
100
AcDbPolyline
 90
        2
 70
     0
 43
0.0001332181640625
 10
2.365125737648402
 20
1.886427957344616
 10
2.305177563820278
 20
1.946376131172741
  0
LWPOLYLINE
  5
495
330
18
100
AcDbEntity
  8
TEXT
100
AcDbPolyline
 90
        2
 70
     0
 43
0.0006660908203125
 10
2.278533931007777
 20
1.886427957344616
 10
2.278533931007777
 20
1.859784324532115
  0
LWPOLYLINE
  5
496
330
18
100
AcDbEntity
  8
TEXT
100
AcDbPolyline
 90
        2
 70
     0
 43
0.0001332181640625
 10
2.268542568703088
 20
1.933054314766491
 10
2.278533931007777
 20
1.859784324532115
  0
LWPOLYLINE
  5
497
330
18
100
AcDbEntity
  8
TEXT
100
AcDbPolyline
 90
        2
 70
     0
 43
0.0001332181640625
 10
2.278533931007777
 20
1.886427957344616
 10
2.268542568703088
 20
1.946376131172741
  0
LWPOLYLINE
  5
498
330
18
100
AcDbEntity
  8
TEXT
100
AcDbPolyline
 90
        2
 70
     0
 43
0.0001332181640625
 10
2.238568481789025
 20
1.859784324532115
 10
2.248559844093716
 20
1.933054314766491
  0
LWPOLYLINE
  5
499
330
18
100
AcDbEntity
  8
TEXT
100
AcDbPolyline
 90
        2
 70
     0
 43
0.0001332181640625
 10
2.238568481789025
 20
1.886427957344616
 10
2.248559844093716
 20
1.946376131172741
  0
LWPOLYLINE
  5
49A
330
18
100
AcDbEntity
  8
TEXT
100
AcDbPolyline
 90
        2
 70
     0
 43
0.0006660908203125
 10
2.238568481789025
 20
1.886427957344616
 10
2.238568481789025
 20
1.859784324532115
  0
LWPOLYLINE
  5
49B
330
18
100
AcDbEntity
  8
TEXT
100
AcDbPolyline
 90
        2
 70
     0
 43
0.0006660908203125
 10
2.365125737648402
 20
1.973019763985242
 10
2.391769370460903
 20
1.973019763985242
  0
LWPOLYLINE
  5
49C
330
18
100
AcDbEntity
  8
TEXT
100
AcDbPolyline
 90
        2
 70
     0
 43
0.0001332181640625
 10
2.365125737648402
 20
2.099577019844617
 10
2.305177563820278
 20
2.039628846016491
  0
LWPOLYLINE
  5
49D
330
18
100
AcDbEntity
  8
TEXT
100
AcDbPolyline
 90
        2
 70
     0
 43
0.0001332181640625
 10
2.365125737648402
 20
2.01298521320399
 10
2.305177563820278
 20
2.002993850899302
  0
LWPOLYLINE
  5
49E
330
18
100
AcDbEntity
  8
TEXT
100
AcDbPolyline
 90
        2
 70
     0
 43
0.0001332181640625
 10
2.318499380226527
 20
2.002993850899302
 10
2.391769370460903
 20
2.01298521320399
  0
LWPOLYLINE
  5
49F
330
18
100
AcDbEntity
  8
TEXT
100
AcDbPolyline
 90
        3
 70
     0
 43
0.0006660908203125
 10
2.365125737648402
 20
2.01298521320399
 10
2.365125737648402
 20
2.099577019844617
 10
2.278533931007777
 20
2.099577019844617
  0
LWPOLYLINE
  5
4A0
330
18
100
AcDbEntity
  8
TEXT
100
AcDbPolyline
 90
        3
 70
     0
 43
0.0006660908203125
 10
2.391769370460903
 20
2.01298521320399
 10
2.391769370460903
 20
2.126220652657118
 10
2.278533931007777
 20
2.126220652657118
  0
LWPOLYLINE
  5
4A1
330
18
100
AcDbEntity
  8
TEXT
100
AcDbPolyline
 90
        2
 70
     0
 43
0.0001332181640625
 10
2.278533931007777
 20
2.126220652657118
 10
2.268542568703088
 20
2.052950662422738
  0
LWPOLYLINE
  5
4A2
330
18
100
AcDbEntity
  8
TEXT
100
AcDbPolyline
 90
        2
 70
     0
 43
0.0001332181640625
 10
2.278533931007777
 20
2.099577019844617
 10
2.268542568703088
 20
2.039628846016491
  0
LWPOLYLINE
  5
4A3
330
18
100
AcDbEntity
  8
TEXT
100
AcDbPolyline
 90
        2
 70
     0
 43
0.0006660908203125
 10
2.278533931007777
 20
2.099577019844617
 10
2.278533931007777
 20
2.126220652657118
  0
LWPOLYLINE
  5
4A4
330
18
100
AcDbEntity
  8
TEXT
100
AcDbPolyline
 90
        5
 70
     0
 43
0.0001332181640625
 10
2.268542568703088
 20
2.052950662422738
 10
2.268542568703088
 20
2.039628846016491
 10
2.305177563820278
 20
2.039628846016491
 10
2.305177563820278
 20
2.002993850899302
 10
2.318499380226527
 20
2.002993850899302
  0
LWPOLYLINE
  5
4A5
330
18
100
AcDbEntity
  8
TEXT
100
AcDbPolyline
 90
        2
 70
     0
 43
0.0001332181640625
 10
2.238568481789025
 20
2.099577019844617
 10
2.248559844093716
 20
2.039628846016491
  0
LWPOLYLINE
  5
4A6
330
18
100
AcDbEntity
  8
TEXT
100
AcDbPolyline
 90
        2
 70
     0
 43
0.0001332181640625
 10
2.248559844093716
 20
2.052950662422738
 10
2.238568481789025
 20
2.126220652657118
  0
LWPOLYLINE
  5
4A7
330
18
100
AcDbEntity
  8
TEXT
100
AcDbPolyline
 90
        2
 70
     0
 43
0.0006660908203125
 10
2.238568481789025
 20
2.099577019844617
 10
2.238568481789025
 20
2.126220652657118
  0
LWPOLYLINE
  5
4A8
330
18
100
AcDbEntity
  8
TEXT
100
AcDbPolyline
 90
        2
 70
     0
 43
0.0006660908203125
 10
2.365125737648402
 20
2.01298521320399
 10
2.391769370460903
 20
2.01298521320399
  0
LWPOLYLINE
  5
4A9
330
18
100
AcDbEntity
  8
TEXT
100
AcDbPolyline
 90
        2
 70
     0
 43
0.0
 10
3.110549291209533
 20
1.911298961883532
 42
0.3318488747599744
 10
3.179668583774846
 20
1.859747619668604
 42
-6.868794160588311
  0
LINE
  5
4AA
330
18
100
AcDbEntity
  8
TEXT
100
AcDbLine
 10
3.17852901027865
 20
2.194232130395925
 30
0.0
 11
3.111720297712285
 21
2.194232130395925
 31
0.0
  0
LINE
  5
4AB
330
18
100
AcDbEntity
  8
TEXT
100
AcDbLine
 10
2.832377930093191
 20
2.126220652657115
 30
0.0
 11
2.65664617719468
 21
2.126220652657115
 31
0.0
  0
ARC
  5
4AC
330
18
100
AcDbEntity
  8
TEXT
100
AcDbCircle
 10
2.72748364355323
 20
1.942943428029161
 30
0.0
 40
0.0831958083605586
100
AcDbArc
 50
270.0
 51
90.0
  0
LINE
  5
4AD
330
18
100
AcDbEntity
  8
TEXT
100
AcDbLine
 10
2.661883507308928
 20
2.061943958000349
 30
0.0
 11
2.828789161337899
 21
2.061943958000349
 31
0.0
  0
LINE
  5
4AE
330
18
100
AcDbEntity
  8
TEXT
100
AcDbLine
 10
2.732424017459509
 20
1.928104626002043
 30
0.0
 11
2.574558717748175
 21
1.928104626002043
 31
0.0
  0
LINE
  5
4AF
330
18
100
AcDbEntity
  8
TEXT
100
AcDbLine
 10
2.574558717748177
 20
1.859747619668604
 30
0.0
 11
2.727483643553229
 21
1.859747619668604
 31
0.0
  0
ARC
  5
4B0
330
18
100
AcDbEntity
  8
TEXT
100
AcDbCircle
 10
2.65664617719468
 20
2.044133193210613
 30
0.0
 40
0.0820874594465043
100
AcDbArc
 50
90.0
 51
270.0
  0
LINE
  5
4B1
330
18
100
AcDbEntity
  8
TEXT
100
AcDbLine
 10
2.574558717748175
 20
1.928104626002043
 30
0.0
 11
2.574558717748177
 21
1.859747619668604
 31
0.0
  0
LINE
  5
4B2
330
18
100
AcDbEntity
  8
TEXT
100
AcDbLine
 10
2.65664617719468
 20
1.962045733764107
 30
0.0
 11
2.732424017459509
 21
1.962045733764107
 31
0.0
  0
ARC
  5
4B3
330
18
100
AcDbEntity
  8
TEXT
100
AcDbCircle
 10
2.732424017459509
 20
1.945075179883077
 30
0.0
 40
0.0169705538810321
100
AcDbArc
 50
270.0
 51
90.0
  0
LINE
  5
4B4
330
18
100
AcDbEntity
  8
TEXT
100
AcDbLine
 10
2.727483643553229
 20
2.026139236389721
 30
0.0
 11
2.661883507308928
 21
2.026139236389721
 31
0.0
  0
ARC
  5
4B5
330
18
100
AcDbEntity
  8
TEXT
100
AcDbCircle
 10
2.661883507308929
 20
2.044041597195037
 30
0.0
 40
0.017902360805315
100
AcDbArc
 50
90.0
 51
270.0
  0
LINE
  5
4B6
330
18
100
AcDbEntity
  8
TEXT
100
AcDbLine
 10
3.022849822113044
 20
2.025348656543994
 30
0.0
 11
2.964219501081106
 21
2.126220652657115
 31
0.0
  0
LINE
  5
4B7
330
18
100
AcDbEntity
  8
TEXT
100
AcDbLine
 10
2.882675768818004
 20
1.859747619668604
 30
0.0
 11
2.979316019892999
 21
1.860018258766886
 31
0.0
  0
LWPOLYLINE
  5
4B8
330
18
100
AcDbEntity
  8
TEXT
100
AcDbPolyline
 90
        6
 70
     1
 43
0.0
 10
2.925199572393154
 20
2.061943958000349
 10
2.894882978172946
 20
2.061943958000349
 10
2.894882978172946
 20
1.938832959945455
 42
0.407328721240804
 10
2.906426629334422
 20
1.927014045269069
 10
2.967048328379153
 20
1.927014045269069
 10
2.984513668786471
 20
1.959826274312548
  0
LINE
  5
4B9
330
18
100
AcDbEntity
  8
TEXT
100
AcDbLine
 10
2.828789161337899
 20
2.061943958000349
 30
0.0
 11
2.828789161337899
 21
1.919540011006653
 31
0.0
  0
ARC
  5
4BA
330
18
100
AcDbEntity
  8
TEXT
100
AcDbCircle
 10
2.888905179311651
 20
1.919540011006653
 30
0.0
 40
0.0601160179737537
100
AcDbArc
 50
180.0000000000003
 51
264.0521544866073
  0
LINE
  5
4BB
330
18
100
AcDbEntity
  8
TEXT
100
AcDbLine
 10
2.892420534937198
 20
2.160608570251253
 30
0.0
 11
2.832377930093191
 21
2.160608570251253
 31
0.0
  0
LINE
  5
4BC
330
18
100
AcDbEntity
  8
TEXT
100
AcDbLine
 10
2.832377930093191
 20
2.160608570251253
 30
0.0
 11
2.832377930093191
 21
2.126220652657115
 31
0.0
  0
LINE
  5
4BD
330
18
100
AcDbEntity
  8
TEXT
100
AcDbLine
 10
2.892420534937198
 20
2.126220652657115
 30
0.0
 11
2.892420534937198
 21
2.160608570251253
 31
0.0
  0
LINE
  5
4BE
330
18
100
AcDbEntity
  8
TEXT
100
AcDbLine
 10
2.964219501081106
 20
2.126220652657115
 30
0.0
 11
2.892420534937198
 21
2.126220652657115
 31
0.0
  0
LINE
  5
4BF
330
18
100
AcDbEntity
  8
TEXT
100
AcDbLine
 10
3.013249585116089
 20
1.879706125773616
 30
0.0
 11
3.110549291209534
 21
2.044056336708885
 31
0.0
  0
LINE
  5
4C0
330
18
100
AcDbEntity
  8
TEXT
100
AcDbLine
 10
3.110549291209534
 20
2.044056336708885
 30
0.0
 11
3.110549291209534
 21
1.911298961883528
 31
0.0
  0
ARC
  5
4C1
330
18
100
AcDbEntity
  8
TEXT
100
AcDbCircle
 10
2.979206025203876
 20
1.899295341942299
 30
0.0
 40
0.0392772371940762
100
AcDbArc
 50
270.1604552698595
 51
330.0831797321295
  0
LINE
  5
4C2
330
18
100
AcDbEntity
  8
TEXT
100
AcDbLine
 10
3.081598384918909
 20
2.126220652657115
 30
0.0
 11
3.022849822113044
 21
2.025348656543994
 31
0.0
  0
LINE
  5
4C3
330
18
100
AcDbEntity
  8
TEXT
100
AcDbLine
 10
3.111720297712285
 20
2.194232130395925
 30
0.0
 11
3.111720297712285
 21
2.126220652657115
 31
0.0
  0
LINE
  5
4C4
330
18
100
AcDbEntity
  8
TEXT
100
AcDbLine
 10
3.111720297712285
 20
2.126220652657115
 30
0.0
 11
3.081598384918909
 21
2.126220652657115
 31
0.0
  0
LWPOLYLINE
  5
4C5
330
18
100
AcDbEntity
  8
TEXT
100
AcDbPolyline
 90
        4
 70
     0
 43
0.0
 10
3.463806419332444
 20
2.054390168834239
 10
3.463806419332444
 20
1.859747619668604
 10
3.532284702620302
 20
1.859747619668604
 10
3.532284702620302
 20
1.903238564619042
 42
-1.714843617202739
  0
LWPOLYLINE
  5
4C6
330
18
100
AcDbEntity
  8
TEXT
100
AcDbPolyline
 90
        2
 70
     0
 43
0.0
 10
3.498940769876654
 20
2.126220652657118
 42
-0.3277054968067132
 10
3.534722460589819
 20
2.097898106887474
 42
6.667889725900311
  0
LWPOLYLINE
  5
4C7
330
18
100
AcDbEntity
  8
TEXT
100
AcDbPolyline
 90
        2
 70
     0
 43
0.0
 10
3.327507197297427
 20
2.061943958000349
 42
-0.4142135623731017
 10
3.33506098646354
 20
2.054390168834239
 42
-0.9999999999999998
  0
LINE
  5
4C8
330
18
100
AcDbEntity
  8
TEXT
100
AcDbLine
 10
3.344858920347447
 20
2.126220652657115
 30
0.0
 11
3.210840864416311
 21
2.126220652657115
 31
0.0
  0
LINE
  5
4C9
330
18
100
AcDbEntity
  8
TEXT
100
AcDbLine
 10
3.27767191747428
 20
1.859747619668604
 30
0.0
 11
3.27767191747428
 21
2.061943958000349
 31
0.0
  0
LINE
  5
4CA
330
18
100
AcDbEntity
  8
TEXT
100
AcDbLine
 10
3.210840864416311
 20
2.126220652657115
 30
0.0
 11
3.210840864416311
 21
1.925356445924706
 31
0.0
  0
LINE
  5
4CB
330
18
100
AcDbEntity
  8
TEXT
100
AcDbLine
 10
3.17852901027865
 20
1.942135457771603
 30
0.0
 11
3.17852901027865
 21
2.194232130395925
 31
0.0
  0
LINE
  5
4CC
330
18
100
AcDbEntity
  8
TEXT
100
AcDbLine
 10
3.179668583774845
 20
1.859747619668604
 30
0.0
 11
3.27767191747428
 21
1.859747619668604
 31
0.0
  0
LINE
  5
4CD
330
18
100
AcDbEntity
  8
TEXT
100
AcDbLine
 10
3.210840864416311
 20
1.925356445924706
 30
0.0
 11
3.193847227531709
 21
1.925356445924706
 31
0.0
  0
ARC
  5
4CE
330
18
100
AcDbEntity
  8
TEXT
100
AcDbCircle
 10
3.193847227531708
 20
1.940738252168132
 30
0.0
 40
0.0153818062434269
100
AcDbArc
 50
174.7883570302258
 51
270.0
  0
LINE
  5
4CF
330
18
100
AcDbEntity
  8
TEXT
100
AcDbLine
 10
3.27767191747428
 20
2.061943958000349
 30
0.0
 11
3.327507197297427
 21
2.061943958000349
 31
0.0
  0
LINE
  5
4D0
330
18
100
AcDbEntity
  8
TEXT
100
AcDbLine
 10
3.335060986463541
 20
2.054390168834239
 30
0.0
 11
3.335060986463541
 21
1.859747619668604
 31
0.0
  0
LINE
  5
4D1
330
18
100
AcDbEntity
  8
TEXT
100
AcDbLine
 10
3.402119033245381
 20
1.859747619668604
 30
0.0
 11
3.402119033245381
 21
2.061943958000349
 31
0.0
  0
LINE
  5
4D2
330
18
100
AcDbEntity
  8
TEXT
100
AcDbLine
 10
3.335060986463541
 20
1.859747619668604
 30
0.0
 11
3.402119033245381
 21
1.859747619668604
 31
0.0
  0
LWPOLYLINE
  5
4D3
330
18
100
AcDbEntity
  8
TEXT
100
AcDbPolyline
 90
        3
 70
     0
 43
0.0
 10
3.498940769876654
 20
2.126220652657118
 10
3.380640611060609
 20
2.126220652657118
 10
3.380640611060609
 20
2.099053155896222
 42
-1.960274751411753
  0
LINE
  5
4D4
330
18
100
AcDbEntity
  8
TEXT
100
AcDbLine
 10
3.402119033245381
 20
2.061943958000349
 30
0.0
 11
3.456252630166331
 21
2.061943958000349
 31
0.0
  0
LWPOLYLINE
  5
4D5
330
18
100
AcDbEntity
  8
TEXT
100
AcDbPolyline
 90
        2
 70
     0
 43
0.0
 10
3.344858920347448
 20
2.126220652657118
 42
-0.3328679258950098
 10
3.380640611060609
 20
2.099053155896222
 42
6.772930709997214
  0
LWPOLYLINE
  5
4D6
330
18
100
AcDbEntity
  8
TEXT
100
AcDbPolyline
 90
        2
 70
     0
 43
0.0
 10
3.45625263016633
 20
2.061943958000349
 42
-0.4142135623731017
 10
3.463806419332444
 20
2.054390168834239
 42
-0.9999999999999998
  0
ARC
  5
4D7
330
18
100
AcDbEntity
  8
TEXT
100
AcDbCircle
 10
3.66752743002981
 20
2.084637085536212
 30
0.0
 40
0.0416329381542859
100
AcDbArc
 50
26.56974201007528
 51
87.20939649401342
  0
LWPOLYLINE
  5
4D8
330
18
100
AcDbEntity
  8
TEXT
100
AcDbPolyline
 90
        2
 70
     0
 43
0.0
 10
3.575360635487937
 20
1.859747619668604
 10
3.709378053119314
 20
1.859747619668604
 42
0.9999999999999998
  0
LWPOLYLINE
  5
4D9
330
18
100
AcDbEntity
  8
TEXT
100
AcDbPolyline
 90
        4
 70
     1
 43
0.0
 10
3.689255588049421
 20
1.962711597652629
 10
3.600595269389563
 20
1.962711597652629
 42
0.9999999999999998
 10
3.600595269389563
 20
1.920313057148768
 10
3.689255588049421
 20
1.920313057148768
 42
1.0
  0
LWPOLYLINE
  5
4DA
330
18
100
AcDbEntity
  8
TEXT
100
AcDbPolyline
 90
        2
 70
     0
 43
0.0
 10
3.532284702620302
 20
1.903238564619042
 42
0.2901071551932823
 10
3.575360635487937
 20
1.859747619668604
 42
5.328517124445801
  0
LINE
  5
4DB
330
18
100
AcDbEntity
  8
TEXT
100
AcDbLine
 10
3.669554369806879
 20
2.126220652657115
 30
0.0
 11
3.534722460589819
 21
2.126220652657115
 31
0.0
  0
LINE
  5
4DC
330
18
100
AcDbEntity
  8
TEXT
100
AcDbLine
 10
3.594036556983138
 20
2.024668984538217
 30
0.0
 11
3.676324546766521
 21
2.024668984538217
 31
0.0
  0
LINE
  5
4DD
330
18
100
AcDbEntity
  8
TEXT
100
AcDbLine
 10
3.6405234714624
 20
2.061943958000349
 30
0.0
 11
3.533317198075111
 21
2.061943958000349
 31
0.0
  0
LINE
  5
4DE
330
18
100
AcDbEntity
  8
TEXT
100
AcDbLine
 10
3.534722460589819
 20
2.126220652657115
 30
0.0
 11
3.534722460589819
 21
2.097898106887471
 31
0.0
  0
ARC
  5
4DF
330
18
100
AcDbEntity
  8
TEXT
100
AcDbCircle
 10
3.594036556983137
 20
1.956983403394098
 30
0.0
 40
0.0676855811441166
100
AcDbArc
 50
90.0
 51
153.7768192527749
  0
LINE
  5
4E0
330
18
100
AcDbEntity
  8
TEXT
100
AcDbLine
 10
3.533317198075111
 20
2.061943958000349
 30
0.0
 11
3.533317198075111
 21
1.986891551926142
 31
0.0
  0
LINE
  5
4E1
330
18
100
AcDbEntity
  8
TEXT
100
AcDbLine
 10
3.676324546766521
 20
2.024668984538217
 30
0.0
 11
3.666059786352957
 21
2.045919524110911
 31
0.0
  0
ARC
  5
4E2
330
18
100
AcDbEntity
  8
TEXT
100
AcDbCircle
 10
3.640523471462399
 20
2.033584583000352
 30
0.0
 40
0.028359375
100
AcDbArc
 50
25.78218179591245
 51
90.0
  0
LINE
  5
4E3
330
18
100
AcDbEntity
  8
TEXT
100
AcDbLine
 10
3.810809199822293
 20
1.859747619668604
 30
0.0
 11
3.810809199822288
 21
2.037038125100072
 31
0.0
  0
LWPOLYLINE
  5
4E4
330
18
100
AcDbEntity
  8
TEXT
100
AcDbPolyline
 90
        2
 70
     0
 43
0.0
 10
3.752453985986958
 20
1.859747619668604
 10
3.810809199822292
 20
1.859747619668604
  0
LWPOLYLINE
  5
4E5
330
18
100
AcDbEntity
  8
TEXT
100
AcDbPolyline
 90
        2
 70
     0
 43
0.0
 10
3.752453985986958
 20
1.903238564619042
 42
-0.2901071551932486
 10
3.709378053119314
 20
1.859747619668604
 42
-5.328517124445184
  0
LWPOLYLINE
  5
4E6
330
18
100
AcDbEntity
  8
TEXT
100
AcDbPolyline
 90
        2
 70
     0
 43
0.0
 10
3.752453985986958
 20
1.903238564619042
 10
3.752453985986958
 20
1.859747619668604
  0
LINE
  5
4E7
330
18
100
AcDbEntity
  8
TEXT
100
AcDbLine
 10
3.812411214981421
 20
2.126220652657115
 30
0.0
 11
3.74851430868192
 21
2.126220652657115
 31
0.0
  0
LINE
  5
4E8
330
18
100
AcDbEntity
  8
TEXT
100
AcDbLine
 10
3.74851430868192
 20
2.126220652657115
 30
0.0
 11
3.74851430868192
 21
2.021008674103687
 31
0.0
  0
LINE
  5
4E9
330
18
100
AcDbEntity
  8
TEXT
100
AcDbLine
 10
3.74851430868192
 20
2.021008674103687
 30
0.0
 11
3.704763537500018
 21
2.103258950099832
 31
0.0
  0
ARC
  5
4EA
330
18
100
AcDbEntity
  8
TEXT
100
AcDbCircle
 10
3.835715075104952
 20
2.037038082717686
 30
0.0
 40
0.0249058752826653
100
AcDbArc
 50
89.99971217465335
 51
179.9999999999985
  0
ARC
  5
4EB
330
18
100
AcDbEntity
  8
TEXT
100
AcDbCircle
 10
3.843604032044529
 20
2.09497492537485
 30
0.0
 40
0.0314112657011332
100
AcDbArc
 50
95.88484768694724
 51
173.2388340632136
  0
LINE
  5
4EC
330
18
100
AcDbEntity
  8
TEXT
100
AcDbLine
 10
3.812411214981421
 20
2.09867300279624
 30
0.0
 11
3.812411214981421
 21
2.126220652657115
 31
0.0
  0
TEXT
  5
4ED
330
18
100
AcDbEntity
  8
TEXT
100
AcDbText
 10
4.281286734403211
 20
1.9526334283141
 30
0.0
 40
0.0522247191011236
  1
Minneapolis, MN 55432-0008
 41
1.11444212721585
 72
     5
 11
5.610219318672875
 21
1.9526334283141
 31
0.0
100
AcDbText
  0
TEXT
  5
4EE
330
18
100
AcDbEntity
  8
TEXT
100
AcDbText
 10
4.281286734403211
 20
2.045891855280392
 30
0.0
 40
0.0522247191011236
  1
6536 Main St. N.E. * P.O. Box 32008
 41
0.8388932496075369
 72
     5
 11
5.610219318672875
 21
2.045891855280392
 31
0.0
100
AcDbText
  0
TEXT
  5
4EF
330
18
100
AcDbEntity
  8
TEXT
100
AcDbText
 10
4.281286734403211
 20
2.139150282246684
 30
0.0
 40
0.0522247191011236
  1
Stylmark  Incorporated
 41
1.221428571428571
 72
     5
 11
5.610219318672875
 21
2.139150282246684
 31
0.0
100
AcDbText
  0
TEXT
  5
4F0
330
18
100
AcDbEntity
  8
TEXT
100
AcDbText
 10
4.281286734403211
 20
1.859375001347808
 30
0.0
 40
0.0522247191011236
  1
Phone  1-800-328-2495
 41
1.272321428571429
 72
     5
 11
5.610219318672875
 21
1.859375001347808
 31
0.0
100
AcDbText
  0
LINE
  5
4F1
330
18
100
AcDbEntity
  8
TEXT
100
AcDbLine
 10
4.033730922940196
 20
2.016327409716141
 30
0.0
 11
4.098288038905901
 21
2.126220652657115
 31
0.0
  0
LINE
  5
4F2
330
18
100
AcDbEntity
  8
TEXT
100
AcDbLine
 10
4.098288038905901
 20
2.126220652657115
 30
0.0
 11
4.023296206176275
 21
2.126220652657115
 31
0.0
  0
LINE
  5
4F3
330
18
100
AcDbEntity
  8
TEXT
100
AcDbLine
 10
4.052644773927601
 20
1.859747619668604
 30
0.0
 11
4.129223146303806
 21
1.859747619668604
 31
0.0
  0
LINE
  5
4F4
330
18
100
AcDbEntity
  8
TEXT
100
AcDbLine
 10
4.129223146303806
 20
1.859747619668604
 30
0.0
 11
4.033730922940196
 21
2.016327409716141
 31
0.0
  0
LINE
  5
4F5
330
18
100
AcDbEntity
  8
TEXT
100
AcDbLine
 10
3.976741240716136
 20
1.859747619668604
 30
0.0
 11
3.976741240716136
 21
1.991327188144784
 31
0.0
  0
LINE
  5
4F6
330
18
100
AcDbEntity
  8
TEXT
100
AcDbLine
 10
3.976741240716136
 20
1.991327188144784
 30
0.0
 11
4.052644773927601
 21
1.859747619668604
 31
0.0
  0
LINE
  5
4F7
330
18
100
AcDbEntity
  8
TEXT
100
AcDbLine
 10
3.91236305639751
 20
2.061943958000349
 30
0.0
 11
3.912363056397516
 21
1.859747619668604
 31
0.0
  0
LINE
  5
4F8
330
18
100
AcDbEntity
  8
TEXT
100
AcDbLine
 10
3.912363056397516
 20
1.859747619668604
 30
0.0
 11
3.976741240716136
 21
1.859747619668604
 31
0.0
  0
LINE
  5
4F9
330
18
100
AcDbEntity
  8
TEXT
100
AcDbLine
 10
3.976198047620289
 20
2.191684858424715
 30
0.0
 11
3.907883169071015
 21
2.191684858424715
 31
0.0
  0
LINE
  5
4FA
330
18
100
AcDbEntity
  8
TEXT
100
AcDbLine
 10
3.907883169071015
 20
2.191684858424715
 30
0.0
 11
3.90788316907101
 21
2.126220652657115
 31
0.0
  0
LINE
  5
4FB
330
18
100
AcDbEntity
  8
TEXT
100
AcDbLine
 10
4.023296206176273
 20
2.126220652657115
 30
0.0
 11
3.976198047620289
 21
2.050355326245576
 31
0.0
  0
LINE
  5
4FC
330
18
100
AcDbEntity
  8
TEXT
100
AcDbLine
 10
3.976198047620289
 20
2.050355326245576
 30
0.0
 11
3.976198047620289
 21
2.191684858424715
 31
0.0
  0
ENDSEC
  0
SECTION
  2
OBJECTS
  0
DICTIONARY
  5
C
330
0
100
AcDbDictionary
  3
ACAD_GROUP
350
D
  3
ACAD_LAYOUT
350
501
  3
ACAD_MLINESTYLE
350
E
  3
ACAD_PLOTSETTINGS
350
502
  3
ACAD_PLOTSTYLENAME
350
4FF
  3
ACDBHEADERROUNDTRIPXREC
350
50D
  3
ACDBVARIABLEDICTIONARY
350
50A
  0
DICTIONARY
  5
52F
330
18
100
AcDbDictionary
280
     1
  3
ACAD_LAYOUTSELFREF
360
530
  0
DICTIONARY
  5
52D
330
15
100
AcDbDictionary
280
     1
  3
ACAD_LAYOUTSELFREF
360
52E
  0
DICTIONARY
  5
D
102
{ACAD_REACTORS
330
C
102
}
330
C
100
AcDbDictionary
  0
DICTIONARY
  5
501
102
{ACAD_REACTORS
330
C
102
}
330
C
100
AcDbDictionary
  0
DICTIONARY
  5
E
102
{ACAD_REACTORS
330
C
102
}
330
C
100
AcDbDictionary
  3
STANDARD
350
1B
  0
DICTIONARY
  5
502
102
{ACAD_REACTORS
330
C
102
}
330
C
100
AcDbDictionary
  0
ACDBDICTIONARYWDFLT
  5
4FF
102
{ACAD_REACTORS
330
C
102
}
330
C
100
AcDbDictionary
281
     1
  3
Normal
350
500
100
AcDbDictionaryWithDefault
340
500
  0
DICTIONARY
  5
50D
102
{ACAD_REACTORS
330
C
102
}
330
C
100
AcDbDictionary
  3
CEPSNTYPE
350
517
  3
FINGERPRINTGUID
350
518
  3
HYPERLINKBASE
350
510
  3
INSUNITS
350
516
  3
LAYOUTDICT
350
512
  3
LWETCUNION
350
515
  3
PLOTSETDICT
350
513
  3
PLOTSTYLNAMDICT
350
514
  3
PSVPSCALE
350
51A
  3
PUCSBASE
350
51D
  3
PUCSORGBACK
350
523
  3
PUCSORGBOTTOM
350
51F
  3
PUCSORGFRONT
350
522
  3
PUCSORGLEFT
350
520
  3
PUCSORGRIGHT
350
521
  3
PUCSORGTOP
350
51E
  3
PUCSORTHOREF
350
51B
  3
PUCSORTHOVIEW
350
51C
  3
STYLESHEET
350
511
  3
TSTACKALIGN
350
50E
  3
TSTACKSIZE
350
50F
  3
UCSBASE
350
526
  3
UCSORGBACK
350
52C
  3
UCSORGBOTTOM
350
528
  3
UCSORGFRONT
350
52B
  3
UCSORGLEFT
350
529
  3
UCSORGRIGHT
350
52A
  3
UCSORGTOP
350
527
  3
UCSORTHOREF
350
524
  3
UCSORTHOVIEW
350
525
  3
VERSIONGUID
350
519
  0
DICTIONARY
  5
50A
102
{ACAD_REACTORS
330
C
102
}
330
C
100
AcDbDictionary
  3
DIMASSOC
350
50B
  0
XRECORD
  5
530
102
{ACAD_REACTORS
330
52F
102
}
330
52F
100
AcDbXrecord
340
18
  0
XRECORD
  5
52E
102
{ACAD_REACTORS
330
52D
102
}
330
52D
100
AcDbXrecord
340
15
  0
MLINESTYLE
  5
1B
102
{ACAD_REACTORS
330
E
102
}
330
E
100
AcDbMlineStyle
  2
STANDARD
 70
     0
  3

 62
     0
 51
90.0
 52
90.0
 71
     2
 49
0.5
 62
   256
  6
BYLAYER
 49
-0.5
 62
   256
  6
BYLAYER
  0
ACDBPLACEHOLDER
  5
500
102
{ACAD_REACTORS
330
4FF
102
}
330
4FF
100
AcDbPlaceHolder
280
     0
  0
XRECORD
  5
517
102
{ACAD_REACTORS
330
50D
102
}
330
50D
100
AcDbXrecord
 90
        0
  0
XRECORD
  5
518
102
{ACAD_REACTORS
330
50D
102
}
330
50D
100
AcDbXrecord
  1
{4B02B9B0-8DB6-11D6-88E6-0090279574E7}
  0
XRECORD
  5
510
102
{ACAD_REACTORS
330
50D
102
}
330
50D
100
AcDbXrecord
  1

  0
XRECORD
  5
516
102
{ACAD_REACTORS
330
50D
102
}
330
50D
100
AcDbXrecord
 90
        0
  0
XRECORD
  5
512
102
{ACAD_REACTORS
330
50D
102
}
330
50D
100
AcDbXrecord
340
501
  0
XRECORD
  5
515
102
{ACAD_REACTORS
330
50D
102
}
330
50D
100
AcDbXrecord
 90
    14877
  0
XRECORD
  5
513
102
{ACAD_REACTORS
330
50D
102
}
330
50D
100
AcDbXrecord
340
502
  0
XRECORD
  5
514
102
{ACAD_REACTORS
330
50D
102
}
330
50D
100
AcDbXrecord
340
4FF
  0
XRECORD
  5
51A
102
{ACAD_REACTORS
330
50D
102
}
330
50D
100
AcDbXrecord
 40
0.0
  0
XRECORD
  5
51D
102
{ACAD_REACTORS
330
50D
102
}
330
50D
100
AcDbXrecord
340
0
  0
XRECORD
  5
523
102
{ACAD_REACTORS
330
50D
102
}
330
50D
100
AcDbXrecord
 10
0.0
 20
0.0
 30
0.0
  0
XRECORD
  5
51F
102
{ACAD_REACTORS
330
50D
102
}
330
50D
100
AcDbXrecord
 10
0.0
 20
0.0
 30
0.0
  0
XRECORD
  5
522
102
{ACAD_REACTORS
330
50D
102
}
330
50D
100
AcDbXrecord
 10
0.0
 20
0.0
 30
0.0
  0
XRECORD
  5
520
102
{ACAD_REACTORS
330
50D
102
}
330
50D
100
AcDbXrecord
 10
0.0
 20
0.0
 30
0.0
  0
XRECORD
  5
521
102
{ACAD_REACTORS
330
50D
102
}
330
50D
100
AcDbXrecord
 10
0.0
 20
0.0
 30
0.0
  0
XRECORD
  5
51E
102
{ACAD_REACTORS
330
50D
102
}
330
50D
100
AcDbXrecord
 10
0.0
 20
0.0
 30
0.0
  0
XRECORD
  5
51B
102
{ACAD_REACTORS
330
50D
102
}
330
50D
100
AcDbXrecord
340
0
  0
XRECORD
  5
51C
102
{ACAD_REACTORS
330
50D
102
}
330
50D
100
AcDbXrecord
 70
     0
  0
XRECORD
  5
511
102
{ACAD_REACTORS
330
50D
102
}
330
50D
100
AcDbXrecord
  1

  0
XRECORD
  5
50E
102
{ACAD_REACTORS
330
50D
102
}
330
50D
100
AcDbXrecord
 90
        1
  0
XRECORD
  5
50F
102
{ACAD_REACTORS
330
50D
102
}
330
50D
100
AcDbXrecord
 90
       70
  0
XRECORD
  5
526
102
{ACAD_REACTORS
330
50D
102
}
330
50D
100
AcDbXrecord
340
0
  0
XRECORD
  5
52C
102
{ACAD_REACTORS
330
50D
102
}
330
50D
100
AcDbXrecord
 10
0.0
 20
0.0
 30
0.0
  0
XRECORD
  5
528
102
{ACAD_REACTORS
330
50D
102
}
330
50D
100
AcDbXrecord
 10
0.0
 20
0.0
 30
0.0
  0
XRECORD
  5
52B
102
{ACAD_REACTORS
330
50D
102
}
330
50D
100
AcDbXrecord
 10
0.0
 20
0.0
 30
0.0
  0
XRECORD
  5
529
102
{ACAD_REACTORS
330
50D
102
}
330
50D
100
AcDbXrecord
 10
0.0
 20
0.0
 30
0.0
  0
XRECORD
  5
52A
102
{ACAD_REACTORS
330
50D
102
}
330
50D
100
AcDbXrecord
 10
0.0
 20
0.0
 30
0.0
  0
XRECORD
  5
527
102
{ACAD_REACTORS
330
50D
102
}
330
50D
100
AcDbXrecord
 10
0.0
 20
0.0
 30
0.0
  0
XRECORD
  5
524
102
{ACAD_REACTORS
330
50D
102
}
330
50D
100
AcDbXrecord
340
0
  0
XRECORD
  5
525
102
{ACAD_REACTORS
330
50D
102
}
330
50D
100
AcDbXrecord
 70
     0
  0
XRECORD
  5
519
102
{ACAD_REACTORS
330
50D
102
}
330
50D
100
AcDbXrecord
  1
{4B02B9B2-8DB6-11D6-88E6-0090279574E7}
  0
DICTIONARYVAR
  5
50B
102
{ACAD_REACTORS
330
50A
102
}
330
50A
100
DictionaryVariables
280
     0
  1
1
  0
ENDSEC
  0
EOF
