  0
SECTION
  2
HEADER
  9
$ACADVER
  1
AC1014
  9
$ACADMAINTVER
 70
     9
  9
$DWGCODEPAGE
  3
ANSI_1252
  9
$INSBASE
 10
2.167682905100292
 20
1.983417443964075
 30
0.0
  9
$EXTMIN
 10
0.5221683982558501
 20
0.7223591360852922
 30
0.0
  9
$EXTMAX
 10
4.007387720002977
 20
2.261367066965687
 30
0.0
  9
$LIMMIN
 10
0.0
 20
0.0
  9
$LIMMAX
 10
18.0
 20
12.0
  9
$ORTHOMODE
 70
     1
  9
$REGENMODE
 70
     1
  9
$FILLMODE
 70
     1
  9
$QTEXTMODE
 70
     0
  9
$MIRRTEXT
 70
     0
  9
$DRAGMODE
 70
     2
  9
$LTSCALE
 40
1.0
  9
$OSMODE
 70
    39
  9
$ATTMODE
 70
     1
  9
$TEXTSIZE
 40
0.125
  9
$TRACEWID
 40
0.05
  9
$TEXTSTYLE
  7
ROMANS
  9
$CLAYER
  8
0
  9
$CELTYPE
  6
BYLAYER
  9
$CECOLOR
 62
   256
  9
$CELTSCALE
 40
1.0
  9
$DELOBJ
 70
     1
  9
$DISPSILH
 70
     1
  9
$DIMSCALE
 40
1.0
  9
$DIMASZ
 40
0.125
  9
$DIMEXO
 40
0.125
  9
$DIMDLI
 40
0.375
  9
$DIMRND
 40
0.0
  9
$DIMDLE
 40
0.0
  9
$DIMEXE
 40
0.125
  9
$DIMTP
 40
0.0
  9
$DIMTM
 40
0.0
  9
$DIMTXT
 40
0.125
  9
$DIMCEN
 40
-0.125
  9
$DIMTSZ
 40
0.0
  9
$DIMTOL
 70
     0
  9
$DIMLIM
 70
     0
  9
$DIMTIH
 70
     1
  9
$DIMTOH
 70
     1
  9
$DIMSE1
 70
     0
  9
$DIMSE2
 70
     0
  9
$DIMTAD
 70
     0
  9
$DIMZIN
 70
     4
  9
$DIMBLK
  1

  9
$DIMASO
 70
     1
  9
$DIMSHO
 70
     1
  9
$DIMPOST
  1

  9
$DIMAPOST
  1

  9
$DIMALT
 70
     0
  9
$DIMALTD
 70
     2
  9
$DIMALTF
 40
25.4
  9
$DIMLFAC
 40
1.0
  9
$DIMTOFL
 70
     0
  9
$DIMTVP
 40
0.0
  9
$DIMTIX
 70
     1
  9
$DIMSOXD
 70
     0
  9
$DIMSAH
 70
     0
  9
$DIMBLK1
  1

  9
$DIMBLK2
  1

  9
$DIMSTYLE
  2
STANDARD
  9
$DIMCLRD
 70
     0
  9
$DIMCLRE
 70
     0
  9
$DIMCLRT
 70
     0
  9
$DIMTFAC
 40
1.0
  9
$DIMGAP
 40
0.09
  9
$DIMJUST
 70
     0
  9
$DIMSD1
 70
     0
  9
$DIMSD2
 70
     0
  9
$DIMTOLJ
 70
     1
  9
$DIMTZIN
 70
     4
  9
$DIMALTZ
 70
     0
  9
$DIMALTTZ
 70
     0
  9
$DIMFIT
 70
     3
  9
$DIMUPT
 70
     0
  9
$DIMUNIT
 70
     2
  9
$DIMDEC
 70
     3
  9
$DIMTDEC
 70
     3
  9
$DIMALTU
 70
     2
  9
$DIMALTTD
 70
     2
  9
$DIMTXSTY
  7
ROMANS
  9
$DIMAUNIT
 70
     0
  9
$LUNITS
 70
     2
  9
$LUPREC
 70
     3
  9
$SKETCHINC
 40
0.1
  9
$FILLETRAD
 40
0.03125
  9
$AUNITS
 70
     0
  9
$AUPREC
 70
     0
  9
$MENU
  1
ACAD
  9
$ELEVATION
 40
0.0
  9
$PELEVATION
 40
0.0
  9
$THICKNESS
 40
0.0
  9
$LIMCHECK
 70
     0
  9
$BLIPMODE
 70
     0
  9
$CHAMFERA
 40
0.0
  9
$CHAMFERB
 40
0.0
  9
$CHAMFERC
 40
0.0
  9
$CHAMFERD
 40
0.0
  9
$SKPOLY
 70
     0
  9
$TDCREATE
 40
2448994.573836574
  9
$TDUPDATE
 40
2452458.306813947
  9
$TDINDWG
 40
0.0005684606
  9
$TDUSRTIMER
 40
0.0005684606
  9
$USRTIMER
 70
     1
  9
$ANGBASE
 50
0.0
  9
$ANGDIR
 70
     0
  9
$PDMODE
 70
     0
  9
$PDSIZE
 40
0.0
  9
$PLINEWID
 40
0.0
  9
$COORDS
 70
     2
  9
$SPLFRAME
 70
     0
  9
$SPLINETYPE
 70
     6
  9
$SPLINESEGS
 70
     8
  9
$ATTDIA
 70
     0
  9
$ATTREQ
 70
     1
  9
$HANDLING
 70
 22529
  9
$HANDSEED
  5
7DE1B343D9E34F4
  9
$SURFTAB1
 70
     6
  9
$SURFTAB2
 70
     6
  9
$SURFTYPE
 70
     6
  9
$SURFU
 70
     6
  9
$SURFV
 70
     6
  9
$UCSNAME
  2

  9
$UCSORG
 10
0.0
 20
0.0
 30
0.0
  9
$UCSXDIR
 10
1.0
 20
0.0
 30
0.0
  9
$UCSYDIR
 10
0.0
 20
1.0
 30
0.0
  9
$PUCSNAME
  2

  9
$PUCSORG
 10
0.0
 20
0.0
 30
0.0
  9
$PUCSXDIR
 10
1.0
 20
0.0
 30
0.0
  9
$PUCSYDIR
 10
0.0
 20
1.0
 30
0.0
  9
$USERI1
 70
     0
  9
$USERI2
 70
     0
  9
$USERI3
 70
     0
  9
$USERI4
 70
     0
  9
$USERI5
 70
     0
  9
$USERR1
 40
0.0
  9
$USERR2
 40
0.0
  9
$USERR3
 40
0.0
  9
$USERR4
 40
0.0
  9
$USERR5
 40
0.0
  9
$WORLDVIEW
 70
     1
  9
$SHADEDGE
 70
     3
  9
$SHADEDIF
 70
    70
  9
$TILEMODE
 70
     1
  9
$MAXACTVP
 70
    16
  9
$PINSBASE
 10
0.0
 20
0.0
 30
0.0
  9
$PLIMCHECK
 70
     0
  9
$PEXTMIN
 10
1.000000000000000E+20
 20
1.000000000000000E+20
 30
1.000000000000000E+20
  9
$PEXTMAX
 10
-1.000000000000000E+20
 20
-1.000000000000000E+20
 30
-1.000000000000000E+20
  9
$PLIMMIN
 10
0.0
 20
0.0
  9
$PLIMMAX
 10
12.0
 20
9.0
  9
$UNITMODE
 70
     0
  9
$VISRETAIN
 70
     0
  9
$PLINEGEN
 70
     1
  9
$PSLTSCALE
 70
     0
  9
$TREEDEPTH
 70
  3020
  9
$PICKSTYLE
 70
     1
  9
$CMLSTYLE
  2
STANDARD
  9
$CMLJUST
 70
     0
  9
$CMLSCALE
 40
1.0
  9
$PROXYGRAPHICS
 70
     1
  9
$MEASUREMENT
 70
     0
  0
ENDSEC
  0
SECTION
  2
CLASSES
  0
CLASS
  1
LWPOLYLINE
  2
AcDbPolyline
  3
AutoCAD 2000
 90
        0
280
     0
281
     1
  0
CLASS
  1
ACDBDICTIONARYWDFLT
  2
AcDbDictionaryWithDefault
  3
AutoCAD 2000
 90
        0
280
     0
281
     0
  0
CLASS
  1
ACDBPLACEHOLDER
  2
AcDbPlaceHolder
  3
AutoCAD 2000
 90
        0
280
     0
281
     0
  0
CLASS
  1
LAYOUT
  2
AcDbLayout
  3
AutoCAD 2000
 90
        0
280
     0
281
     0
  0
CLASS
  1
DICTIONARYVAR
  2
AcDbDictionaryVar
  3
AutoCAD 2000
 90
        0
280
     0
281
     0
  0
CLASS
  1
LONG_TRANSACTION
  2
AcDbLongTransaction
  3
AutoCAD 2000
 90
        0
280
     0
281
     0
  0
CLASS
  1
LWPOLYLINE
  2
AcDbPolyline
  3
AutoCAD 2000
 90
        0
280
     0
281
     1
  0
CLASS
  1
HATCH
  2
AcDbHatch
  3
AutoCAD 2000
 90
        0
280
     0
281
     1
  0
CLASS
  1
XRECORD
  2
AcDbXrecord
  3
AutoCAD 2000
 90
        0
280
     0
281
     0
  0
ENDSEC
  0
SECTION
  2
TABLES
  0
TABLE
  2
VPORT
  5
7DE1B343D9E349B
330
0
100
AcDbSymbolTable
 70
     2
  0
VPORT
  5
7DE1B343D9E34CF
330
7DE1B343D9E349B
100
AcDbSymbolTableRecord
100
AcDbViewportTableRecord
  2
*ACTIVE
 70
     0
 10
0.0
 20
0.0
 11
1.0
 21
1.0
 12
5.241030536974382
 22
1.491943382066608
 13
0.0
 23
0.0
 14
0.015625
 24
0.015625
 15
0.0
 25
0.0
 16
0.0
 26
0.0
 36
1.0
 17
0.0
 27
0.0
 37
0.0
 40
2.282647215150728
 41
4.320930232558139
 42
50.0
 43
0.0
 44
0.0
 50
0.0
 51
0.0
 71
     0
 72
  2000
 73
     1
 74
     0
 75
     0
 76
     0
 77
     0
 78
     0
  0
ENDTAB
  0
TABLE
  2
LTYPE
  5
7DE1B343D9E3498
330
0
100
AcDbSymbolTable
 70
     1
  0
LTYPE
  5
7DE1B343D9E34A5
330
7DE1B343D9E3498
100
AcDbSymbolTableRecord
100
AcDbLinetypeTableRecord
  2
BYBLOCK
 70
     0
  3

 72
    65
 73
     0
 40
0.0
  0
LTYPE
  5
7DE1B343D9E34A6
330
7DE1B343D9E3498
100
AcDbSymbolTableRecord
100
AcDbLinetypeTableRecord
  2
BYLAYER
 70
     0
  3

 72
    65
 73
     0
 40
0.0
  0
LTYPE
  5
7DE1B343D9E34A7
330
7DE1B343D9E3498
100
AcDbSymbolTableRecord
100
AcDbLinetypeTableRecord
  2
CONTINUOUS
 70
     0
  3
Solid line
 72
    65
 73
     0
 40
0.0
  0
ENDTAB
  0
TABLE
  2
LAYER
  5
7DE1B343D9E3495
330
0
100
AcDbSymbolTable
 70
     2
  0
LAYER
  5
7DE1B343D9E34A2
330
7DE1B343D9E3495
100
AcDbSymbolTableRecord
100
AcDbLayerTableRecord
  2
0
 70
     0
 62
     7
  6
CONTINUOUS
  0
LAYER
  5
7DE1B343D9E34B2
330
7DE1B343D9E3495
100
AcDbSymbolTableRecord
100
AcDbLayerTableRecord
  2
TEXT
 70
     0
 62
     3
  6
CONTINUOUS
  0
ENDTAB
  0
TABLE
  2
STYLE
  5
7DE1B343D9E3496
330
0
100
AcDbSymbolTable
 70
     3
  0
STYLE
  5
7DE1B343D9E34A3
330
7DE1B343D9E3496
100
AcDbSymbolTableRecord
100
AcDbTextStyleTableRecord
  2
STANDARD
 70
     0
 40
0.0
 41
1.0
 50
0.0
 71
     0
 42
0.3125
  3
txt
  4

  0
STYLE
  5
7DE1B343D9E34AF
330
7DE1B343D9E3496
100
AcDbSymbolTableRecord
100
AcDbTextStyleTableRecord
  2
ITALICC
 70
     0
 40
0.0
 41
1.0
 50
0.0
 71
     0
 42
0.125
  3
italicc
  4

  0
STYLE
  5
7DE1B343D9E34BF
330
7DE1B343D9E3496
100
AcDbSymbolTableRecord
100
AcDbTextStyleTableRecord
  2
ROMANS
 70
     0
 40
0.0
 41
1.0
 50
0.0
 71
     0
 42
0.125
  3
romans.shx
  4

  0
ENDTAB
  0
TABLE
  2
VIEW
  5
7DE1B343D9E3499
330
0
100
AcDbSymbolTable
 70
     0
  0
ENDTAB
  0
TABLE
  2
UCS
  5
7DE1B343D9E349A
330
0
100
AcDbSymbolTable
 70
     0
  0
ENDTAB
  0
TABLE
  2
APPID
  5
7DE1B343D9E349C
330
0
100
AcDbSymbolTable
 70
     1
  0
APPID
  5
7DE1B343D9E34A4
330
7DE1B343D9E349C
100
AcDbSymbolTableRecord
100
AcDbRegAppTableRecord
  2
ACAD
 70
     0
  0
ENDTAB
  0
TABLE
  2
DIMSTYLE
  5
7DE1B343D9E349D
330
0
100
AcDbSymbolTable
 70
     1
  0
DIMSTYLE
105
7DE1B343D9E34B7
330
7DE1B343D9E349D
100
AcDbSymbolTableRecord
100
AcDbDimStyleTableRecord
  2
STANDARD
 70
     0
  3

  4

  5

  6

  7

 40
1.0
 41
0.125
 42
0.125
 43
0.375
 44
0.125
 45
0.0
 46
0.0
 47
0.0
 48
0.0
140
0.125
141
-0.125
142
0.0
143
25.4
144
1.0
145
0.0
146
1.0
147
0.09
 71
     0
 72
     0
 73
     1
 74
     1
 75
     0
 76
     0
 77
     0
 78
     4
170
     0
171
     2
172
     0
173
     0
174
     1
175
     0
176
     0
177
     0
178
     0
270
     2
271
     3
272
     3
273
     2
274
     2
340
7DE1B343D9E34BF
275
     0
280
     0
281
     0
282
     0
283
     1
284
     4
285
     0
286
     0
287
     3
288
     0
  0
ENDTAB
  0
TABLE
  2
BLOCK_RECORD
  5
7DE1B343D9E3494
330
0
100
AcDbSymbolTable
 70
     0
  0
BLOCK_RECORD
  5
7DE1B343D9E34AB
102
{ACAD_XDICTIONARY
360
7DE1B343D9E34F2
102
}
330
7DE1B343D9E3494
100
AcDbSymbolTableRecord
100
AcDbBlockTableRecord
  2
*MODEL_SPACE
  0
BLOCK_RECORD
  5
7DE1B343D9E34A8
102
{ACAD_XDICTIONARY
360
7DE1B343D9E34F0
102
}
330
7DE1B343D9E3494
100
AcDbSymbolTableRecord
100
AcDbBlockTableRecord
  2
*PAPER_SPACE
  0
ENDTAB
  0
ENDSEC
  0
SECTION
  2
BLOCKS
  0
BLOCK
  5
7DE1B343D9E34B5
330
7DE1B343D9E34AB
100
AcDbEntity
  8
0
100
AcDbBlockBegin
  2
*MODEL_SPACE
 70
     0
 10
0.0
 20
0.0
 30
0.0
  3
*MODEL_SPACE
  1

  0
ENDBLK
  5
7DE1B343D9E34B6
330
7DE1B343D9E34AB
100
AcDbEntity
  8
0
100
AcDbBlockEnd
  0
BLOCK
  5
7DE1B343D9E34B3
330
7DE1B343D9E34A8
100
AcDbEntity
 67
     1
  8
0
100
AcDbBlockBegin
  2
*PAPER_SPACE
 70
     0
 10
0.0
 20
0.0
 30
0.0
  3
*PAPER_SPACE
  1

  0
ENDBLK
  5
7DE1B343D9E34B4
330
7DE1B343D9E34A8
100
AcDbEntity
 67
     1
  8
0
100
AcDbBlockEnd
  0
ENDSEC
  0
SECTION
  2
ENTITIES
  0
LWPOLYLINE
  5
7DE1B343D9E206C
330
7DE1B343D9E34AB
100
AcDbEntity
  8
0
100
AcDbPolyline
 90
       20
 70
     0
 43
0.0
 10
2.179149977482992
 20
1.902367066965686
 10
2.179149977482992
 20
1.527367066965686
 42
-0.4142135623730951
 10
2.163149977482992
 20
1.511367066965686
 10
2.132649977482993
 20
1.511367066965686
 42
-0.4142135623730951
 10
2.116649977482992
 20
1.527367066965686
 10
2.116649977482992
 20
1.902367066965686
 10
1.804149977482992
 20
1.902367066965687
 10
1.804149977482992
 20
1.542617067772235
 42
-1.000000020355365
 10
1.741649977482992
 20
1.542617067431348
 10
1.741649977482992
 20
2.230117066965687
 42
-0.9999999999999998
 10
1.804149977482992
 20
2.230117066965687
 10
1.804149977482992
 20
2.027367066965687
 10
2.726149977482994
 20
2.027367066965687
 42
-0.4142135623730951
 10
2.742149977482994
 20
2.011367066965687
 10
2.742149977482994
 20
1.918367066965686
 42
-0.4142135623730951
 10
2.726149977482994
 20
1.902367066965686
 10
2.314149977482992
 20
1.902367066965686
 10
2.304149977482992
 20
1.912367066965686
 10
2.294149977482993
 20
1.902367066965686
 10
2.178209566253531
 20
1.902367066965686
  0
TEXT
  5
7DE1B343D9E3356
330
7DE1B343D9E34AB
100
AcDbEntity
  8
TEXT
100
AcDbText
 10
1.512173787006802
 20
1.180377740167873
 30
0.0
 40
0.125
  1
PART #110316
  7
ITALICC
 72
     1
 11
2.265149977482993
 21
1.180377740167873
 31
0.0
100
AcDbText
  0
TEXT
  5
7DE1B343D9E3357
330
7DE1B343D9E34AB
100
AcDbEntity
  8
TEXT
100
AcDbText
 10
2.678455135733313
 20
0.7334550974954986
 30
0.0
 40
0.0522247191011236
  1
Phone  1-800-328-2495
 41
1.272321428571429
 72
     5
 11
4.007387720002977
 21
0.7334550974954986
 31
0.0
100
AcDbText
  0
TEXT
  5
7DE1B343D9E3358
330
7DE1B343D9E34AB
100
AcDbEntity
  8
TEXT
100
AcDbText
 10
2.678455135733313
 20
1.013230378394375
 30
0.0
 40
0.0522247191011236
  1
Stylmark  Incorporated
 41
1.221428571428573
 72
     5
 11
4.007387720002977
 21
1.013230378394375
 31
0.0
100
AcDbText
  0
TEXT
  5
7DE1B343D9E3359
330
7DE1B343D9E34AB
100
AcDbEntity
  8
TEXT
100
AcDbText
 10
2.678455135733313
 20
0.9199719514280829
 30
0.0
 40
0.0522247191011236
  1
6536 Main St. N.E. * P.O. Box 32008
 41
0.8388932496075366
 72
     5
 11
4.007387720002977
 21
0.9199719514280829
 31
0.0
100
AcDbText
  0
TEXT
  5
7DE1B343D9E335A
330
7DE1B343D9E34AB
100
AcDbEntity
  8
TEXT
100
AcDbText
 10
2.678455135733313
 20
0.8267135244617907
 30
0.0
 40
0.0522247191011236
  1
Minneapolis, MN 55432-0008
 41
1.11444212721585
 72
     5
 11
4.007387720002977
 21
0.8267135244617907
 31
0.0
100
AcDbText
  0
LWPOLYLINE
  5
7DE1B343D9E335B
330
7DE1B343D9E34AB
100
AcDbEntity
  8
TEXT
100
AcDbPolyline
 90
        3
 70
     0
 43
0.0006660908203125
 10
0.5225014436660063
 20
0.8470998601329334
 10
0.5225014436660063
 20
0.7338644206798058
 10
0.6357368831191286
 20
0.7338644206798058
  0
LWPOLYLINE
  5
7DE1B343D9E3360
330
7DE1B343D9E34AB
100
AcDbEntity
  8
TEXT
100
AcDbPolyline
 90
        3
 70
     0
 43
0.0006660908203125
 10
0.5491450764785038
 20
0.8470998601329334
 10
0.5491450764785038
 20
0.7605080534923068
 10
0.6357368831191286
 20
0.7605080534923068
  0
LWPOLYLINE
  5
7DE1B343D9E3365
330
7DE1B343D9E34AB
100
AcDbEntity
  8
TEXT
100
AcDbPolyline
 90
        2
 70
     0
 43
0.0001332181640625
 10
0.5957714339003806
 20
0.8570912224376186
 10
0.5225014436660063
 20
0.8470998601329334
  0
LWPOLYLINE
  5
7DE1B343D9E3369
330
7DE1B343D9E34AB
100
AcDbEntity
  8
TEXT
100
AcDbPolyline
 90
        2
 70
     0
 43
0.0001332181640625
 10
0.5491450764785038
 20
0.8470998601329334
 10
0.6090932503066311
 20
0.8570912224376186
  0
LWPOLYLINE
  5
7DE1B343D9E336D
330
7DE1B343D9E34AB
100
AcDbEntity
  8
TEXT
100
AcDbPolyline
 90
        2
 70
     0
 43
0.0001332181640625
 10
0.5491450764785038
 20
0.7605080534923068
 10
0.6090932503066311
 20
0.8204562273204324
  0
LWPOLYLINE
  5
7DE1B343D9E3371
330
7DE1B343D9E34AB
100
AcDbEntity
  8
TEXT
100
AcDbPolyline
 90
        3
 70
     0
 43
0.0006660908203125
 10
0.6357368831191286
 20
1.000300748804809
 10
0.5225014436660063
 20
1.000300748804809
 10
0.5225014436660063
 20
0.8870653093516814
  0
LWPOLYLINE
  5
7DE1B343D9E3376
330
7DE1B343D9E34AB
100
AcDbEntity
  8
TEXT
100
AcDbPolyline
 90
        3
 70
     0
 43
0.0006660908203125
 10
0.6357368831191286
 20
0.973657115992308
 10
0.5491450764785038
 20
0.973657115992308
 10
0.5491450764785038
 20
0.8870653093516814
  0
LWPOLYLINE
  5
7DE1B343D9E337B
330
7DE1B343D9E34AB
100
AcDbEntity
  8
TEXT
100
AcDbPolyline
 90
        2
 70
     0
 43
0.0001332181640625
 10
0.5491450764785038
 20
0.973657115992308
 10
0.6090932503066293
 20
0.9137089421641825
  0
LWPOLYLINE
  5
7DE1B343D9E337F
330
7DE1B343D9E34AB
100
AcDbEntity
  8
TEXT
100
AcDbPolyline
 90
        2
 70
     0
 43
0.0001332181640625
 10
0.5491450764785038
 20
0.8870653093516814
 10
0.6090932503066293
 20
0.8770739470469926
  0
LWPOLYLINE
  5
7DE1B343D9E3383
330
7DE1B343D9E34AB
100
AcDbEntity
  8
TEXT
100
AcDbPolyline
 90
        2
 70
     0
 43
0.0001332181640625
 10
0.5225014436660063
 20
0.8870653093516814
 10
0.5957714339003806
 20
0.8770739470469926
  0
LWPOLYLINE
  5
7DE1B343D9E3387
330
7DE1B343D9E34AB
100
AcDbEntity
  8
TEXT
100
AcDbPolyline
 90
        2
 70
     0
 43
0.0006660908203125
 10
0.5491450764785038
 20
0.8470998601329334
 10
0.5225014436660063
 20
0.8470998601329334
  0
LWPOLYLINE
  5
7DE1B343D9E338B
330
7DE1B343D9E34AB
100
AcDbEntity
  8
TEXT
100
AcDbPolyline
 90
        2
 70
     0
 43
0.0006660908203125
 10
0.5491450764785038
 20
0.8870653093516814
 10
0.5225014436660063
 20
0.8870653093516814
  0
LINE
  5
7DE1B343D9E338F
330
7DE1B343D9E34AB
100
AcDbEntity
  8
TEXT
100
AcDbLine
 10
2.037691872792503
 20
0.9360240541480401
 30
0.0
 11
1.930485599405214
 21
0.9360240541480401
 31
0.0
  0
LINE
  5
7DE1B343D9E3390
330
7DE1B343D9E34AB
100
AcDbEntity
  8
TEXT
100
AcDbLine
 10
2.066722771136982
 20
1.000300748804805
 30
0.0
 11
1.931890861919923
 21
1.000300748804805
 31
0.0
  0
ARC
  5
7DE1B343D9E3391
330
7DE1B343D9E34AB
100
AcDbEntity
  8
TEXT
100
AcDbCircle
 10
1.99120495831324
 20
0.8310634995417892
 30
0.0
 40
0.0676855811441166
100
AcDbArc
 50
90.0
 51
153.7768192527749
  0
LWPOLYLINE
  5
7DE1B343D9E3392
330
7DE1B343D9E34AB
100
AcDbEntity
  8
TEXT
100
AcDbPolyline
 90
        2
 70
     0
 43
0.0
 10
1.929453103950404
 20
0.7773186607667327
 42
0.2901071551932823
 10
1.972529036818039
 20
0.7338277158162945
 42
5.328517124445801
  0
ARC
  5
7DE1B343D9E3396
330
7DE1B343D9E34AB
100
AcDbEntity
  8
TEXT
100
AcDbCircle
 10
1.286073580641754
 20
0.7936201071543443
 30
0.0
 40
0.0601160179737537
100
AcDbArc
 50
180.0000000000003
 51
264.0521544866073
  0
LINE
  5
7DE1B343D9E3397
330
7DE1B343D9E34AB
100
AcDbEntity
  8
TEXT
100
AcDbLine
 10
1.289588936267302
 20
1.034688666398943
 30
0.0
 11
1.229546331423295
 21
1.034688666398943
 31
0.0
  0
ARC
  5
7DE1B343D9E3398
330
7DE1B343D9E34AB
100
AcDbEntity
  8
TEXT
100
AcDbCircle
 10
1.053814578524783
 20
0.9182132893583037
 30
0.0
 40
0.0820874594465043
100
AcDbArc
 50
90.0
 51
270.0
  0
LWPOLYLINE
  5
7DE1B343D9E3399
330
7DE1B343D9E34AB
100
AcDbEntity
  8
TEXT
100
AcDbPolyline
 90
        2
 70
     0
 43
0.0001332181640625
 10
0.6457282454238192
 20
0.9270307585704294
 10
0.6357368831191286
 20
1.000300748804809
  0
LWPOLYLINE
  5
7DE1B343D9E339D
330
7DE1B343D9E34AB
100
AcDbEntity
  8
TEXT
100
AcDbPolyline
 90
        2
 70
     0
 43
0.0001332181640625
 10
0.6357368831191286
 20
0.973657115992308
 10
0.6457282454238192
 20
0.9137089421641825
  0
LWPOLYLINE
  5
7DE1B343D9E33A1
330
7DE1B343D9E34AB
100
AcDbEntity
  8
TEXT
100
AcDbPolyline
 90
        3
 70
     0
 43
0.0006660908203125
 10
0.788937771791006
 20
0.8870653093516814
 10
0.788937771791006
 20
1.000300748804809
 10
0.6757023323378802
 20
1.000300748804809
  0
LWPOLYLINE
  5
7DE1B343D9E33A6
330
7DE1B343D9E34AB
100
AcDbEntity
  8
TEXT
100
AcDbPolyline
 90
        3
 70
     0
 43
0.0006660908203125
 10
0.762294138978505
 20
0.8870653093516814
 10
0.762294138978505
 20
0.973657115992308
 10
0.6757023323378802
 20
0.973657115992308
  0
LWPOLYLINE
  5
7DE1B343D9E33AB
330
7DE1B343D9E34AB
100
AcDbEntity
  8
TEXT
100
AcDbPolyline
 90
        2
 70
     0
 43
0.0001332181640625
 10
0.762294138978505
 20
0.973657115992308
 10
0.7023459651503812
 20
0.9137089421641825
  0
LWPOLYLINE
  5
7DE1B343D9E33AF
330
7DE1B343D9E34AB
100
AcDbEntity
  8
TEXT
100
AcDbPolyline
 90
        2
 70
     0
 43
0.0001332181640625
 10
0.6757023323378802
 20
0.973657115992308
 10
0.6657109700331914
 20
0.9137089421641825
  0
LWPOLYLINE
  5
7DE1B343D9E33B3
330
7DE1B343D9E34AB
100
AcDbEntity
  8
TEXT
100
AcDbPolyline
 90
        2
 70
     0
 43
0.0001332181640625
 10
0.6757023323378802
 20
1.000300748804809
 10
0.6657109700331914
 20
0.9270307585704294
  0
LWPOLYLINE
  5
7DE1B343D9E33B7
330
7DE1B343D9E34AB
100
AcDbEntity
  8
TEXT
100
AcDbPolyline
 90
        2
 70
     0
 43
0.0001332181640625
 10
0.71566778155663
 20
0.8770739470469926
 10
0.788937771791006
 20
0.8870653093516814
  0
LWPOLYLINE
  5
7DE1B343D9E33BB
330
7DE1B343D9E34AB
100
AcDbEntity
  8
TEXT
100
AcDbPolyline
 90
        2
 70
     0
 43
0.0001332181640625
 10
0.762294138978505
 20
0.8870653093516814
 10
0.7023459651503812
 20
0.8770739470469926
  0
LWPOLYLINE
  5
7DE1B343D9E33BF
330
7DE1B343D9E34AB
100
AcDbEntity
  8
TEXT
100
AcDbPolyline
 90
        2
 70
     0
 43
0.0001332181640625
 10
0.788937771791006
 20
0.8470998601329334
 10
0.71566778155663
 20
0.8570912224376186
  0
LWPOLYLINE
  5
7DE1B343D9E33C3
330
7DE1B343D9E34AB
100
AcDbEntity
  8
TEXT
100
AcDbPolyline
 90
        2
 70
     0
 43
0.0001332181640625
 10
0.762294138978505
 20
0.8470998601329334
 10
0.7023459651503812
 20
0.8570912224376186
  0
LWPOLYLINE
  5
7DE1B343D9E33C7
330
7DE1B343D9E34AB
100
AcDbEntity
  8
TEXT
100
AcDbPolyline
 90
        2
 70
     0
 43
0.0001332181640625
 10
0.762294138978505
 20
0.7605080534923068
 10
0.7023459651503812
 20
0.8204562273204324
  0
LWPOLYLINE
  5
7DE1B343D9E33CB
330
7DE1B343D9E34AB
100
AcDbEntity
  8
TEXT
100
AcDbPolyline
 90
        3
 70
     0
 43
0.0006660908203125
 10
0.6757023323378802
 20
0.7605080534923068
 10
0.762294138978505
 20
0.7605080534923068
 10
0.762294138978505
 20
0.8470998601329334
  0
LWPOLYLINE
  5
7DE1B343D9E33D0
330
7DE1B343D9E34AB
100
AcDbEntity
  8
TEXT
100
AcDbPolyline
 90
        3
 70
     0
 43
0.0006660908203125
 10
0.6757023323378802
 20
0.7338644206798058
 10
0.788937771791006
 20
0.7338644206798058
 10
0.788937771791006
 20
0.8470998601329334
  0
LWPOLYLINE
  5
7DE1B343D9E33D5
330
7DE1B343D9E34AB
100
AcDbEntity
  8
TEXT
100
AcDbPolyline
 90
        5
 70
     0
 43
0.0001332181640625
 10
0.6457282454238192
 20
0.8071344109141818
 10
0.6457282454238192
 20
0.8204562273204324
 10
0.6090932503066311
 20
0.8204562273204324
 10
0.6090932503066311
 20
0.8570912224376186
 10
0.5957714339003806
 20
0.8570912224376186
  0
LWPOLYLINE
  5
7DE1B343D9E33DC
330
7DE1B343D9E34AB
100
AcDbEntity
  8
TEXT
100
AcDbPolyline
 90
        2
 70
     0
 43
0.0006660908203125
 10
0.6357368831191286
 20
0.7605080534923068
 10
0.6357368831191286
 20
0.7338644206798058
  0
LWPOLYLINE
  5
7DE1B343D9E33E0
330
7DE1B343D9E34AB
100
AcDbEntity
  8
TEXT
100
AcDbPolyline
 90
        2
 70
     0
 43
0.0001332181640625
 10
0.6357368831191286
 20
0.7605080534923068
 10
0.6457282454238192
 20
0.8204562273204324
  0
LWPOLYLINE
  5
7DE1B343D9E33E4
330
7DE1B343D9E34AB
100
AcDbEntity
  8
TEXT
100
AcDbPolyline
 90
        2
 70
     0
 43
0.0001332181640625
 10
0.6357368831191286
 20
0.7338644206798058
 10
0.6457282454238192
 20
0.8071344109141818
  0
LWPOLYLINE
  5
7DE1B343D9E33E8
330
7DE1B343D9E34AB
100
AcDbEntity
  8
TEXT
100
AcDbPolyline
 90
        5
 70
     0
 43
0.0001332181640625
 10
0.5957714339003806
 20
0.8770739470469926
 10
0.6090932503066293
 20
0.8770739470469926
 10
0.6090932503066293
 20
0.9137089421641825
 10
0.6457282454238192
 20
0.9137089421641825
 10
0.6457282454238192
 20
0.9270307585704294
  0
LWPOLYLINE
  5
7DE1B343D9E33EF
330
7DE1B343D9E34AB
100
AcDbEntity
  8
TEXT
100
AcDbPolyline
 90
        5
 70
     0
 43
0.0001332181640625
 10
0.6657109700331914
 20
0.9270307585704294
 10
0.6657109700331914
 20
0.9137089421641825
 10
0.7023459651503812
 20
0.9137089421641825
 10
0.7023459651503812
 20
0.8770739470469926
 10
0.71566778155663
 20
0.8770739470469926
  0
LWPOLYLINE
  5
7DE1B343D9E33F6
330
7DE1B343D9E34AB
100
AcDbEntity
  8
TEXT
100
AcDbPolyline
 90
        2
 70
     0
 43
0.0001332181640625
 10
0.6757023323378802
 20
0.7605080534923068
 10
0.6657109700331914
 20
0.8204562273204324
  0
LWPOLYLINE
  5
7DE1B343D9E33FA
330
7DE1B343D9E34AB
100
AcDbEntity
  8
TEXT
100
AcDbPolyline
 90
        2
 70
     0
 43
0.0001332181640625
 10
0.6657109700331914
 20
0.8071344109141818
 10
0.6757023323378802
 20
0.7338644206798058
  0
LWPOLYLINE
  5
7DE1B343D9E33FE
330
7DE1B343D9E34AB
100
AcDbEntity
  8
TEXT
100
AcDbPolyline
 90
        2
 70
     0
 43
0.0006660908203125
 10
0.6757023323378802
 20
0.7605080534923068
 10
0.6757023323378802
 20
0.7338644206798058
  0
LWPOLYLINE
  5
7DE1B343D9E3402
330
7DE1B343D9E34AB
100
AcDbEntity
  8
TEXT
100
AcDbPolyline
 90
        5
 70
     0
 43
0.0001332181640625
 10
0.71566778155663
 20
0.8570912224376186
 10
0.7023459651503812
 20
0.8570912224376186
 10
0.7023459651503812
 20
0.8204562273204324
 10
0.6657109700331914
 20
0.8204562273204324
 10
0.6657109700331914
 20
0.8071344109141818
  0
LWPOLYLINE
  5
7DE1B343D9E3409
330
7DE1B343D9E34AB
100
AcDbEntity
  8
TEXT
100
AcDbPolyline
 90
        2
 70
     0
 43
0.0006660908203125
 10
0.762294138978505
 20
0.8870653093516814
 10
0.788937771791006
 20
0.8870653093516814
  0
LWPOLYLINE
  5
7DE1B343D9E340D
330
7DE1B343D9E34AB
100
AcDbEntity
  8
TEXT
100
AcDbPolyline
 90
        2
 70
     0
 43
0.0006660908203125
 10
0.762294138978505
 20
0.8470998601329334
 10
0.788937771791006
 20
0.8470998601329334
  0
LINE
  5
7DE1B343D9E3411
330
7DE1B343D9E34AB
100
AcDbEntity
  8
TEXT
100
AcDbLine
 10
1.05905190863903
 20
0.9360240541480401
 30
0.0
 11
1.225957562668002
 21
0.9360240541480401
 31
0.0
  0
LINE
  5
7DE1B343D9E3412
330
7DE1B343D9E34AB
100
AcDbEntity
  8
TEXT
100
AcDbLine
 10
1.124652044883331
 20
0.9002193325374122
 30
0.0
 11
1.05905190863903
 21
0.9002193325374122
 31
0.0
  0
LINE
  5
7DE1B343D9E3413
330
7DE1B343D9E34AB
100
AcDbEntity
  8
TEXT
100
AcDbLine
 10
0.9717271190782792
 20
0.7338277158162945
 30
0.0
 11
1.124652044883331
 21
0.7338277158162945
 31
0.0
  0
LINE
  5
7DE1B343D9E3414
330
7DE1B343D9E34AB
100
AcDbEntity
  8
TEXT
100
AcDbLine
 10
1.129592418789611
 20
0.8021847221497338
 30
0.0
 11
0.9717271190782774
 21
0.8021847221497338
 31
0.0
  0
LINE
  5
7DE1B343D9E3415
330
7DE1B343D9E34AB
100
AcDbEntity
  8
TEXT
100
AcDbLine
 10
1.053814578524782
 20
0.8361258299117984
 30
0.0
 11
1.129592418789611
 21
0.8361258299117984
 31
0.0
  0
ARC
  5
7DE1B343D9E3416
330
7DE1B343D9E34AB
100
AcDbEntity
  8
TEXT
100
AcDbCircle
 10
1.059051908639031
 20
0.9181216933427279
 30
0.0
 40
0.017902360805315
100
AcDbArc
 50
90.0
 51
270.0
  0
LINE
  5
7DE1B343D9E3417
330
7DE1B343D9E34AB
100
AcDbEntity
  8
TEXT
100
AcDbLine
 10
0.9717271190782774
 20
0.8021847221497338
 30
0.0
 11
0.9717271190782792
 21
0.7338277158162945
 31
0.0
  0
LINE
  5
7DE1B343D9E3418
330
7DE1B343D9E34AB
100
AcDbEntity
  8
TEXT
100
AcDbLine
 10
1.225957562668002
 20
0.9360240541480401
 30
0.0
 11
1.225957562668002
 21
0.7936201071543443
 31
0.0
  0
ARC
  5
7DE1B343D9E3419
330
7DE1B343D9E34AB
100
AcDbEntity
  8
TEXT
100
AcDbCircle
 10
1.124652044883332
 20
0.8170235241768516
 30
0.0
 40
0.0831958083605586
100
AcDbArc
 50
270.0
 51
90.0
  0
ARC
  5
7DE1B343D9E341A
330
7DE1B343D9E34AB
100
AcDbEntity
  8
TEXT
100
AcDbCircle
 10
1.129592418789612
 20
0.8191552760307679
 30
0.0
 40
0.0169705538810321
100
AcDbArc
 50
270.0
 51
90.0
  0
LWPOLYLINE
  5
7DE1B343D9E341B
330
7DE1B343D9E34AB
100
AcDbEntity
  8
TEXT
100
AcDbPolyline
 90
        2
 70
     0
 43
0.0006660908203125
 10
0.6357368831191286
 20
0.973657115992308
 10
0.6357368831191286
 20
1.000300748804809
  0
LWPOLYLINE
  5
7DE1B343D9E341F
330
7DE1B343D9E34AB
100
AcDbEntity
  8
TEXT
100
AcDbPolyline
 90
        2
 70
     0
 43
0.0006660908203125
 10
0.6757023323378802
 20
0.973657115992308
 10
0.6757023323378802
 20
1.000300748804809
  0
LINE
  5
7DE1B343D9E3423
330
7DE1B343D9E34AB
100
AcDbEntity
  8
TEXT
100
AcDbLine
 10
1.229546331423295
 20
1.000300748804805
 30
0.0
 11
1.053814578524782
 21
1.000300748804805
 31
0.0
  0
LINE
  5
7DE1B343D9E3424
330
7DE1B343D9E34AB
100
AcDbEntity
  8
TEXT
100
AcDbLine
 10
1.229546331423295
 20
1.034688666398943
 30
0.0
 11
1.229546331423295
 21
1.000300748804805
 31
0.0
  0
LINE
  5
7DE1B343D9E3425
330
7DE1B343D9E34AB
100
AcDbEntity
  8
TEXT
100
AcDbLine
 10
1.420018223443147
 20
0.8994287526916849
 30
0.0
 11
1.361387902411209
 21
1.000300748804805
 31
0.0
  0
LINE
  5
7DE1B343D9E3426
330
7DE1B343D9E34AB
100
AcDbEntity
  8
TEXT
100
AcDbLine
 10
1.478766786249012
 20
1.000300748804805
 30
0.0
 11
1.420018223443147
 21
0.8994287526916849
 31
0.0
  0
LINE
  5
7DE1B343D9E3427
330
7DE1B343D9E34AB
100
AcDbEntity
  8
TEXT
100
AcDbLine
 10
1.575697411608754
 20
0.8162155539192937
 30
0.0
 11
1.575697411608754
 21
1.068312226543616
 31
0.0
  0
LINE
  5
7DE1B343D9E3428
330
7DE1B343D9E34AB
100
AcDbEntity
  8
TEXT
100
AcDbLine
 10
1.608009265746414
 20
1.000300748804805
 30
0.0
 11
1.608009265746414
 21
0.7994365420723973
 31
0.0
  0
LINE
  5
7DE1B343D9E3429
330
7DE1B343D9E34AB
100
AcDbEntity
  8
TEXT
100
AcDbLine
 10
1.608009265746414
 20
0.7994365420723973
 30
0.0
 11
1.591015628861812
 21
0.7994365420723973
 31
0.0
  0
LINE
  5
7DE1B343D9E342A
330
7DE1B343D9E34AB
100
AcDbEntity
  8
TEXT
100
AcDbLine
 10
1.576836985104948
 20
0.7338277158162945
 30
0.0
 11
1.674840318804383
 21
0.7338277158162945
 31
0.0
  0
LINE
  5
7DE1B343D9E342B
330
7DE1B343D9E34AB
100
AcDbEntity
  8
TEXT
100
AcDbLine
 10
1.410417986446192
 20
0.7537862219213074
 30
0.0
 11
1.507717692539637
 21
0.9181364328565756
 31
0.0
  0
ARC
  5
7DE1B343D9E342C
330
7DE1B343D9E34AB
100
AcDbEntity
  8
TEXT
100
AcDbCircle
 10
1.376374426533979
 20
0.7733754380899902
 30
0.0
 40
0.0392772371940762
100
AcDbArc
 50
270.1604552698595
 51
330.0831797321295
  0
LINE
  5
7DE1B343D9E342D
330
7DE1B343D9E34AB
100
AcDbEntity
  8
TEXT
100
AcDbLine
 10
1.279844170148107
 20
0.7338277158162945
 30
0.0
 11
1.376484421223102
 21
0.7340983549145768
 31
0.0
  0
LWPOLYLINE
  5
7DE1B343D9E342E
330
7DE1B343D9E34AB
100
AcDbEntity
  8
TEXT
100
AcDbPolyline
 90
        6
 70
     1
 43
0.0
 10
1.322367973723257
 20
0.9360240541480401
 10
1.292051379503049
 20
0.9360240541480401
 10
1.292051379503049
 20
0.8129130560931457
 42
0.407328721240804
 10
1.303595030664525
 20
0.8010941414167596
 10
1.364216729709256
 20
0.8010941414167596
 10
1.381682070116574
 20
0.8339063704602388
  0
LINE
  5
7DE1B343D9E3436
330
7DE1B343D9E34AB
100
AcDbEntity
  8
TEXT
100
AcDbLine
 10
1.507717692539637
 20
0.9181364328565756
 30
0.0
 11
1.507717692539637
 21
0.7853790580312193
 31
0.0
  0
ARC
  5
7DE1B343D9E3437
330
7DE1B343D9E34AB
100
AcDbEntity
  8
TEXT
100
AcDbCircle
 10
1.591015628861811
 20
0.8148183483158227
 30
0.0
 40
0.0153818062434269
100
AcDbArc
 50
174.7883570302258
 51
270.0
  0
LWPOLYLINE
  5
7DE1B343D9E3438
330
7DE1B343D9E34AB
100
AcDbEntity
  8
TEXT
100
AcDbPolyline
 90
        2
 70
     0
 43
0.0
 10
1.507717692539635
 20
0.7853790580312228
 42
0.3318488747599744
 10
1.576836985104948
 20
0.7338277158162945
 42
-6.868794160588311
  0
LINE
  5
7DE1B343D9E343C
330
7DE1B343D9E34AB
100
AcDbEntity
  8
TEXT
100
AcDbLine
 10
1.732229387793644
 20
0.7338277158162945
 30
0.0
 11
1.799287434575484
 21
0.7338277158162945
 31
0.0
  0
LINE
  5
7DE1B343D9E343D
330
7DE1B343D9E34AB
100
AcDbEntity
  8
TEXT
100
AcDbLine
 10
1.732229387793644
 20
0.9284702649819301
 30
0.0
 11
1.732229387793644
 21
0.7338277158162945
 31
0.0
  0
LINE
  5
7DE1B343D9E343E
330
7DE1B343D9E34AB
100
AcDbEntity
  8
TEXT
100
AcDbLine
 10
1.674840318804383
 20
0.9360240541480401
 30
0.0
 11
1.724675598627531
 21
0.9360240541480401
 31
0.0
  0
LINE
  5
7DE1B343D9E343F
330
7DE1B343D9E34AB
100
AcDbEntity
  8
TEXT
100
AcDbLine
 10
1.674840318804383
 20
0.7338277158162945
 30
0.0
 11
1.674840318804383
 21
0.9360240541480401
 31
0.0
  0
LWPOLYLINE
  5
7DE1B343D9E3440
330
7DE1B343D9E34AB
100
AcDbEntity
  8
TEXT
100
AcDbPolyline
 90
        2
 70
     0
 43
0.0
 10
1.724675598627529
 20
0.9360240541480401
 42
-0.4142135623731017
 10
1.732229387793642
 20
0.9284702649819301
 42
-0.9999999999999998
  0
LINE
  5
7DE1B343D9E3444
330
7DE1B343D9E34AB
100
AcDbEntity
  8
TEXT
100
AcDbLine
 10
1.930485599405214
 20
0.9360240541480401
 30
0.0
 11
1.930485599405214
 21
0.8609716480738335
 31
0.0
  0
LINE
  5
7DE1B343D9E3445
330
7DE1B343D9E34AB
100
AcDbEntity
  8
TEXT
100
AcDbLine
 10
1.799287434575484
 20
0.9360240541480401
 30
0.0
 11
1.853421031496434
 21
0.9360240541480401
 31
0.0
  0
LINE
  5
7DE1B343D9E3446
330
7DE1B343D9E34AB
100
AcDbEntity
  8
TEXT
100
AcDbLine
 10
1.799287434575484
 20
0.7338277158162945
 30
0.0
 11
1.799287434575484
 21
0.9360240541480401
 31
0.0
  0
LWPOLYLINE
  5
7DE1B343D9E3447
330
7DE1B343D9E34AB
100
AcDbEntity
  8
TEXT
100
AcDbPolyline
 90
        2
 70
     0
 43
0.0
 10
1.853421031496433
 20
0.9360240541480401
 42
-0.4142135623731017
 10
1.860974820662546
 20
0.9284702649819301
 42
-0.9999999999999998
  0
LWPOLYLINE
  5
7DE1B343D9E344B
330
7DE1B343D9E34AB
100
AcDbEntity
  8
TEXT
100
AcDbPolyline
 90
        4
 70
     0
 43
0.0
 10
1.860974820662546
 20
0.9284702649819301
 10
1.860974820662546
 20
0.7338277158162945
 10
1.929453103950404
 20
0.7338277158162945
 10
1.929453103950404
 20
0.7773186607667327
 42
-1.714843617202739
  0
LINE
  5
7DE1B343D9E3451
330
7DE1B343D9E34AB
100
AcDbEntity
  8
TEXT
100
AcDbLine
 10
1.289588936267302
 20
1.000300748804805
 30
0.0
 11
1.289588936267302
 21
1.034688666398943
 31
0.0
  0
LINE
  5
7DE1B343D9E3452
330
7DE1B343D9E34AB
100
AcDbEntity
  8
TEXT
100
AcDbLine
 10
1.361387902411209
 20
1.000300748804805
 30
0.0
 11
1.289588936267302
 21
1.000300748804805
 31
0.0
  0
LINE
  5
7DE1B343D9E3453
330
7DE1B343D9E34AB
100
AcDbEntity
  8
TEXT
100
AcDbLine
 10
1.508888699042389
 20
1.000300748804805
 30
0.0
 11
1.478766786249012
 21
1.000300748804805
 31
0.0
  0
LINE
  5
7DE1B343D9E3454
330
7DE1B343D9E34AB
100
AcDbEntity
  8
TEXT
100
AcDbLine
 10
1.508888699042389
 20
1.068312226543616
 30
0.0
 11
1.508888699042389
 21
1.000300748804805
 31
0.0
  0
LINE
  5
7DE1B343D9E3455
330
7DE1B343D9E34AB
100
AcDbEntity
  8
TEXT
100
AcDbLine
 10
1.575697411608754
 20
1.068312226543616
 30
0.0
 11
1.508888699042389
 21
1.068312226543616
 31
0.0
  0
LWPOLYLINE
  5
7DE1B343D9E3456
330
7DE1B343D9E34AB
100
AcDbEntity
  8
TEXT
100
AcDbPolyline
 90
        3
 70
     0
 43
0.0
 10
1.896109171206756
 20
1.000300748804809
 10
1.777809012390711
 20
1.000300748804809
 10
1.777809012390711
 20
0.9731332520439131
 42
-1.960274751411753
  0
LINE
  5
7DE1B343D9E345B
330
7DE1B343D9E34AB
100
AcDbEntity
  8
TEXT
100
AcDbLine
 10
1.74202732167755
 20
1.000300748804805
 30
0.0
 11
1.608009265746414
 21
1.000300748804805
 31
0.0
  0
LWPOLYLINE
  5
7DE1B343D9E345C
330
7DE1B343D9E34AB
100
AcDbEntity
  8
TEXT
100
AcDbPolyline
 90
        2
 70
     0
 43
0.0
 10
1.74202732167755
 20
1.000300748804809
 42
-0.3328679258950098
 10
1.777809012390711
 20
0.9731332520439131
 42
6.772930709997214
  0
LINE
  5
7DE1B343D9E3460
330
7DE1B343D9E34AB
100
AcDbEntity
  8
TEXT
100
AcDbLine
 10
1.931890861919923
 20
1.000300748804805
 30
0.0
 11
1.931890861919923
 21
0.9719782030351616
 31
0.0
  0
LWPOLYLINE
  5
7DE1B343D9E3461
330
7DE1B343D9E34AB
100
AcDbEntity
  8
TEXT
100
AcDbPolyline
 90
        2
 70
     0
 43
0.0
 10
1.896109171206756
 20
1.000300748804809
 42
-0.3277054968067132
 10
1.931890861919921
 20
0.9719782030351652
 42
6.667889725900311
  0
LINE
  5
7DE1B343D9E3465
330
7DE1B343D9E34AB
100
AcDbEntity
  8
TEXT
100
AcDbLine
 10
2.145682710012023
 20
0.8950887702513782
 30
0.0
 11
2.101931938830121
 21
0.9773390462475234
 31
0.0
  0
LINE
  5
7DE1B343D9E3466
330
7DE1B343D9E34AB
100
AcDbEntity
  8
TEXT
100
AcDbLine
 10
2.145682710012023
 20
1.000300748804805
 30
0.0
 11
2.145682710012023
 21
0.8950887702513782
 31
0.0
  0
LINE
  5
7DE1B343D9E3467
330
7DE1B343D9E34AB
100
AcDbEntity
  8
TEXT
100
AcDbLine
 10
2.373366448950392
 20
0.9244354223932674
 30
0.0
 11
2.373366448950392
 21
1.065764954572406
 31
0.0
  0
LINE
  5
7DE1B343D9E3468
330
7DE1B343D9E34AB
100
AcDbEntity
  8
TEXT
100
AcDbLine
 10
2.420464607506376
 20
1.000300748804805
 30
0.0
 11
2.373366448950392
 21
0.9244354223932674
 31
0.0
  0
LINE
  5
7DE1B343D9E3469
330
7DE1B343D9E34AB
100
AcDbEntity
  8
TEXT
100
AcDbLine
 10
2.430899324270299
 20
0.8904075058638319
 30
0.0
 11
2.495456440236004
 21
1.000300748804805
 31
0.0
  0
LINE
  5
7DE1B343D9E346A
330
7DE1B343D9E34AB
100
AcDbEntity
  8
TEXT
100
AcDbLine
 10
2.309531457727619
 20
0.7338277158162945
 30
0.0
 11
2.373909642046239
 21
0.7338277158162945
 31
0.0
  0
LWPOLYLINE
  5
7DE1B343D9E346B
330
7DE1B343D9E34AB
100
AcDbEntity
  8
TEXT
100
AcDbPolyline
 90
        2
 70
     0
 43
0.0
 10
2.149622387317061
 20
0.7773186607667327
 42
-0.2901071551932486
 10
2.106546454449416
 20
0.7338277158162945
 42
-5.328517124445184
  0
ARC
  5
7DE1B343D9E346F
330
7DE1B343D9E34AB
100
AcDbEntity
  8
TEXT
100
AcDbCircle
 10
2.037691872792501
 20
0.9076646791480428
 30
0.0
 40
0.028359375
100
AcDbArc
 50
25.78218179591245
 51
90.0
  0
LINE
  5
7DE1B343D9E3470
330
7DE1B343D9E34AB
100
AcDbEntity
  8
TEXT
100
AcDbLine
 10
2.073492948096625
 20
0.8987490806859078
 30
0.0
 11
2.06322818768306
 21
0.9199996202586021
 31
0.0
  0
LINE
  5
7DE1B343D9E3471
330
7DE1B343D9E34AB
100
AcDbEntity
  8
TEXT
100
AcDbLine
 10
1.991204958313241
 20
0.8987490806859078
 30
0.0
 11
2.073492948096625
 21
0.8987490806859078
 31
0.0
  0
LWPOLYLINE
  5
7DE1B343D9E3472
330
7DE1B343D9E34AB
100
AcDbEntity
  8
TEXT
100
AcDbPolyline
 90
        4
 70
     1
 43
0.0
 10
2.086423989379524
 20
0.8367916938003197
 10
1.997763670719665
 20
0.8367916938003197
 42
0.9999999999999998
 10
1.997763670719665
 20
0.794393153296459
 10
2.086423989379524
 20
0.794393153296459
 42
1.0
  0
LWPOLYLINE
  5
7DE1B343D9E3478
330
7DE1B343D9E34AB
100
AcDbEntity
  8
TEXT
100
AcDbPolyline
 90
        2
 70
     0
 43
0.0
 10
1.972529036818039
 20
0.7338277158162945
 10
2.106546454449416
 20
0.7338277158162945
 42
0.9999999999999998
  0
LINE
  5
7DE1B343D9E347C
330
7DE1B343D9E34AB
100
AcDbEntity
  8
TEXT
100
AcDbLine
 10
2.232883476435056
 20
0.9360240541480401
 30
0.0
 11
2.309531457727613
 21
0.9360240541480401
 31
0.0
  0
LINE
  5
7DE1B343D9E347D
330
7DE1B343D9E34AB
100
AcDbEntity
  8
TEXT
100
AcDbLine
 10
2.309531457727613
 20
0.9360240541480401
 30
0.0
 11
2.309531457727619
 21
0.7338277158162945
 31
0.0
  0
ARC
  5
7DE1B343D9E347E
330
7DE1B343D9E34AB
100
AcDbEntity
  8
TEXT
100
AcDbCircle
 10
2.232883476435054
 20
0.9111181788653773
 30
0.0
 40
0.0249058752826653
100
AcDbArc
 50
89.99971217465335
 51
179.9999999999985
  0
LINE
  5
7DE1B343D9E347F
330
7DE1B343D9E34AB
100
AcDbEntity
  8
TEXT
100
AcDbLine
 10
2.207977601152396
 20
0.7338277158162945
 30
0.0
 11
2.207977601152391
 21
0.9111182212477629
 31
0.0
  0
LWPOLYLINE
  5
7DE1B343D9E3480
330
7DE1B343D9E34AB
100
AcDbEntity
  8
TEXT
100
AcDbPolyline
 90
        2
 70
     0
 43
0.0
 10
2.149622387317061
 20
0.7338277158162945
 10
2.207977601152395
 20
0.7338277158162945
  0
LWPOLYLINE
  5
7DE1B343D9E3484
330
7DE1B343D9E34AB
100
AcDbEntity
  8
TEXT
100
AcDbPolyline
 90
        2
 70
     0
 43
0.0
 10
2.149622387317061
 20
0.7773186607667327
 10
2.149622387317061
 20
0.7338277158162945
  0
LINE
  5
7DE1B343D9E3488
330
7DE1B343D9E34AB
100
AcDbEntity
  8
TEXT
100
AcDbLine
 10
2.52639154763391
 20
0.7338277158162945
 30
0.0
 11
2.430899324270299
 21
0.8904075058638319
 31
0.0
  0
LINE
  5
7DE1B343D9E3489
330
7DE1B343D9E34AB
100
AcDbEntity
  8
TEXT
100
AcDbLine
 10
2.449813175257704
 20
0.7338277158162945
 30
0.0
 11
2.52639154763391
 21
0.7338277158162945
 31
0.0
  0
LINE
  5
7DE1B343D9E348A
330
7DE1B343D9E34AB
100
AcDbEntity
  8
TEXT
100
AcDbLine
 10
2.373909642046239
 20
0.8654072842924747
 30
0.0
 11
2.449813175257704
 21
0.7338277158162945
 31
0.0
  0
LINE
  5
7DE1B343D9E348B
330
7DE1B343D9E34AB
100
AcDbEntity
  8
TEXT
100
AcDbLine
 10
2.373909642046239
 20
0.7338277158162945
 30
0.0
 11
2.373909642046239
 21
0.8654072842924747
 31
0.0
  0
LINE
  5
7DE1B343D9E348C
330
7DE1B343D9E34AB
100
AcDbEntity
  8
TEXT
100
AcDbLine
 10
2.373366448950392
 20
1.065764954572406
 30
0.0
 11
2.305051570401118
 21
1.065764954572406
 31
0.0
  0
ARC
  5
7DE1B343D9E348D
330
7DE1B343D9E34AB
100
AcDbEntity
  8
TEXT
100
AcDbCircle
 10
2.064695831359912
 20
0.9587171816839031
 30
0.0
 40
0.0416329381542859
100
AcDbArc
 50
26.56974201007528
 51
87.20939649401342
  0
LINE
  5
7DE1B343D9E348E
330
7DE1B343D9E34AB
100
AcDbEntity
  8
TEXT
100
AcDbLine
 10
2.209579616311524
 20
1.000300748804805
 30
0.0
 11
2.145682710012023
 21
1.000300748804805
 31
0.0
  0
LINE
  5
7DE1B343D9E348F
330
7DE1B343D9E34AB
100
AcDbEntity
  8
TEXT
100
AcDbLine
 10
2.209579616311524
 20
0.9727530989439308
 30
0.0
 11
2.209579616311524
 21
1.000300748804805
 31
0.0
  0
ARC
  5
7DE1B343D9E3490
330
7DE1B343D9E34AB
100
AcDbEntity
  8
TEXT
100
AcDbCircle
 10
2.240772433374631
 20
0.9690550215225407
 30
0.0
 40
0.0314112657011332
100
AcDbArc
 50
95.88484768694724
 51
173.2388340632136
  0
LINE
  5
7DE1B343D9E3491
330
7DE1B343D9E34AB
100
AcDbEntity
  8
TEXT
100
AcDbLine
 10
2.305051570401113
 20
1.000300748804805
 30
0.0
 11
2.237551852751597
 21
1.000300748804805
 31
0.0
  0
LINE
  5
7DE1B343D9E3492
330
7DE1B343D9E34AB
100
AcDbEntity
  8
TEXT
100
AcDbLine
 10
2.305051570401118
 20
1.065764954572406
 30
0.0
 11
2.305051570401113
 21
1.000300748804805
 31
0.0
  0
LINE
  5
7DE1B343D9E3493
330
7DE1B343D9E34AB
100
AcDbEntity
  8
TEXT
100
AcDbLine
 10
2.495456440236004
 20
1.000300748804805
 30
0.0
 11
2.420464607506378
 21
1.000300748804805
 31
0.0
  0
ENDSEC
  0
SECTION
  2
OBJECTS
  0
DICTIONARY
  5
7DE1B343D9E349F
330
0
100
AcDbDictionary
  3
ACAD_GROUP
350
7DE1B343D9E34A0
  3
ACAD_LAYOUT
350
7DE1B343D9E34C5
  3
ACAD_MLINESTYLE
350
7DE1B343D9E34A1
  3
ACAD_PLOTSETTINGS
350
7DE1B343D9E34C6
  3
ACAD_PLOTSTYLENAME
350
7DE1B343D9E34C3
  3
ACDBHEADERROUNDTRIPXREC
350
7DE1B343D9E34D0
  3
ACDBVARIABLEDICTIONARY
350
7DE1B343D9E34CD
  0
DICTIONARY
  5
7DE1B343D9E34F2
330
7DE1B343D9E34AB
100
AcDbDictionary
280
     1
  3
ACAD_LAYOUTSELFREF
360
7DE1B343D9E34F3
  0
DICTIONARY
  5
7DE1B343D9E34F0
330
7DE1B343D9E34A8
100
AcDbDictionary
280
     1
  3
ACAD_LAYOUTSELFREF
360
7DE1B343D9E34F1
  0
DICTIONARY
  5
7DE1B343D9E34A0
102
{ACAD_REACTORS
330
7DE1B343D9E349F
102
}
330
7DE1B343D9E349F
100
AcDbDictionary
  0
DICTIONARY
  5
7DE1B343D9E34C5
102
{ACAD_REACTORS
330
7DE1B343D9E349F
102
}
330
7DE1B343D9E349F
100
AcDbDictionary
  0
DICTIONARY
  5
7DE1B343D9E34A1
102
{ACAD_REACTORS
330
7DE1B343D9E349F
102
}
330
7DE1B343D9E349F
100
AcDbDictionary
  3
STANDARD
350
7DE1B343D9E34AE
  0
DICTIONARY
  5
7DE1B343D9E34C6
102
{ACAD_REACTORS
330
7DE1B343D9E349F
102
}
330
7DE1B343D9E349F
100
AcDbDictionary
  0
ACDBDICTIONARYWDFLT
  5
7DE1B343D9E34C3
102
{ACAD_REACTORS
330
7DE1B343D9E349F
102
}
330
7DE1B343D9E349F
100
AcDbDictionary
281
     1
  3
Normal
350
7DE1B343D9E34C4
100
AcDbDictionaryWithDefault
340
7DE1B343D9E34C4
  0
DICTIONARY
  5
7DE1B343D9E34D0
102
{ACAD_REACTORS
330
7DE1B343D9E349F
102
}
330
7DE1B343D9E349F
100
AcDbDictionary
  3
CEPSNTYPE
350
7DE1B343D9E34DA
  3
FINGERPRINTGUID
350
7DE1B343D9E34DB
  3
HYPERLINKBASE
350
7DE1B343D9E34D3
  3
INSUNITS
350
7DE1B343D9E34D9
  3
LAYOUTDICT
350
7DE1B343D9E34D5
  3
LWETCUNION
350
7DE1B343D9E34D8
  3
PLOTSETDICT
350
7DE1B343D9E34D6
  3
PLOTSTYLNAMDICT
350
7DE1B343D9E34D7
  3
PSVPSCALE
350
7DE1B343D9E34DD
  3
PUCSBASE
350
7DE1B343D9E34E0
  3
PUCSORGBACK
350
7DE1B343D9E34E6
  3
PUCSORGBOTTOM
350
7DE1B343D9E34E2
  3
PUCSORGFRONT
350
7DE1B343D9E34E5
  3
PUCSORGLEFT
350
7DE1B343D9E34E3
  3
PUCSORGRIGHT
350
7DE1B343D9E34E4
  3
PUCSORGTOP
350
7DE1B343D9E34E1
  3
PUCSORTHOREF
350
7DE1B343D9E34DE
  3
PUCSORTHOVIEW
350
7DE1B343D9E34DF
  3
STYLESHEET
350
7DE1B343D9E34D4
  3
TSTACKALIGN
350
7DE1B343D9E34D1
  3
TSTACKSIZE
350
7DE1B343D9E34D2
  3
UCSBASE
350
7DE1B343D9E34E9
  3
UCSORGBACK
350
7DE1B343D9E34EF
  3
UCSORGBOTTOM
350
7DE1B343D9E34EB
  3
UCSORGFRONT
350
7DE1B343D9E34EE
  3
UCSORGLEFT
350
7DE1B343D9E34EC
  3
UCSORGRIGHT
350
7DE1B343D9E34ED
  3
UCSORGTOP
350
7DE1B343D9E34EA
  3
UCSORTHOREF
350
7DE1B343D9E34E7
  3
UCSORTHOVIEW
350
7DE1B343D9E34E8
  3
VERSIONGUID
350
7DE1B343D9E34DC
  0
DICTIONARY
  5
7DE1B343D9E34CD
102
{ACAD_REACTORS
330
7DE1B343D9E349F
102
}
330
7DE1B343D9E349F
100
AcDbDictionary
  3
DIMASSOC
350
7DE1B343D9E34CE
  0
XRECORD
  5
7DE1B343D9E34F3
102
{ACAD_REACTORS
330
7DE1B343D9E34F2
102
}
330
7DE1B343D9E34F2
100
AcDbXrecord
340
7DE1B343D9E34AB
  0
XRECORD
  5
7DE1B343D9E34F1
102
{ACAD_REACTORS
330
7DE1B343D9E34F0
102
}
330
7DE1B343D9E34F0
100
AcDbXrecord
340
7DE1B343D9E34A8
  0
MLINESTYLE
  5
7DE1B343D9E34AE
102
{ACAD_REACTORS
330
7DE1B343D9E34A1
102
}
330
7DE1B343D9E34A1
100
AcDbMlineStyle
  2
STANDARD
 70
     0
  3

 62
     0
 51
90.0
 52
90.0
 71
     2
 49
0.5
 62
   256
  6
BYLAYER
 49
-0.5
 62
   256
  6
BYLAYER
  0
ACDBPLACEHOLDER
  5
7DE1B343D9E34C4
102
{ACAD_REACTORS
330
7DE1B343D9E34C3
102
}
330
7DE1B343D9E34C3
100
AcDbPlaceHolder
280
     0
  0
XRECORD
  5
7DE1B343D9E34DA
102
{ACAD_REACTORS
330
7DE1B343D9E34D0
102
}
330
7DE1B343D9E34D0
100
AcDbXrecord
 90
        0
  0
XRECORD
  5
7DE1B343D9E34DB
102
{ACAD_REACTORS
330
7DE1B343D9E34D0
102
}
330
7DE1B343D9E34D0
100
AcDbXrecord
  1
{468BB970-8DB6-11D6-88E6-0090279574E7}
  0
XRECORD
  5
7DE1B343D9E34D3
102
{ACAD_REACTORS
330
7DE1B343D9E34D0
102
}
330
7DE1B343D9E34D0
100
AcDbXrecord
  1

  0
XRECORD
  5
7DE1B343D9E34D9
102
{ACAD_REACTORS
330
7DE1B343D9E34D0
102
}
330
7DE1B343D9E34D0
100
AcDbXrecord
 90
        0
  0
XRECORD
  5
7DE1B343D9E34D5
102
{ACAD_REACTORS
330
7DE1B343D9E34D0
102
}
330
7DE1B343D9E34D0
100
AcDbXrecord
340
7DE1B343D9E34C5
  0
XRECORD
  5
7DE1B343D9E34D8
102
{ACAD_REACTORS
330
7DE1B343D9E34D0
102
}
330
7DE1B343D9E34D0
100
AcDbXrecord
 90
    14877
  0
XRECORD
  5
7DE1B343D9E34D6
102
{ACAD_REACTORS
330
7DE1B343D9E34D0
102
}
330
7DE1B343D9E34D0
100
AcDbXrecord
340
7DE1B343D9E34C6
  0
XRECORD
  5
7DE1B343D9E34D7
102
{ACAD_REACTORS
330
7DE1B343D9E34D0
102
}
330
7DE1B343D9E34D0
100
AcDbXrecord
340
7DE1B343D9E34C3
  0
XRECORD
  5
7DE1B343D9E34DD
102
{ACAD_REACTORS
330
7DE1B343D9E34D0
102
}
330
7DE1B343D9E34D0
100
AcDbXrecord
 40
0.0
  0
XRECORD
  5
7DE1B343D9E34E0
102
{ACAD_REACTORS
330
7DE1B343D9E34D0
102
}
330
7DE1B343D9E34D0
100
AcDbXrecord
340
0
  0
XRECORD
  5
7DE1B343D9E34E6
102
{ACAD_REACTORS
330
7DE1B343D9E34D0
102
}
330
7DE1B343D9E34D0
100
AcDbXrecord
 10
0.0
 20
0.0
 30
0.0
  0
XRECORD
  5
7DE1B343D9E34E2
102
{ACAD_REACTORS
330
7DE1B343D9E34D0
102
}
330
7DE1B343D9E34D0
100
AcDbXrecord
 10
0.0
 20
0.0
 30
0.0
  0
XRECORD
  5
7DE1B343D9E34E5
102
{ACAD_REACTORS
330
7DE1B343D9E34D0
102
}
330
7DE1B343D9E34D0
100
AcDbXrecord
 10
0.0
 20
0.0
 30
0.0
  0
XRECORD
  5
7DE1B343D9E34E3
102
{ACAD_REACTORS
330
7DE1B343D9E34D0
102
}
330
7DE1B343D9E34D0
100
AcDbXrecord
 10
0.0
 20
0.0
 30
0.0
  0
XRECORD
  5
7DE1B343D9E34E4
102
{ACAD_REACTORS
330
7DE1B343D9E34D0
102
}
330
7DE1B343D9E34D0
100
AcDbXrecord
 10
0.0
 20
0.0
 30
0.0
  0
XRECORD
  5
7DE1B343D9E34E1
102
{ACAD_REACTORS
330
7DE1B343D9E34D0
102
}
330
7DE1B343D9E34D0
100
AcDbXrecord
 10
0.0
 20
0.0
 30
0.0
  0
XRECORD
  5
7DE1B343D9E34DE
102
{ACAD_REACTORS
330
7DE1B343D9E34D0
102
}
330
7DE1B343D9E34D0
100
AcDbXrecord
340
0
  0
XRECORD
  5
7DE1B343D9E34DF
102
{ACAD_REACTORS
330
7DE1B343D9E34D0
102
}
330
7DE1B343D9E34D0
100
AcDbXrecord
 70
     0
  0
XRECORD
  5
7DE1B343D9E34D4
102
{ACAD_REACTORS
330
7DE1B343D9E34D0
102
}
330
7DE1B343D9E34D0
100
AcDbXrecord
  1

  0
XRECORD
  5
7DE1B343D9E34D1
102
{ACAD_REACTORS
330
7DE1B343D9E34D0
102
}
330
7DE1B343D9E34D0
100
AcDbXrecord
 90
        1
  0
XRECORD
  5
7DE1B343D9E34D2
102
{ACAD_REACTORS
330
7DE1B343D9E34D0
102
}
330
7DE1B343D9E34D0
100
AcDbXrecord
 90
       70
  0
XRECORD
  5
7DE1B343D9E34E9
102
{ACAD_REACTORS
330
7DE1B343D9E34D0
102
}
330
7DE1B343D9E34D0
100
AcDbXrecord
340
0
  0
XRECORD
  5
7DE1B343D9E34EF
102
{ACAD_REACTORS
330
7DE1B343D9E34D0
102
}
330
7DE1B343D9E34D0
100
AcDbXrecord
 10
0.0
 20
0.0
 30
0.0
  0
XRECORD
  5
7DE1B343D9E34EB
102
{ACAD_REACTORS
330
7DE1B343D9E34D0
102
}
330
7DE1B343D9E34D0
100
AcDbXrecord
 10
0.0
 20
0.0
 30
0.0
  0
XRECORD
  5
7DE1B343D9E34EE
102
{ACAD_REACTORS
330
7DE1B343D9E34D0
102
}
330
7DE1B343D9E34D0
100
AcDbXrecord
 10
0.0
 20
0.0
 30
0.0
  0
XRECORD
  5
7DE1B343D9E34EC
102
{ACAD_REACTORS
330
7DE1B343D9E34D0
102
}
330
7DE1B343D9E34D0
100
AcDbXrecord
 10
0.0
 20
0.0
 30
0.0
  0
XRECORD
  5
7DE1B343D9E34ED
102
{ACAD_REACTORS
330
7DE1B343D9E34D0
102
}
330
7DE1B343D9E34D0
100
AcDbXrecord
 10
0.0
 20
0.0
 30
0.0
  0
XRECORD
  5
7DE1B343D9E34EA
102
{ACAD_REACTORS
330
7DE1B343D9E34D0
102
}
330
7DE1B343D9E34D0
100
AcDbXrecord
 10
0.0
 20
0.0
 30
0.0
  0
XRECORD
  5
7DE1B343D9E34E7
102
{ACAD_REACTORS
330
7DE1B343D9E34D0
102
}
330
7DE1B343D9E34D0
100
AcDbXrecord
340
0
  0
XRECORD
  5
7DE1B343D9E34E8
102
{ACAD_REACTORS
330
7DE1B343D9E34D0
102
}
330
7DE1B343D9E34D0
100
AcDbXrecord
 70
     0
  0
XRECORD
  5
7DE1B343D9E34DC
102
{ACAD_REACTORS
330
7DE1B343D9E34D0
102
}
330
7DE1B343D9E34D0
100
AcDbXrecord
  1
{468BB972-8DB6-11D6-88E6-0090279574E7}
  0
DICTIONARYVAR
  5
7DE1B343D9E34CE
102
{ACAD_REACTORS
330
7DE1B343D9E34CD
102
}
330
7DE1B343D9E34CD
100
DictionaryVariables
280
     0
  1
1
  0
ENDSEC
  0
EOF
