  0
SECTION
  2
HEADER
  9
$ACADVER
  1
AC1014
  9
$ACADMAINTVER
 70
     9
  9
$DWGCODEPAGE
  3
ANSI_1252
  9
$INSBASE
 10
1.698170711963419
 20
1.587343282855904
 30
0.0
  9
$EXTMIN
 10
-0.0323692573213974
 20
0.0286528513495387
 30
0.0
  9
$EXTMAX
 10
3.45285006442573
 20
2.294579917582859
 30
0.0
  9
$LIMMIN
 10
0.0
 20
0.0
  9
$LIMMAX
 10
18.0
 20
12.0
  9
$ORTHOMODE
 70
     1
  9
$REGENMODE
 70
     1
  9
$FILLMODE
 70
     1
  9
$QTEXTMODE
 70
     0
  9
$MIRRTEXT
 70
     0
  9
$DRAGMODE
 70
     2
  9
$LTSCALE
 40
1.0
  9
$OSMODE
 70
    39
  9
$ATTMODE
 70
     1
  9
$TEXTSIZE
 40
0.125
  9
$TRACEWID
 40
0.05
  9
$TEXTSTYLE
  7
ROMANS
  9
$CLAYER
  8
0
  9
$CELTYPE
  6
BYLAYER
  9
$CECOLOR
 62
   256
  9
$CELTSCALE
 40
1.0
  9
$DELOBJ
 70
     1
  9
$DISPSILH
 70
     1
  9
$DIMSCALE
 40
1.0
  9
$DIMASZ
 40
0.125
  9
$DIMEXO
 40
0.125
  9
$DIMDLI
 40
0.375
  9
$DIMRND
 40
0.0
  9
$DIMDLE
 40
0.0
  9
$DIMEXE
 40
0.125
  9
$DIMTP
 40
0.0
  9
$DIMTM
 40
0.0
  9
$DIMTXT
 40
0.125
  9
$DIMCEN
 40
-0.125
  9
$DIMTSZ
 40
0.0
  9
$DIMTOL
 70
     0
  9
$DIMLIM
 70
     0
  9
$DIMTIH
 70
     1
  9
$DIMTOH
 70
     1
  9
$DIMSE1
 70
     0
  9
$DIMSE2
 70
     0
  9
$DIMTAD
 70
     0
  9
$DIMZIN
 70
     4
  9
$DIMBLK
  1

  9
$DIMASO
 70
     1
  9
$DIMSHO
 70
     1
  9
$DIMPOST
  1

  9
$DIMAPOST
  1

  9
$DIMALT
 70
     0
  9
$DIMALTD
 70
     2
  9
$DIMALTF
 40
25.4
  9
$DIMLFAC
 40
1.0
  9
$DIMTOFL
 70
     0
  9
$DIMTVP
 40
0.0
  9
$DIMTIX
 70
     1
  9
$DIMSOXD
 70
     0
  9
$DIMSAH
 70
     0
  9
$DIMBLK1
  1

  9
$DIMBLK2
  1

  9
$DIMSTYLE
  2
STANDARD
  9
$DIMCLRD
 70
     0
  9
$DIMCLRE
 70
     0
  9
$DIMCLRT
 70
     0
  9
$DIMTFAC
 40
1.0
  9
$DIMGAP
 40
0.09
  9
$DIMJUST
 70
     0
  9
$DIMSD1
 70
     0
  9
$DIMSD2
 70
     0
  9
$DIMTOLJ
 70
     1
  9
$DIMTZIN
 70
     4
  9
$DIMALTZ
 70
     0
  9
$DIMALTTZ
 70
     0
  9
$DIMFIT
 70
     3
  9
$DIMUPT
 70
     0
  9
$DIMUNIT
 70
     2
  9
$DIMDEC
 70
     3
  9
$DIMTDEC
 70
     3
  9
$DIMALTU
 70
     2
  9
$DIMALTTD
 70
     2
  9
$DIMTXSTY
  7
ROMANS
  9
$DIMAUNIT
 70
     0
  9
$LUNITS
 70
     2
  9
$LUPREC
 70
     3
  9
$SKETCHINC
 40
0.1
  9
$FILLETRAD
 40
0.03125
  9
$AUNITS
 70
     0
  9
$AUPREC
 70
     0
  9
$MENU
  1
ACAD
  9
$ELEVATION
 40
0.0
  9
$PELEVATION
 40
0.0
  9
$THICKNESS
 40
0.0
  9
$LIMCHECK
 70
     0
  9
$BLIPMODE
 70
     0
  9
$CHAMFERA
 40
0.0
  9
$CHAMFERB
 40
0.0
  9
$CHAMFERC
 40
0.0
  9
$CHAMFERD
 40
0.0
  9
$SKPOLY
 70
     0
  9
$TDCREATE
 40
2448994.572115740
  9
$TDUPDATE
 40
2452458.306729803
  9
$TDINDWG
 40
0.0005305093
  9
$TDUSRTIMER
 40
0.0005305093
  9
$USRTIMER
 70
     1
  9
$ANGBASE
 50
0.0
  9
$ANGDIR
 70
     0
  9
$PDMODE
 70
     0
  9
$PDSIZE
 40
0.0
  9
$PLINEWID
 40
0.0
  9
$COORDS
 70
     2
  9
$SPLFRAME
 70
     0
  9
$SPLINETYPE
 70
     6
  9
$SPLINESEGS
 70
     8
  9
$ATTDIA
 70
     0
  9
$ATTREQ
 70
     1
  9
$HANDLING
 70
 22529
  9
$HANDSEED
  5
7DE1B343D9E3397
  9
$SURFTAB1
 70
     6
  9
$SURFTAB2
 70
     6
  9
$SURFTYPE
 70
     6
  9
$SURFU
 70
     6
  9
$SURFV
 70
     6
  9
$UCSNAME
  2

  9
$UCSORG
 10
0.0
 20
0.0
 30
0.0
  9
$UCSXDIR
 10
1.0
 20
0.0
 30
0.0
  9
$UCSYDIR
 10
0.0
 20
1.0
 30
0.0
  9
$PUCSNAME
  2

  9
$PUCSORG
 10
0.0
 20
0.0
 30
0.0
  9
$PUCSXDIR
 10
1.0
 20
0.0
 30
0.0
  9
$PUCSYDIR
 10
0.0
 20
1.0
 30
0.0
  9
$USERI1
 70
     0
  9
$USERI2
 70
     0
  9
$USERI3
 70
     0
  9
$USERI4
 70
     0
  9
$USERI5
 70
     0
  9
$USERR1
 40
0.0
  9
$USERR2
 40
0.0
  9
$USERR3
 40
0.0
  9
$USERR4
 40
0.0
  9
$USERR5
 40
0.0
  9
$WORLDVIEW
 70
     1
  9
$SHADEDGE
 70
     3
  9
$SHADEDIF
 70
    70
  9
$TILEMODE
 70
     1
  9
$MAXACTVP
 70
    16
  9
$PINSBASE
 10
0.6428587690868918
 20
50.00000000000001
 30
2.301829275388866
  9
$PLIMCHECK
 70
     0
  9
$PEXTMIN
 10
1.000000000000000E+20
 20
1.000000000000000E+20
 30
1.000000000000000E+20
  9
$PEXTMAX
 10
-1.000000000000000E+20
 20
-1.000000000000000E+20
 30
-1.000000000000000E+20
  9
$PLIMMIN
 10
0.0
 20
0.0
  9
$PLIMMAX
 10
12.0
 20
9.0
  9
$UNITMODE
 70
     0
  9
$VISRETAIN
 70
     0
  9
$PLINEGEN
 70
     1
  9
$PSLTSCALE
 70
     0
  9
$TREEDEPTH
 70
  3020
  9
$PICKSTYLE
 70
     1
  9
$CMLSTYLE
  2
STANDARD
  9
$CMLJUST
 70
     0
  9
$CMLSCALE
 40
1.0
  9
$PROXYGRAPHICS
 70
     1
  9
$MEASUREMENT
 70
     0
  0
ENDSEC
  0
SECTION
  2
CLASSES
  0
CLASS
  1
LWPOLYLINE
  2
AcDbPolyline
  3
AutoCAD 2000
 90
        0
280
     0
281
     1
  0
CLASS
  1
ACDBDICTIONARYWDFLT
  2
AcDbDictionaryWithDefault
  3
AutoCAD 2000
 90
        0
280
     0
281
     0
  0
CLASS
  1
ACDBPLACEHOLDER
  2
AcDbPlaceHolder
  3
AutoCAD 2000
 90
        0
280
     0
281
     0
  0
CLASS
  1
LAYOUT
  2
AcDbLayout
  3
AutoCAD 2000
 90
        0
280
     0
281
     0
  0
CLASS
  1
DICTIONARYVAR
  2
AcDbDictionaryVar
  3
AutoCAD 2000
 90
        0
280
     0
281
     0
  0
CLASS
  1
LONG_TRANSACTION
  2
AcDbLongTransaction
  3
AutoCAD 2000
 90
        0
280
     0
281
     0
  0
CLASS
  1
LWPOLYLINE
  2
AcDbPolyline
  3
AutoCAD 2000
 90
        0
280
     0
281
     1
  0
CLASS
  1
HATCH
  2
AcDbHatch
  3
AutoCAD 2000
 90
        0
280
     0
281
     1
  0
CLASS
  1
XRECORD
  2
AcDbXrecord
  3
AutoCAD 2000
 90
        0
280
     0
281
     0
  0
ENDSEC
  0
SECTION
  2
TABLES
  0
TABLE
  2
VPORT
  5
7DE1B343D9E333E
330
0
100
AcDbSymbolTable
 70
     2
  0
VPORT
  5
7DE1B343D9E3372
330
7DE1B343D9E333E
100
AcDbSymbolTableRecord
100
AcDbViewportTableRecord
  2
*ACTIVE
 70
     0
 10
0.0
 20
0.0
 11
1.0
 21
1.0
 12
5.04700348481826
 22
1.161438010588099
 13
0.0
 23
0.0
 14
0.015625
 24
0.015625
 15
0.0
 25
0.0
 16
0.0
 26
0.0
 36
1.0
 17
0.0
 27
0.0
 37
0.0
 40
2.559124666909579
 41
4.320930232558139
 42
50.0
 43
0.0
 44
0.0
 50
0.0
 51
0.0
 71
     0
 72
  2000
 73
     1
 74
     0
 75
     0
 76
     0
 77
     0
 78
     0
  0
ENDTAB
  0
TABLE
  2
LTYPE
  5
7DE1B343D9E333B
330
0
100
AcDbSymbolTable
 70
     1
  0
LTYPE
  5
7DE1B343D9E3348
330
7DE1B343D9E333B
100
AcDbSymbolTableRecord
100
AcDbLinetypeTableRecord
  2
BYBLOCK
 70
     0
  3

 72
    65
 73
     0
 40
0.0
  0
LTYPE
  5
7DE1B343D9E3349
330
7DE1B343D9E333B
100
AcDbSymbolTableRecord
100
AcDbLinetypeTableRecord
  2
BYLAYER
 70
     0
  3

 72
    65
 73
     0
 40
0.0
  0
LTYPE
  5
7DE1B343D9E334A
330
7DE1B343D9E333B
100
AcDbSymbolTableRecord
100
AcDbLinetypeTableRecord
  2
CONTINUOUS
 70
     0
  3
Solid line
 72
    65
 73
     0
 40
0.0
  0
ENDTAB
  0
TABLE
  2
LAYER
  5
7DE1B343D9E3338
330
0
100
AcDbSymbolTable
 70
     2
  0
LAYER
  5
7DE1B343D9E3345
330
7DE1B343D9E3338
100
AcDbSymbolTableRecord
100
AcDbLayerTableRecord
  2
0
 70
     0
 62
     7
  6
CONTINUOUS
  0
LAYER
  5
7DE1B343D9E3355
330
7DE1B343D9E3338
100
AcDbSymbolTableRecord
100
AcDbLayerTableRecord
  2
TEXT
 70
     0
 62
     3
  6
CONTINUOUS
  0
ENDTAB
  0
TABLE
  2
STYLE
  5
7DE1B343D9E3339
330
0
100
AcDbSymbolTable
 70
     3
  0
STYLE
  5
7DE1B343D9E3346
330
7DE1B343D9E3339
100
AcDbSymbolTableRecord
100
AcDbTextStyleTableRecord
  2
STANDARD
 70
     0
 40
0.0
 41
1.0
 50
0.0
 71
     0
 42
0.3125
  3
txt
  4

  0
STYLE
  5
7DE1B343D9E3352
330
7DE1B343D9E3339
100
AcDbSymbolTableRecord
100
AcDbTextStyleTableRecord
  2
ITALICC
 70
     0
 40
0.0
 41
1.0
 50
0.0
 71
     0
 42
0.125
  3
italicc
  4

  0
STYLE
  5
7DE1B343D9E3362
330
7DE1B343D9E3339
100
AcDbSymbolTableRecord
100
AcDbTextStyleTableRecord
  2
ROMANS
 70
     0
 40
0.0
 41
1.0
 50
0.0
 71
     0
 42
0.125
  3
romans.shx
  4

  0
ENDTAB
  0
TABLE
  2
VIEW
  5
7DE1B343D9E333C
330
0
100
AcDbSymbolTable
 70
     0
  0
ENDTAB
  0
TABLE
  2
UCS
  5
7DE1B343D9E333D
330
0
100
AcDbSymbolTable
 70
     0
  0
ENDTAB
  0
TABLE
  2
APPID
  5
7DE1B343D9E333F
330
0
100
AcDbSymbolTable
 70
     1
  0
APPID
  5
7DE1B343D9E3347
330
7DE1B343D9E333F
100
AcDbSymbolTableRecord
100
AcDbRegAppTableRecord
  2
ACAD
 70
     0
  0
ENDTAB
  0
TABLE
  2
DIMSTYLE
  5
7DE1B343D9E3340
330
0
100
AcDbSymbolTable
 70
     1
  0
DIMSTYLE
105
7DE1B343D9E335A
330
7DE1B343D9E3340
100
AcDbSymbolTableRecord
100
AcDbDimStyleTableRecord
  2
STANDARD
 70
     0
  3

  4

  5

  6

  7

 40
1.0
 41
0.125
 42
0.125
 43
0.375
 44
0.125
 45
0.0
 46
0.0
 47
0.0
 48
0.0
140
0.125
141
-0.125
142
0.0
143
25.4
144
1.0
145
0.0
146
1.0
147
0.09
 71
     0
 72
     0
 73
     1
 74
     1
 75
     0
 76
     0
 77
     0
 78
     4
170
     0
171
     2
172
     0
173
     0
174
     1
175
     0
176
     0
177
     0
178
     0
270
     2
271
     3
272
     3
273
     2
274
     2
340
7DE1B343D9E3362
275
     0
280
     0
281
     0
282
     0
283
     1
284
     4
285
     0
286
     0
287
     3
288
     0
  0
ENDTAB
  0
TABLE
  2
BLOCK_RECORD
  5
7DE1B343D9E3337
330
0
100
AcDbSymbolTable
 70
     0
  0
BLOCK_RECORD
  5
7DE1B343D9E334E
102
{ACAD_XDICTIONARY
360
7DE1B343D9E3395
102
}
330
7DE1B343D9E3337
100
AcDbSymbolTableRecord
100
AcDbBlockTableRecord
  2
*MODEL_SPACE
  0
BLOCK_RECORD
  5
7DE1B343D9E334B
102
{ACAD_XDICTIONARY
360
7DE1B343D9E3393
102
}
330
7DE1B343D9E3337
100
AcDbSymbolTableRecord
100
AcDbBlockTableRecord
  2
*PAPER_SPACE
  0
ENDTAB
  0
ENDSEC
  0
SECTION
  2
BLOCKS
  0
BLOCK
  5
7DE1B343D9E3358
330
7DE1B343D9E334E
100
AcDbEntity
  8
0
100
AcDbBlockBegin
  2
*MODEL_SPACE
 70
     0
 10
0.0
 20
0.0
 30
0.0
  3
*MODEL_SPACE
  1

  0
ENDBLK
  5
7DE1B343D9E3359
330
7DE1B343D9E334E
100
AcDbEntity
  8
0
100
AcDbBlockEnd
  0
BLOCK
  5
7DE1B343D9E3356
330
7DE1B343D9E334B
100
AcDbEntity
 67
     1
  8
0
100
AcDbBlockBegin
  2
*PAPER_SPACE
 70
     0
 10
0.0
 20
0.0
 30
0.0
  3
*PAPER_SPACE
  1

  0
ENDBLK
  5
7DE1B343D9E3357
330
7DE1B343D9E334B
100
AcDbEntity
 67
     1
  8
0
100
AcDbBlockEnd
  0
ENDSEC
  0
SECTION
  2
ENTITIES
  0
LWPOLYLINE
  5
7DE1B343D9E1F85
330
7DE1B343D9E334E
100
AcDbEntity
  8
0
100
AcDbPolyline
 90
       13
 70
     1
 43
0.0
 10
1.585612321905745
 20
2.228843874126819
 10
2.023112321905745
 20
2.228843874126819
 10
2.023112321905745
 20
0.8538438741268196
 10
1.398112321905745
 20
0.8538438741268196
 10
1.398112321905745
 20
1.04134387412682
 10
1.335612321905745
 20
1.04134387412682
 10
1.335612321905745
 20
0.8069688741268199
 42
0.4142135623730948
 10
1.351237321905745
 20
0.7913438741268201
 10
2.069987321905745
 20
0.7913438741268197
 42
0.4142135623730954
 10
2.085612321905745
 20
0.8069688741268196
 10
2.085612321905746
 20
2.275718874126819
 42
0.4142135623730951
 10
2.069987321905746
 20
2.291343874126819
 10
1.585612321905746
 20
2.291343874126819
  0
TEXT
  5
7DE1B343D9E31F9
330
7DE1B343D9E334E
100
AcDbEntity
  8
TEXT
100
AcDbText
 10
0.9546599409533646
 20
0.4866714554321203
 30
0.0
 40
0.125
  1
PART #110315
  7
ITALICC
 72
     1
 11
1.710612321905745
 21
0.4866714554321203
 31
0.0
100
AcDbText
  0
TEXT
  5
7DE1B343D9E31FA
330
7DE1B343D9E334E
100
AcDbEntity
  8
TEXT
100
AcDbText
 10
2.123917480156066
 20
0.0397488127597451
 30
0.0
 40
0.0522247191011236
  1
Phone  1-800-328-2495
 41
1.272321428571429
 72
     5
 11
3.45285006442573
 21
0.0397488127597451
 31
0.0
100
AcDbText
  0
TEXT
  5
7DE1B343D9E31FB
330
7DE1B343D9E334E
100
AcDbEntity
  8
TEXT
100
AcDbText
 10
2.123917480156066
 20
0.3195240936586216
 30
0.0
 40
0.0522247191011236
  1
Stylmark  Incorporated
 41
1.221428571428573
 72
     5
 11
3.45285006442573
 21
0.3195240936586216
 31
0.0
100
AcDbText
  0
TEXT
  5
7DE1B343D9E31FC
330
7DE1B343D9E334E
100
AcDbEntity
  8
TEXT
100
AcDbText
 10
2.123917480156066
 20
0.2262656666923294
 30
0.0
 40
0.0522247191011236
  1
6536 Main St. N.E. * P.O. Box 32008
 41
0.8388932496075366
 72
     5
 11
3.45285006442573
 21
0.2262656666923294
 31
0.0
100
AcDbText
  0
TEXT
  5
7DE1B343D9E31FD
330
7DE1B343D9E334E
100
AcDbEntity
  8
TEXT
100
AcDbText
 10
2.123917480156066
 20
0.1330072397260372
 30
0.0
 40
0.0522247191011236
  1
Minneapolis, MN 55432-0008
 41
1.11444212721585
 72
     5
 11
3.45285006442573
 21
0.1330072397260372
 31
0.0
100
AcDbText
  0
LWPOLYLINE
  5
7DE1B343D9E31FE
330
7DE1B343D9E334E
100
AcDbEntity
  8
TEXT
100
AcDbPolyline
 90
        3
 70
     0
 43
0.0006660908203125
 10
-0.0320362119112412
 20
0.1533935753971799
 10
-0.0320362119112412
 20
0.0401581359440523
 10
0.0811992275418812
 20
0.0401581359440523
  0
LWPOLYLINE
  5
7DE1B343D9E3203
330
7DE1B343D9E334E
100
AcDbEntity
  8
TEXT
100
AcDbPolyline
 90
        3
 70
     0
 43
0.0006660908203125
 10
-0.0053925790987437
 20
0.1533935753971799
 10
-0.0053925790987437
 20
0.0668017687565533
 10
0.0811992275418812
 20
0.0668017687565533
  0
LWPOLYLINE
  5
7DE1B343D9E3208
330
7DE1B343D9E334E
100
AcDbEntity
  8
TEXT
100
AcDbPolyline
 90
        2
 70
     0
 43
0.0001332181640625
 10
0.0412337783231331
 20
0.1633849377018651
 10
-0.0320362119112412
 20
0.1533935753971799
  0
LWPOLYLINE
  5
7DE1B343D9E320C
330
7DE1B343D9E334E
100
AcDbEntity
  8
TEXT
100
AcDbPolyline
 90
        2
 70
     0
 43
0.0001332181640625
 10
-0.0053925790987437
 20
0.1533935753971799
 10
0.0545555947293837
 20
0.1633849377018651
  0
LWPOLYLINE
  5
7DE1B343D9E3210
330
7DE1B343D9E334E
100
AcDbEntity
  8
TEXT
100
AcDbPolyline
 90
        2
 70
     0
 43
0.0001332181640625
 10
-0.0053925790987437
 20
0.0668017687565533
 10
0.0545555947293837
 20
0.1267499425846789
  0
LWPOLYLINE
  5
7DE1B343D9E3214
330
7DE1B343D9E334E
100
AcDbEntity
  8
TEXT
100
AcDbPolyline
 90
        3
 70
     0
 43
0.0006660908203125
 10
0.0811992275418812
 20
0.3065944640690556
 10
-0.0320362119112412
 20
0.3065944640690556
 10
-0.0320362119112412
 20
0.1933590246159279
  0
LWPOLYLINE
  5
7DE1B343D9E3219
330
7DE1B343D9E334E
100
AcDbEntity
  8
TEXT
100
AcDbPolyline
 90
        3
 70
     0
 43
0.0006660908203125
 10
0.0811992275418812
 20
0.2799508312565545
 10
-0.0053925790987437
 20
0.2799508312565545
 10
-0.0053925790987437
 20
0.1933590246159279
  0
LWPOLYLINE
  5
7DE1B343D9E321E
330
7DE1B343D9E334E
100
AcDbEntity
  8
TEXT
100
AcDbPolyline
 90
        2
 70
     0
 43
0.0001332181640625
 10
-0.0053925790987437
 20
0.2799508312565545
 10
0.0545555947293819
 20
0.220002657428429
  0
LWPOLYLINE
  5
7DE1B343D9E3222
330
7DE1B343D9E334E
100
AcDbEntity
  8
TEXT
100
AcDbPolyline
 90
        2
 70
     0
 43
0.0001332181640625
 10
-0.0053925790987437
 20
0.1933590246159279
 10
0.0545555947293819
 20
0.1833676623112391
  0
LWPOLYLINE
  5
7DE1B343D9E3226
330
7DE1B343D9E334E
100
AcDbEntity
  8
TEXT
100
AcDbPolyline
 90
        2
 70
     0
 43
0.0001332181640625
 10
-0.0320362119112412
 20
0.1933590246159279
 10
0.0412337783231331
 20
0.1833676623112391
  0
LWPOLYLINE
  5
7DE1B343D9E322A
330
7DE1B343D9E334E
100
AcDbEntity
  8
TEXT
100
AcDbPolyline
 90
        2
 70
     0
 43
0.0006660908203125
 10
-0.0053925790987437
 20
0.1533935753971799
 10
-0.0320362119112412
 20
0.1533935753971799
  0
LWPOLYLINE
  5
7DE1B343D9E322E
330
7DE1B343D9E334E
100
AcDbEntity
  8
TEXT
100
AcDbPolyline
 90
        2
 70
     0
 43
0.0006660908203125
 10
-0.0053925790987437
 20
0.1933590246159279
 10
-0.0320362119112412
 20
0.1933590246159279
  0
LINE
  5
7DE1B343D9E3232
330
7DE1B343D9E334E
100
AcDbEntity
  8
TEXT
100
AcDbLine
 10
1.483154217215256
 20
0.2423177694122866
 30
0.0
 11
1.375947943827966
 21
0.2423177694122866
 31
0.0
  0
LINE
  5
7DE1B343D9E3233
330
7DE1B343D9E334E
100
AcDbEntity
  8
TEXT
100
AcDbLine
 10
1.512185115559734
 20
0.306594464069052
 30
0.0
 11
1.377353206342675
 21
0.306594464069052
 31
0.0
  0
ARC
  5
7DE1B343D9E3234
330
7DE1B343D9E334E
100
AcDbEntity
  8
TEXT
100
AcDbCircle
 10
1.436667302735992
 20
0.1373572148060357
 30
0.0
 40
0.0676855811441166
100
AcDbArc
 50
90.0
 51
153.7768192527749
  0
LWPOLYLINE
  5
7DE1B343D9E3235
330
7DE1B343D9E334E
100
AcDbEntity
  8
TEXT
100
AcDbPolyline
 90
        2
 70
     0
 43
0.0
 10
1.374915448373156
 20
0.0836123760309792
 42
0.2901071551932823
 10
1.417991381240792
 20
0.040121431080541
 42
5.328517124445801
  0
ARC
  5
7DE1B343D9E3239
330
7DE1B343D9E334E
100
AcDbEntity
  8
TEXT
100
AcDbCircle
 10
0.7315359250645069
 20
0.0999138224185908
 30
0.0
 40
0.0601160179737537
100
AcDbArc
 50
180.0000000000003
 51
264.0521544866073
  0
LINE
  5
7DE1B343D9E323A
330
7DE1B343D9E334E
100
AcDbEntity
  8
TEXT
100
AcDbLine
 10
0.7350512806900547
 20
0.3409823816631902
 30
0.0
 11
0.6750086758460477
 21
0.3409823816631902
 31
0.0
  0
ARC
  5
7DE1B343D9E323B
330
7DE1B343D9E334E
100
AcDbEntity
  8
TEXT
100
AcDbCircle
 10
0.4992769229475363
 20
0.2245070046225503
 30
0.0
 40
0.0820874594465043
100
AcDbArc
 50
90.0
 51
270.0
  0
LWPOLYLINE
  5
7DE1B343D9E323C
330
7DE1B343D9E334E
100
AcDbEntity
  8
TEXT
100
AcDbPolyline
 90
        2
 70
     0
 43
0.0001332181640625
 10
0.0911905898465717
 20
0.2333244738346759
 10
0.0811992275418812
 20
0.3065944640690556
  0
LWPOLYLINE
  5
7DE1B343D9E3240
330
7DE1B343D9E334E
100
AcDbEntity
  8
TEXT
100
AcDbPolyline
 90
        2
 70
     0
 43
0.0001332181640625
 10
0.0811992275418812
 20
0.2799508312565545
 10
0.0911905898465717
 20
0.220002657428429
  0
LWPOLYLINE
  5
7DE1B343D9E3244
330
7DE1B343D9E334E
100
AcDbEntity
  8
TEXT
100
AcDbPolyline
 90
        3
 70
     0
 43
0.0006660908203125
 10
0.2344001162137586
 20
0.1933590246159279
 10
0.2344001162137586
 20
0.3065944640690556
 10
0.1211646767606327
 20
0.3065944640690556
  0
LWPOLYLINE
  5
7DE1B343D9E3249
330
7DE1B343D9E334E
100
AcDbEntity
  8
TEXT
100
AcDbPolyline
 90
        3
 70
     0
 43
0.0006660908203125
 10
0.2077564834012575
 20
0.1933590246159279
 10
0.2077564834012575
 20
0.2799508312565545
 10
0.1211646767606327
 20
0.2799508312565545
  0
LWPOLYLINE
  5
7DE1B343D9E324E
330
7DE1B343D9E334E
100
AcDbEntity
  8
TEXT
100
AcDbPolyline
 90
        2
 70
     0
 43
0.0001332181640625
 10
0.2077564834012575
 20
0.2799508312565545
 10
0.1478083095731337
 20
0.220002657428429
  0
LWPOLYLINE
  5
7DE1B343D9E3252
330
7DE1B343D9E334E
100
AcDbEntity
  8
TEXT
100
AcDbPolyline
 90
        2
 70
     0
 43
0.0001332181640625
 10
0.1211646767606327
 20
0.2799508312565545
 10
0.1111733144559439
 20
0.220002657428429
  0
LWPOLYLINE
  5
7DE1B343D9E3256
330
7DE1B343D9E334E
100
AcDbEntity
  8
TEXT
100
AcDbPolyline
 90
        2
 70
     0
 43
0.0001332181640625
 10
0.1211646767606327
 20
0.3065944640690556
 10
0.1111733144559439
 20
0.2333244738346759
  0
LWPOLYLINE
  5
7DE1B343D9E325A
330
7DE1B343D9E334E
100
AcDbEntity
  8
TEXT
100
AcDbPolyline
 90
        2
 70
     0
 43
0.0001332181640625
 10
0.1611301259793825
 20
0.1833676623112391
 10
0.2344001162137586
 20
0.1933590246159279
  0
LWPOLYLINE
  5
7DE1B343D9E325E
330
7DE1B343D9E334E
100
AcDbEntity
  8
TEXT
100
AcDbPolyline
 90
        2
 70
     0
 43
0.0001332181640625
 10
0.2077564834012575
 20
0.1933590246159279
 10
0.1478083095731337
 20
0.1833676623112391
  0
LWPOLYLINE
  5
7DE1B343D9E3262
330
7DE1B343D9E334E
100
AcDbEntity
  8
TEXT
100
AcDbPolyline
 90
        2
 70
     0
 43
0.0001332181640625
 10
0.2344001162137586
 20
0.1533935753971799
 10
0.1611301259793825
 20
0.1633849377018651
  0
LWPOLYLINE
  5
7DE1B343D9E3266
330
7DE1B343D9E334E
100
AcDbEntity
  8
TEXT
100
AcDbPolyline
 90
        2
 70
     0
 43
0.0001332181640625
 10
0.2077564834012575
 20
0.1533935753971799
 10
0.1478083095731337
 20
0.1633849377018651
  0
LWPOLYLINE
  5
7DE1B343D9E326A
330
7DE1B343D9E334E
100
AcDbEntity
  8
TEXT
100
AcDbPolyline
 90
        2
 70
     0
 43
0.0001332181640625
 10
0.2077564834012575
 20
0.0668017687565533
 10
0.1478083095731337
 20
0.1267499425846789
  0
LWPOLYLINE
  5
7DE1B343D9E326E
330
7DE1B343D9E334E
100
AcDbEntity
  8
TEXT
100
AcDbPolyline
 90
        3
 70
     0
 43
0.0006660908203125
 10
0.1211646767606327
 20
0.0668017687565533
 10
0.2077564834012575
 20
0.0668017687565533
 10
0.2077564834012575
 20
0.1533935753971799
  0
LWPOLYLINE
  5
7DE1B343D9E3273
330
7DE1B343D9E334E
100
AcDbEntity
  8
TEXT
100
AcDbPolyline
 90
        3
 70
     0
 43
0.0006660908203125
 10
0.1211646767606327
 20
0.0401581359440523
 10
0.2344001162137586
 20
0.0401581359440523
 10
0.2344001162137586
 20
0.1533935753971799
  0
LWPOLYLINE
  5
7DE1B343D9E3278
330
7DE1B343D9E334E
100
AcDbEntity
  8
TEXT
100
AcDbPolyline
 90
        5
 70
     0
 43
0.0001332181640625
 10
0.0911905898465717
 20
0.1134281261784283
 10
0.0911905898465717
 20
0.1267499425846789
 10
0.0545555947293837
 20
0.1267499425846789
 10
0.0545555947293837
 20
0.1633849377018651
 10
0.0412337783231331
 20
0.1633849377018651
  0
LWPOLYLINE
  5
7DE1B343D9E327F
330
7DE1B343D9E334E
100
AcDbEntity
  8
TEXT
100
AcDbPolyline
 90
        2
 70
     0
 43
0.0006660908203125
 10
0.0811992275418812
 20
0.0668017687565533
 10
0.0811992275418812
 20
0.0401581359440523
  0
LWPOLYLINE
  5
7DE1B343D9E3283
330
7DE1B343D9E334E
100
AcDbEntity
  8
TEXT
100
AcDbPolyline
 90
        2
 70
     0
 43
0.0001332181640625
 10
0.0811992275418812
 20
0.0668017687565533
 10
0.0911905898465717
 20
0.1267499425846789
  0
LWPOLYLINE
  5
7DE1B343D9E3287
330
7DE1B343D9E334E
100
AcDbEntity
  8
TEXT
100
AcDbPolyline
 90
        2
 70
     0
 43
0.0001332181640625
 10
0.0811992275418812
 20
0.0401581359440523
 10
0.0911905898465717
 20
0.1134281261784283
  0
LWPOLYLINE
  5
7DE1B343D9E328B
330
7DE1B343D9E334E
100
AcDbEntity
  8
TEXT
100
AcDbPolyline
 90
        5
 70
     0
 43
0.0001332181640625
 10
0.0412337783231331
 20
0.1833676623112391
 10
0.0545555947293819
 20
0.1833676623112391
 10
0.0545555947293819
 20
0.220002657428429
 10
0.0911905898465717
 20
0.220002657428429
 10
0.0911905898465717
 20
0.2333244738346759
  0
LWPOLYLINE
  5
7DE1B343D9E3292
330
7DE1B343D9E334E
100
AcDbEntity
  8
TEXT
100
AcDbPolyline
 90
        5
 70
     0
 43
0.0001332181640625
 10
0.1111733144559439
 20
0.2333244738346759
 10
0.1111733144559439
 20
0.220002657428429
 10
0.1478083095731337
 20
0.220002657428429
 10
0.1478083095731337
 20
0.1833676623112391
 10
0.1611301259793825
 20
0.1833676623112391
  0
LWPOLYLINE
  5
7DE1B343D9E3299
330
7DE1B343D9E334E
100
AcDbEntity
  8
TEXT
100
AcDbPolyline
 90
        2
 70
     0
 43
0.0001332181640625
 10
0.1211646767606327
 20
0.0668017687565533
 10
0.1111733144559439
 20
0.1267499425846789
  0
LWPOLYLINE
  5
7DE1B343D9E329D
330
7DE1B343D9E334E
100
AcDbEntity
  8
TEXT
100
AcDbPolyline
 90
        2
 70
     0
 43
0.0001332181640625
 10
0.1111733144559439
 20
0.1134281261784283
 10
0.1211646767606327
 20
0.0401581359440523
  0
LWPOLYLINE
  5
7DE1B343D9E32A1
330
7DE1B343D9E334E
100
AcDbEntity
  8
TEXT
100
AcDbPolyline
 90
        2
 70
     0
 43
0.0006660908203125
 10
0.1211646767606327
 20
0.0668017687565533
 10
0.1211646767606327
 20
0.0401581359440523
  0
LWPOLYLINE
  5
7DE1B343D9E32A5
330
7DE1B343D9E334E
100
AcDbEntity
  8
TEXT
100
AcDbPolyline
 90
        5
 70
     0
 43
0.0001332181640625
 10
0.1611301259793825
 20
0.1633849377018651
 10
0.1478083095731337
 20
0.1633849377018651
 10
0.1478083095731337
 20
0.1267499425846789
 10
0.1111733144559439
 20
0.1267499425846789
 10
0.1111733144559439
 20
0.1134281261784283
  0
LWPOLYLINE
  5
7DE1B343D9E32AC
330
7DE1B343D9E334E
100
AcDbEntity
  8
TEXT
100
AcDbPolyline
 90
        2
 70
     0
 43
0.0006660908203125
 10
0.2077564834012575
 20
0.1933590246159279
 10
0.2344001162137586
 20
0.1933590246159279
  0
LWPOLYLINE
  5
7DE1B343D9E32B0
330
7DE1B343D9E334E
100
AcDbEntity
  8
TEXT
100
AcDbPolyline
 90
        2
 70
     0
 43
0.0006660908203125
 10
0.2077564834012575
 20
0.1533935753971799
 10
0.2344001162137586
 20
0.1533935753971799
  0
LINE
  5
7DE1B343D9E32B4
330
7DE1B343D9E334E
100
AcDbEntity
  8
TEXT
100
AcDbLine
 10
0.5045142530617835
 20
0.2423177694122866
 30
0.0
 11
0.6714199070907548
 21
0.2423177694122866
 31
0.0
  0
LINE
  5
7DE1B343D9E32B5
330
7DE1B343D9E334E
100
AcDbEntity
  8
TEXT
100
AcDbLine
 10
0.5701143893060845
 20
0.2065130478016587
 30
0.0
 11
0.5045142530617835
 21
0.2065130478016587
 31
0.0
  0
LINE
  5
7DE1B343D9E32B6
330
7DE1B343D9E334E
100
AcDbEntity
  8
TEXT
100
AcDbLine
 10
0.4171894635010318
 20
0.040121431080541
 30
0.0
 11
0.5701143893060845
 21
0.040121431080541
 31
0.0
  0
LINE
  5
7DE1B343D9E32B7
330
7DE1B343D9E334E
100
AcDbEntity
  8
TEXT
100
AcDbLine
 10
0.5750547632123642
 20
0.1084784374139803
 30
0.0
 11
0.4171894635010301
 21
0.1084784374139803
 31
0.0
  0
LINE
  5
7DE1B343D9E32B8
330
7DE1B343D9E334E
100
AcDbEntity
  8
TEXT
100
AcDbLine
 10
0.4992769229475354
 20
0.1424195451760449
 30
0.0
 11
0.5750547632123642
 21
0.1424195451760449
 31
0.0
  0
ARC
  5
7DE1B343D9E32B9
330
7DE1B343D9E334E
100
AcDbEntity
  8
TEXT
100
AcDbCircle
 10
0.5045142530617844
 20
0.2244154086069744
 30
0.0
 40
0.017902360805315
100
AcDbArc
 50
90.0
 51
270.0
  0
LINE
  5
7DE1B343D9E32BA
330
7DE1B343D9E334E
100
AcDbEntity
  8
TEXT
100
AcDbLine
 10
0.4171894635010301
 20
0.1084784374139803
 30
0.0
 11
0.4171894635010318
 21
0.040121431080541
 31
0.0
  0
LINE
  5
7DE1B343D9E32BB
330
7DE1B343D9E334E
100
AcDbEntity
  8
TEXT
100
AcDbLine
 10
0.6714199070907548
 20
0.2423177694122866
 30
0.0
 11
0.6714199070907548
 21
0.0999138224185908
 31
0.0
  0
ARC
  5
7DE1B343D9E32BC
330
7DE1B343D9E334E
100
AcDbEntity
  8
TEXT
100
AcDbCircle
 10
0.5701143893060854
 20
0.1233172394410981
 30
0.0
 40
0.0831958083605586
100
AcDbArc
 50
270.0
 51
90.0
  0
ARC
  5
7DE1B343D9E32BD
330
7DE1B343D9E334E
100
AcDbEntity
  8
TEXT
100
AcDbCircle
 10
0.5750547632123651
 20
0.1254489912950144
 30
0.0
 40
0.0169705538810321
100
AcDbArc
 50
270.0
 51
90.0
  0
LWPOLYLINE
  5
7DE1B343D9E32BE
330
7DE1B343D9E334E
100
AcDbEntity
  8
TEXT
100
AcDbPolyline
 90
        2
 70
     0
 43
0.0006660908203125
 10
0.0811992275418812
 20
0.2799508312565545
 10
0.0811992275418812
 20
0.3065944640690556
  0
LWPOLYLINE
  5
7DE1B343D9E32C2
330
7DE1B343D9E334E
100
AcDbEntity
  8
TEXT
100
AcDbPolyline
 90
        2
 70
     0
 43
0.0006660908203125
 10
0.1211646767606327
 20
0.2799508312565545
 10
0.1211646767606327
 20
0.3065944640690556
  0
LINE
  5
7DE1B343D9E32C6
330
7DE1B343D9E334E
100
AcDbEntity
  8
TEXT
100
AcDbLine
 10
0.6750086758460477
 20
0.306594464069052
 30
0.0
 11
0.4992769229475354
 21
0.306594464069052
 31
0.0
  0
LINE
  5
7DE1B343D9E32C7
330
7DE1B343D9E334E
100
AcDbEntity
  8
TEXT
100
AcDbLine
 10
0.6750086758460477
 20
0.3409823816631902
 30
0.0
 11
0.6750086758460477
 21
0.306594464069052
 31
0.0
  0
LINE
  5
7DE1B343D9E32C8
330
7DE1B343D9E334E
100
AcDbEntity
  8
TEXT
100
AcDbLine
 10
0.8654805678658998
 20
0.2057224679559314
 30
0.0
 11
0.806850246833962
 21
0.306594464069052
 31
0.0
  0
LINE
  5
7DE1B343D9E32C9
330
7DE1B343D9E334E
100
AcDbEntity
  8
TEXT
100
AcDbLine
 10
0.9242291306717653
 20
0.306594464069052
 30
0.0
 11
0.8654805678658998
 21
0.2057224679559314
 31
0.0
  0
LINE
  5
7DE1B343D9E32CA
330
7DE1B343D9E334E
100
AcDbEntity
  8
TEXT
100
AcDbLine
 10
1.021159756031506
 20
0.1225092691835402
 30
0.0
 11
1.021159756031506
 21
0.3746059418078626
 31
0.0
  0
LINE
  5
7DE1B343D9E32CB
330
7DE1B343D9E334E
100
AcDbEntity
  8
TEXT
100
AcDbLine
 10
1.053471610169166
 20
0.306594464069052
 30
0.0
 11
1.053471610169166
 21
0.1057302573366438
 31
0.0
  0
LINE
  5
7DE1B343D9E32CC
330
7DE1B343D9E334E
100
AcDbEntity
  8
TEXT
100
AcDbLine
 10
1.053471610169166
 20
0.1057302573366438
 30
0.0
 11
1.036477973284565
 21
0.1057302573366438
 31
0.0
  0
LINE
  5
7DE1B343D9E32CD
330
7DE1B343D9E334E
100
AcDbEntity
  8
TEXT
100
AcDbLine
 10
1.022299329527701
 20
0.040121431080541
 30
0.0
 11
1.120302663227136
 21
0.040121431080541
 31
0.0
  0
LINE
  5
7DE1B343D9E32CE
330
7DE1B343D9E334E
100
AcDbEntity
  8
TEXT
100
AcDbLine
 10
0.8558803308689455
 20
0.0600799371855539
 30
0.0
 11
0.9531800369623901
 21
0.2244301481208221
 31
0.0
  0
ARC
  5
7DE1B343D9E32CF
330
7DE1B343D9E334E
100
AcDbEntity
  8
TEXT
100
AcDbCircle
 10
0.8218367709567315
 20
0.0796691533542368
 30
0.0
 40
0.0392772371940762
100
AcDbArc
 50
270.1604552698595
 51
330.0831797321295
  0
LINE
  5
7DE1B343D9E32D0
330
7DE1B343D9E334E
100
AcDbEntity
  8
TEXT
100
AcDbLine
 10
0.7253065145708604
 20
0.040121431080541
 30
0.0
 11
0.8219467656458547
 21
0.0403920701788233
 31
0.0
  0
LWPOLYLINE
  5
7DE1B343D9E32D1
330
7DE1B343D9E334E
100
AcDbEntity
  8
TEXT
100
AcDbPolyline
 90
        6
 70
     1
 43
0.0
 10
0.76783031814601
 20
0.2423177694122866
 10
0.7375137239258019
 20
0.2423177694122866
 10
0.7375137239258019
 20
0.1192067713573922
 42
0.407328721240804
 10
0.7490573750872782
 20
0.1073878566810061
 10
0.809679074132009
 20
0.1073878566810061
 10
0.8271444145393269
 20
0.1402000857244853
  0
LINE
  5
7DE1B343D9E32D9
330
7DE1B343D9E334E
100
AcDbEntity
  8
TEXT
100
AcDbLine
 10
0.9531800369623901
 20
0.2244301481208221
 30
0.0
 11
0.9531800369623901
 21
0.0916727732954658
 31
0.0
  0
ARC
  5
7DE1B343D9E32DA
330
7DE1B343D9E334E
100
AcDbEntity
  8
TEXT
100
AcDbCircle
 10
1.036477973284563
 20
0.1211120635800692
 30
0.0
 40
0.0153818062434269
100
AcDbArc
 50
174.7883570302258
 51
270.0
  0
LWPOLYLINE
  5
7DE1B343D9E32DB
330
7DE1B343D9E334E
100
AcDbEntity
  8
TEXT
100
AcDbPolyline
 90
        2
 70
     0
 43
0.0
 10
0.9531800369623883
 20
0.0916727732954693
 42
0.3318488747599744
 10
1.022299329527701
 20
0.040121431080541
 42
-6.868794160588311
  0
LINE
  5
7DE1B343D9E32DF
330
7DE1B343D9E334E
100
AcDbEntity
  8
TEXT
100
AcDbLine
 10
1.177691732216397
 20
0.040121431080541
 30
0.0
 11
1.244749778998237
 21
0.040121431080541
 31
0.0
  0
LINE
  5
7DE1B343D9E32E0
330
7DE1B343D9E334E
100
AcDbEntity
  8
TEXT
100
AcDbLine
 10
1.177691732216397
 20
0.2347639802461766
 30
0.0
 11
1.177691732216397
 21
0.040121431080541
 31
0.0
  0
LINE
  5
7DE1B343D9E32E1
330
7DE1B343D9E334E
100
AcDbEntity
  8
TEXT
100
AcDbLine
 10
1.120302663227136
 20
0.2423177694122866
 30
0.0
 11
1.170137943050283
 21
0.2423177694122866
 31
0.0
  0
LINE
  5
7DE1B343D9E32E2
330
7DE1B343D9E334E
100
AcDbEntity
  8
TEXT
100
AcDbLine
 10
1.120302663227136
 20
0.040121431080541
 30
0.0
 11
1.120302663227136
 21
0.2423177694122866
 31
0.0
  0
LWPOLYLINE
  5
7DE1B343D9E32E3
330
7DE1B343D9E334E
100
AcDbEntity
  8
TEXT
100
AcDbPolyline
 90
        2
 70
     0
 43
0.0
 10
1.170137943050281
 20
0.2423177694122866
 42
-0.4142135623731017
 10
1.177691732216395
 20
0.2347639802461766
 42
-0.9999999999999998
  0
LINE
  5
7DE1B343D9E32E7
330
7DE1B343D9E334E
100
AcDbEntity
  8
TEXT
100
AcDbLine
 10
1.375947943827966
 20
0.2423177694122866
 30
0.0
 11
1.375947943827966
 21
0.1672653633380799
 31
0.0
  0
LINE
  5
7DE1B343D9E32E8
330
7DE1B343D9E334E
100
AcDbEntity
  8
TEXT
100
AcDbLine
 10
1.244749778998237
 20
0.2423177694122866
 30
0.0
 11
1.298883375919187
 21
0.2423177694122866
 31
0.0
  0
LINE
  5
7DE1B343D9E32E9
330
7DE1B343D9E334E
100
AcDbEntity
  8
TEXT
100
AcDbLine
 10
1.244749778998237
 20
0.040121431080541
 30
0.0
 11
1.244749778998237
 21
0.2423177694122866
 31
0.0
  0
LWPOLYLINE
  5
7DE1B343D9E32EA
330
7DE1B343D9E334E
100
AcDbEntity
  8
TEXT
100
AcDbPolyline
 90
        2
 70
     0
 43
0.0
 10
1.298883375919185
 20
0.2423177694122866
 42
-0.4142135623731017
 10
1.306437165085299
 20
0.2347639802461766
 42
-0.9999999999999998
  0
LWPOLYLINE
  5
7DE1B343D9E32EE
330
7DE1B343D9E334E
100
AcDbEntity
  8
TEXT
100
AcDbPolyline
 90
        4
 70
     0
 43
0.0
 10
1.306437165085299
 20
0.2347639802461766
 10
1.306437165085299
 20
0.040121431080541
 10
1.374915448373156
 20
0.040121431080541
 10
1.374915448373156
 20
0.0836123760309792
 42
-1.714843617202739
  0
LINE
  5
7DE1B343D9E32F4
330
7DE1B343D9E334E
100
AcDbEntity
  8
TEXT
100
AcDbLine
 10
0.7350512806900547
 20
0.306594464069052
 30
0.0
 11
0.7350512806900547
 21
0.3409823816631902
 31
0.0
  0
LINE
  5
7DE1B343D9E32F5
330
7DE1B343D9E334E
100
AcDbEntity
  8
TEXT
100
AcDbLine
 10
0.806850246833962
 20
0.306594464069052
 30
0.0
 11
0.7350512806900547
 21
0.306594464069052
 31
0.0
  0
LINE
  5
7DE1B343D9E32F6
330
7DE1B343D9E334E
100
AcDbEntity
  8
TEXT
100
AcDbLine
 10
0.9543510434651416
 20
0.306594464069052
 30
0.0
 11
0.9242291306717653
 21
0.306594464069052
 31
0.0
  0
LINE
  5
7DE1B343D9E32F7
330
7DE1B343D9E334E
100
AcDbEntity
  8
TEXT
100
AcDbLine
 10
0.9543510434651416
 20
0.3746059418078626
 30
0.0
 11
0.9543510434651416
 21
0.306594464069052
 31
0.0
  0
LINE
  5
7DE1B343D9E32F8
330
7DE1B343D9E334E
100
AcDbEntity
  8
TEXT
100
AcDbLine
 10
1.021159756031506
 20
0.3746059418078626
 30
0.0
 11
0.9543510434651416
 21
0.3746059418078626
 31
0.0
  0
LWPOLYLINE
  5
7DE1B343D9E32F9
330
7DE1B343D9E334E
100
AcDbEntity
  8
TEXT
100
AcDbPolyline
 90
        3
 70
     0
 43
0.0
 10
1.341571515629508
 20
0.3065944640690556
 10
1.223271356813464
 20
0.3065944640690556
 10
1.223271356813464
 20
0.2794269673081597
 42
-1.960274751411753
  0
LINE
  5
7DE1B343D9E32FE
330
7DE1B343D9E334E
100
AcDbEntity
  8
TEXT
100
AcDbLine
 10
1.187489666100303
 20
0.306594464069052
 30
0.0
 11
1.053471610169166
 21
0.306594464069052
 31
0.0
  0
LWPOLYLINE
  5
7DE1B343D9E32FF
330
7DE1B343D9E334E
100
AcDbEntity
  8
TEXT
100
AcDbPolyline
 90
        2
 70
     0
 43
0.0
 10
1.187489666100303
 20
0.3065944640690556
 42
-0.3328679258950098
 10
1.223271356813464
 20
0.2794269673081597
 42
6.772930709997214
  0
LINE
  5
7DE1B343D9E3303
330
7DE1B343D9E334E
100
AcDbEntity
  8
TEXT
100
AcDbLine
 10
1.377353206342675
 20
0.306594464069052
 30
0.0
 11
1.377353206342675
 21
0.2782719182994081
 31
0.0
  0
LWPOLYLINE
  5
7DE1B343D9E3304
330
7DE1B343D9E334E
100
AcDbEntity
  8
TEXT
100
AcDbPolyline
 90
        2
 70
     0
 43
0.0
 10
1.341571515629508
 20
0.3065944640690556
 42
-0.3277054968067132
 10
1.377353206342673
 20
0.2782719182994117
 42
6.667889725900311
  0
LINE
  5
7DE1B343D9E3308
330
7DE1B343D9E334E
100
AcDbEntity
  8
TEXT
100
AcDbLine
 10
1.591145054434775
 20
0.2013824855156247
 30
0.0
 11
1.547394283252874
 21
0.2836327615117699
 31
0.0
  0
LINE
  5
7DE1B343D9E3309
330
7DE1B343D9E334E
100
AcDbEntity
  8
TEXT
100
AcDbLine
 10
1.591145054434775
 20
0.306594464069052
 30
0.0
 11
1.591145054434775
 21
0.2013824855156247
 31
0.0
  0
LINE
  5
7DE1B343D9E330A
330
7DE1B343D9E334E
100
AcDbEntity
  8
TEXT
100
AcDbLine
 10
1.818828793373144
 20
0.2307291376575139
 30
0.0
 11
1.818828793373144
 21
0.3720586698366527
 31
0.0
  0
LINE
  5
7DE1B343D9E330B
330
7DE1B343D9E334E
100
AcDbEntity
  8
TEXT
100
AcDbLine
 10
1.865926951929129
 20
0.306594464069052
 30
0.0
 11
1.818828793373144
 21
0.2307291376575139
 31
0.0
  0
LINE
  5
7DE1B343D9E330C
330
7DE1B343D9E334E
100
AcDbEntity
  8
TEXT
100
AcDbLine
 10
1.876361668693052
 20
0.1967012211280784
 30
0.0
 11
1.940918784658757
 21
0.306594464069052
 31
0.0
  0
LINE
  5
7DE1B343D9E330D
330
7DE1B343D9E334E
100
AcDbEntity
  8
TEXT
100
AcDbLine
 10
1.754993802150371
 20
0.040121431080541
 30
0.0
 11
1.819371986468992
 21
0.040121431080541
 31
0.0
  0
LWPOLYLINE
  5
7DE1B343D9E330E
330
7DE1B343D9E334E
100
AcDbEntity
  8
TEXT
100
AcDbPolyline
 90
        2
 70
     0
 43
0.0
 10
1.595084731739813
 20
0.0836123760309792
 42
-0.2901071551932486
 10
1.552008798872169
 20
0.040121431080541
 42
-5.328517124445184
  0
ARC
  5
7DE1B343D9E3312
330
7DE1B343D9E334E
100
AcDbEntity
  8
TEXT
100
AcDbCircle
 10
1.483154217215254
 20
0.2139583944122893
 30
0.0
 40
0.028359375
100
AcDbArc
 50
25.78218179591245
 51
90.0
  0
LINE
  5
7DE1B343D9E3313
330
7DE1B343D9E334E
100
AcDbEntity
  8
TEXT
100
AcDbLine
 10
1.518955292519377
 20
0.2050427959501543
 30
0.0
 11
1.508690532105813
 21
0.2262933355228486
 31
0.0
  0
LINE
  5
7DE1B343D9E3314
330
7DE1B343D9E334E
100
AcDbEntity
  8
TEXT
100
AcDbLine
 10
1.436667302735994
 20
0.2050427959501543
 30
0.0
 11
1.518955292519377
 21
0.2050427959501543
 31
0.0
  0
LWPOLYLINE
  5
7DE1B343D9E3315
330
7DE1B343D9E334E
100
AcDbEntity
  8
TEXT
100
AcDbPolyline
 90
        4
 70
     1
 43
0.0
 10
1.531886333802276
 20
0.1430854090645662
 10
1.443226015142418
 20
0.1430854090645662
 42
0.9999999999999998
 10
1.443226015142418
 20
0.1006868685607055
 10
1.531886333802276
 20
0.1006868685607055
 42
1.0
  0
LWPOLYLINE
  5
7DE1B343D9E331B
330
7DE1B343D9E334E
100
AcDbEntity
  8
TEXT
100
AcDbPolyline
 90
        2
 70
     0
 43
0.0
 10
1.417991381240792
 20
0.040121431080541
 10
1.552008798872169
 20
0.040121431080541
 42
0.9999999999999998
  0
LINE
  5
7DE1B343D9E331F
330
7DE1B343D9E334E
100
AcDbEntity
  8
TEXT
100
AcDbLine
 10
1.678345820857808
 20
0.2423177694122866
 30
0.0
 11
1.754993802150366
 21
0.2423177694122866
 31
0.0
  0
LINE
  5
7DE1B343D9E3320
330
7DE1B343D9E334E
100
AcDbEntity
  8
TEXT
100
AcDbLine
 10
1.754993802150366
 20
0.2423177694122866
 30
0.0
 11
1.754993802150371
 21
0.040121431080541
 31
0.0
  0
ARC
  5
7DE1B343D9E3321
330
7DE1B343D9E334E
100
AcDbEntity
  8
TEXT
100
AcDbCircle
 10
1.678345820857806
 20
0.2174118941296238
 30
0.0
 40
0.0249058752826653
100
AcDbArc
 50
89.99971217465335
 51
179.9999999999985
  0
LINE
  5
7DE1B343D9E3322
330
7DE1B343D9E334E
100
AcDbEntity
  8
TEXT
100
AcDbLine
 10
1.653439945575149
 20
0.040121431080541
 30
0.0
 11
1.653439945575144
 21
0.2174119365120094
 31
0.0
  0
LWPOLYLINE
  5
7DE1B343D9E3323
330
7DE1B343D9E334E
100
AcDbEntity
  8
TEXT
100
AcDbPolyline
 90
        2
 70
     0
 43
0.0
 10
1.595084731739813
 20
0.040121431080541
 10
1.653439945575147
 20
0.040121431080541
  0
LWPOLYLINE
  5
7DE1B343D9E3327
330
7DE1B343D9E334E
100
AcDbEntity
  8
TEXT
100
AcDbPolyline
 90
        2
 70
     0
 43
0.0
 10
1.595084731739813
 20
0.0836123760309792
 10
1.595084731739813
 20
0.040121431080541
  0
LINE
  5
7DE1B343D9E332B
330
7DE1B343D9E334E
100
AcDbEntity
  8
TEXT
100
AcDbLine
 10
1.971853892056662
 20
0.040121431080541
 30
0.0
 11
1.876361668693052
 21
0.1967012211280784
 31
0.0
  0
LINE
  5
7DE1B343D9E332C
330
7DE1B343D9E334E
100
AcDbEntity
  8
TEXT
100
AcDbLine
 10
1.895275519680456
 20
0.040121431080541
 30
0.0
 11
1.971853892056662
 21
0.040121431080541
 31
0.0
  0
LINE
  5
7DE1B343D9E332D
330
7DE1B343D9E334E
100
AcDbEntity
  8
TEXT
100
AcDbLine
 10
1.819371986468992
 20
0.1717009995567212
 30
0.0
 11
1.895275519680456
 21
0.040121431080541
 31
0.0
  0
LINE
  5
7DE1B343D9E332E
330
7DE1B343D9E334E
100
AcDbEntity
  8
TEXT
100
AcDbLine
 10
1.819371986468992
 20
0.040121431080541
 30
0.0
 11
1.819371986468992
 21
0.1717009995567212
 31
0.0
  0
LINE
  5
7DE1B343D9E332F
330
7DE1B343D9E334E
100
AcDbEntity
  8
TEXT
100
AcDbLine
 10
1.818828793373144
 20
0.3720586698366527
 30
0.0
 11
1.750513914823871
 21
0.3720586698366527
 31
0.0
  0
ARC
  5
7DE1B343D9E3330
330
7DE1B343D9E334E
100
AcDbEntity
  8
TEXT
100
AcDbCircle
 10
1.510158175782665
 20
0.2650108969481496
 30
0.0
 40
0.0416329381542859
100
AcDbArc
 50
26.56974201007528
 51
87.20939649401342
  0
LINE
  5
7DE1B343D9E3331
330
7DE1B343D9E334E
100
AcDbEntity
  8
TEXT
100
AcDbLine
 10
1.655041960734276
 20
0.306594464069052
 30
0.0
 11
1.591145054434775
 21
0.306594464069052
 31
0.0
  0
LINE
  5
7DE1B343D9E3332
330
7DE1B343D9E334E
100
AcDbEntity
  8
TEXT
100
AcDbLine
 10
1.655041960734276
 20
0.2790468142081774
 30
0.0
 11
1.655041960734276
 21
0.306594464069052
 31
0.0
  0
ARC
  5
7DE1B343D9E3333
330
7DE1B343D9E334E
100
AcDbEntity
  8
TEXT
100
AcDbCircle
 10
1.686234777797384
 20
0.2753487367867872
 30
0.0
 40
0.0314112657011332
100
AcDbArc
 50
95.88484768694724
 51
173.2388340632136
  0
LINE
  5
7DE1B343D9E3334
330
7DE1B343D9E334E
100
AcDbEntity
  8
TEXT
100
AcDbLine
 10
1.750513914823866
 20
0.306594464069052
 30
0.0
 11
1.683014197174349
 21
0.306594464069052
 31
0.0
  0
LINE
  5
7DE1B343D9E3335
330
7DE1B343D9E334E
100
AcDbEntity
  8
TEXT
100
AcDbLine
 10
1.750513914823871
 20
0.3720586698366527
 30
0.0
 11
1.750513914823866
 21
0.306594464069052
 31
0.0
  0
LINE
  5
7DE1B343D9E3336
330
7DE1B343D9E334E
100
AcDbEntity
  8
TEXT
100
AcDbLine
 10
1.940918784658757
 20
0.306594464069052
 30
0.0
 11
1.865926951929131
 21
0.306594464069052
 31
0.0
  0
ENDSEC
  0
SECTION
  2
OBJECTS
  0
DICTIONARY
  5
7DE1B343D9E3342
330
0
100
AcDbDictionary
  3
ACAD_GROUP
350
7DE1B343D9E3343
  3
ACAD_LAYOUT
350
7DE1B343D9E3368
  3
ACAD_MLINESTYLE
350
7DE1B343D9E3344
  3
ACAD_PLOTSETTINGS
350
7DE1B343D9E3369
  3
ACAD_PLOTSTYLENAME
350
7DE1B343D9E3366
  3
ACDBHEADERROUNDTRIPXREC
350
7DE1B343D9E3373
  3
ACDBVARIABLEDICTIONARY
350
7DE1B343D9E3370
  0
DICTIONARY
  5
7DE1B343D9E3395
330
7DE1B343D9E334E
100
AcDbDictionary
280
     1
  3
ACAD_LAYOUTSELFREF
360
7DE1B343D9E3396
  0
DICTIONARY
  5
7DE1B343D9E3393
330
7DE1B343D9E334B
100
AcDbDictionary
280
     1
  3
ACAD_LAYOUTSELFREF
360
7DE1B343D9E3394
  0
DICTIONARY
  5
7DE1B343D9E3343
102
{ACAD_REACTORS
330
7DE1B343D9E3342
102
}
330
7DE1B343D9E3342
100
AcDbDictionary
  0
DICTIONARY
  5
7DE1B343D9E3368
102
{ACAD_REACTORS
330
7DE1B343D9E3342
102
}
330
7DE1B343D9E3342
100
AcDbDictionary
  0
DICTIONARY
  5
7DE1B343D9E3344
102
{ACAD_REACTORS
330
7DE1B343D9E3342
102
}
330
7DE1B343D9E3342
100
AcDbDictionary
  3
STANDARD
350
7DE1B343D9E3351
  0
DICTIONARY
  5
7DE1B343D9E3369
102
{ACAD_REACTORS
330
7DE1B343D9E3342
102
}
330
7DE1B343D9E3342
100
AcDbDictionary
  0
ACDBDICTIONARYWDFLT
  5
7DE1B343D9E3366
102
{ACAD_REACTORS
330
7DE1B343D9E3342
102
}
330
7DE1B343D9E3342
100
AcDbDictionary
281
     1
  3
Normal
350
7DE1B343D9E3367
100
AcDbDictionaryWithDefault
340
7DE1B343D9E3367
  0
DICTIONARY
  5
7DE1B343D9E3373
102
{ACAD_REACTORS
330
7DE1B343D9E3342
102
}
330
7DE1B343D9E3342
100
AcDbDictionary
  3
CEPSNTYPE
350
7DE1B343D9E337D
  3
FINGERPRINTGUID
350
7DE1B343D9E337E
  3
HYPERLINKBASE
350
7DE1B343D9E3376
  3
INSUNITS
350
7DE1B343D9E337C
  3
LAYOUTDICT
350
7DE1B343D9E3378
  3
LWETCUNION
350
7DE1B343D9E337B
  3
PLOTSETDICT
350
7DE1B343D9E3379
  3
PLOTSTYLNAMDICT
350
7DE1B343D9E337A
  3
PSVPSCALE
350
7DE1B343D9E3380
  3
PUCSBASE
350
7DE1B343D9E3383
  3
PUCSORGBACK
350
7DE1B343D9E3389
  3
PUCSORGBOTTOM
350
7DE1B343D9E3385
  3
PUCSORGFRONT
350
7DE1B343D9E3388
  3
PUCSORGLEFT
350
7DE1B343D9E3386
  3
PUCSORGRIGHT
350
7DE1B343D9E3387
  3
PUCSORGTOP
350
7DE1B343D9E3384
  3
PUCSORTHOREF
350
7DE1B343D9E3381
  3
PUCSORTHOVIEW
350
7DE1B343D9E3382
  3
STYLESHEET
350
7DE1B343D9E3377
  3
TSTACKALIGN
350
7DE1B343D9E3374
  3
TSTACKSIZE
350
7DE1B343D9E3375
  3
UCSBASE
350
7DE1B343D9E338C
  3
UCSORGBACK
350
7DE1B343D9E3392
  3
UCSORGBOTTOM
350
7DE1B343D9E338E
  3
UCSORGFRONT
350
7DE1B343D9E3391
  3
UCSORGLEFT
350
7DE1B343D9E338F
  3
UCSORGRIGHT
350
7DE1B343D9E3390
  3
UCSORGTOP
350
7DE1B343D9E338D
  3
UCSORTHOREF
350
7DE1B343D9E338A
  3
UCSORTHOVIEW
350
7DE1B343D9E338B
  3
VERSIONGUID
350
7DE1B343D9E337F
  0
DICTIONARY
  5
7DE1B343D9E3370
102
{ACAD_REACTORS
330
7DE1B343D9E3342
102
}
330
7DE1B343D9E3342
100
AcDbDictionary
  3
DIMASSOC
350
7DE1B343D9E3371
  0
XRECORD
  5
7DE1B343D9E3396
102
{ACAD_REACTORS
330
7DE1B343D9E3395
102
}
330
7DE1B343D9E3395
100
AcDbXrecord
340
7DE1B343D9E334E
  0
XRECORD
  5
7DE1B343D9E3394
102
{ACAD_REACTORS
330
7DE1B343D9E3393
102
}
330
7DE1B343D9E3393
100
AcDbXrecord
340
7DE1B343D9E334B
  0
MLINESTYLE
  5
7DE1B343D9E3351
102
{ACAD_REACTORS
330
7DE1B343D9E3344
102
}
330
7DE1B343D9E3344
100
AcDbMlineStyle
  2
STANDARD
 70
     0
  3

 62
     0
 51
90.0
 52
90.0
 71
     2
 49
0.5
 62
   256
  6
BYLAYER
 49
-0.5
 62
   256
  6
BYLAYER
  0
ACDBPLACEHOLDER
  5
7DE1B343D9E3367
102
{ACAD_REACTORS
330
7DE1B343D9E3366
102
}
330
7DE1B343D9E3366
100
AcDbPlaceHolder
280
     0
  0
XRECORD
  5
7DE1B343D9E337D
102
{ACAD_REACTORS
330
7DE1B343D9E3373
102
}
330
7DE1B343D9E3373
100
AcDbXrecord
 90
        0
  0
XRECORD
  5
7DE1B343D9E337E
102
{ACAD_REACTORS
330
7DE1B343D9E3373
102
}
330
7DE1B343D9E3373
100
AcDbXrecord
  1
{422A1DD0-8DB6-11D6-88E6-0090279574E7}
  0
XRECORD
  5
7DE1B343D9E3376
102
{ACAD_REACTORS
330
7DE1B343D9E3373
102
}
330
7DE1B343D9E3373
100
AcDbXrecord
  1

  0
XRECORD
  5
7DE1B343D9E337C
102
{ACAD_REACTORS
330
7DE1B343D9E3373
102
}
330
7DE1B343D9E3373
100
AcDbXrecord
 90
        0
  0
XRECORD
  5
7DE1B343D9E3378
102
{ACAD_REACTORS
330
7DE1B343D9E3373
102
}
330
7DE1B343D9E3373
100
AcDbXrecord
340
7DE1B343D9E3368
  0
XRECORD
  5
7DE1B343D9E337B
102
{ACAD_REACTORS
330
7DE1B343D9E3373
102
}
330
7DE1B343D9E3373
100
AcDbXrecord
 90
    14877
  0
XRECORD
  5
7DE1B343D9E3379
102
{ACAD_REACTORS
330
7DE1B343D9E3373
102
}
330
7DE1B343D9E3373
100
AcDbXrecord
340
7DE1B343D9E3369
  0
XRECORD
  5
7DE1B343D9E337A
102
{ACAD_REACTORS
330
7DE1B343D9E3373
102
}
330
7DE1B343D9E3373
100
AcDbXrecord
340
7DE1B343D9E3366
  0
XRECORD
  5
7DE1B343D9E3380
102
{ACAD_REACTORS
330
7DE1B343D9E3373
102
}
330
7DE1B343D9E3373
100
AcDbXrecord
 40
0.0
  0
XRECORD
  5
7DE1B343D9E3383
102
{ACAD_REACTORS
330
7DE1B343D9E3373
102
}
330
7DE1B343D9E3373
100
AcDbXrecord
340
0
  0
XRECORD
  5
7DE1B343D9E3389
102
{ACAD_REACTORS
330
7DE1B343D9E3373
102
}
330
7DE1B343D9E3373
100
AcDbXrecord
 10
0.0
 20
0.0
 30
0.0
  0
XRECORD
  5
7DE1B343D9E3385
102
{ACAD_REACTORS
330
7DE1B343D9E3373
102
}
330
7DE1B343D9E3373
100
AcDbXrecord
 10
0.0
 20
0.0
 30
0.0
  0
XRECORD
  5
7DE1B343D9E3388
102
{ACAD_REACTORS
330
7DE1B343D9E3373
102
}
330
7DE1B343D9E3373
100
AcDbXrecord
 10
0.0
 20
0.0
 30
0.0
  0
XRECORD
  5
7DE1B343D9E3386
102
{ACAD_REACTORS
330
7DE1B343D9E3373
102
}
330
7DE1B343D9E3373
100
AcDbXrecord
 10
0.0
 20
0.0
 30
0.0
  0
XRECORD
  5
7DE1B343D9E3387
102
{ACAD_REACTORS
330
7DE1B343D9E3373
102
}
330
7DE1B343D9E3373
100
AcDbXrecord
 10
0.0
 20
0.0
 30
0.0
  0
XRECORD
  5
7DE1B343D9E3384
102
{ACAD_REACTORS
330
7DE1B343D9E3373
102
}
330
7DE1B343D9E3373
100
AcDbXrecord
 10
0.0
 20
0.0
 30
0.0
  0
XRECORD
  5
7DE1B343D9E3381
102
{ACAD_REACTORS
330
7DE1B343D9E3373
102
}
330
7DE1B343D9E3373
100
AcDbXrecord
340
0
  0
XRECORD
  5
7DE1B343D9E3382
102
{ACAD_REACTORS
330
7DE1B343D9E3373
102
}
330
7DE1B343D9E3373
100
AcDbXrecord
 70
     0
  0
XRECORD
  5
7DE1B343D9E3377
102
{ACAD_REACTORS
330
7DE1B343D9E3373
102
}
330
7DE1B343D9E3373
100
AcDbXrecord
  1

  0
XRECORD
  5
7DE1B343D9E3374
102
{ACAD_REACTORS
330
7DE1B343D9E3373
102
}
330
7DE1B343D9E3373
100
AcDbXrecord
 90
        1
  0
XRECORD
  5
7DE1B343D9E3375
102
{ACAD_REACTORS
330
7DE1B343D9E3373
102
}
330
7DE1B343D9E3373
100
AcDbXrecord
 90
       70
  0
XRECORD
  5
7DE1B343D9E338C
102
{ACAD_REACTORS
330
7DE1B343D9E3373
102
}
330
7DE1B343D9E3373
100
AcDbXrecord
340
0
  0
XRECORD
  5
7DE1B343D9E3392
102
{ACAD_REACTORS
330
7DE1B343D9E3373
102
}
330
7DE1B343D9E3373
100
AcDbXrecord
 10
0.0
 20
0.0
 30
0.0
  0
XRECORD
  5
7DE1B343D9E338E
102
{ACAD_REACTORS
330
7DE1B343D9E3373
102
}
330
7DE1B343D9E3373
100
AcDbXrecord
 10
0.0
 20
0.0
 30
0.0
  0
XRECORD
  5
7DE1B343D9E3391
102
{ACAD_REACTORS
330
7DE1B343D9E3373
102
}
330
7DE1B343D9E3373
100
AcDbXrecord
 10
0.0
 20
0.0
 30
0.0
  0
XRECORD
  5
7DE1B343D9E338F
102
{ACAD_REACTORS
330
7DE1B343D9E3373
102
}
330
7DE1B343D9E3373
100
AcDbXrecord
 10
0.0
 20
0.0
 30
0.0
  0
XRECORD
  5
7DE1B343D9E3390
102
{ACAD_REACTORS
330
7DE1B343D9E3373
102
}
330
7DE1B343D9E3373
100
AcDbXrecord
 10
0.0
 20
0.0
 30
0.0
  0
XRECORD
  5
7DE1B343D9E338D
102
{ACAD_REACTORS
330
7DE1B343D9E3373
102
}
330
7DE1B343D9E3373
100
AcDbXrecord
 10
0.0
 20
0.0
 30
0.0
  0
XRECORD
  5
7DE1B343D9E338A
102
{ACAD_REACTORS
330
7DE1B343D9E3373
102
}
330
7DE1B343D9E3373
100
AcDbXrecord
340
0
  0
XRECORD
  5
7DE1B343D9E338B
102
{ACAD_REACTORS
330
7DE1B343D9E3373
102
}
330
7DE1B343D9E3373
100
AcDbXrecord
 70
     0
  0
XRECORD
  5
7DE1B343D9E337F
102
{ACAD_REACTORS
330
7DE1B343D9E3373
102
}
330
7DE1B343D9E3373
100
AcDbXrecord
  1
{422A1DD2-8DB6-11D6-88E6-0090279574E7}
  0
DICTIONARYVAR
  5
7DE1B343D9E3371
102
{ACAD_REACTORS
330
7DE1B343D9E3370
102
}
330
7DE1B343D9E3370
100
DictionaryVariables
280
     0
  1
1
  0
ENDSEC
  0
EOF
