  0
SECTION
  2
HEADER
  9
$ACADVER
  1
AC1014
  9
$ACADMAINTVER
 70
     9
  9
$DWGCODEPAGE
  3
ANSI_1252
  9
$INSBASE
 10
0.0
 20
0.0
 30
0.0
  9
$EXTMIN
 10
2.062499996925747
 20
2.270154039937601
 30
0.0
  9
$EXTMAX
 10
5.547719318672882
 20
5.17601713562373
 30
0.0
  9
$LIMMIN
 10
0.0
 20
0.0
  9
$LIMMAX
 10
8.5
 20
11.0
  9
$ORTHOMODE
 70
     1
  9
$REGENMODE
 70
     1
  9
$FILLMODE
 70
     1
  9
$QTEXTMODE
 70
     0
  9
$MIRRTEXT
 70
     0
  9
$DRAGMODE
 70
     2
  9
$LTSCALE
 40
1.0
  9
$OSMODE
 70
    39
  9
$ATTMODE
 70
     1
  9
$TEXTSIZE
 40
0.125
  9
$TRACEWID
 40
0.05
  9
$TEXTSTYLE
  7
ROMANS
  9
$CLAYER
  8
DIM
  9
$CELTYPE
  6
BYLAYER
  9
$CECOLOR
 62
   256
  9
$CELTSCALE
 40
1.0
  9
$DELOBJ
 70
     1
  9
$DISPSILH
 70
     1
  9
$DIMSCALE
 40
2.0
  9
$DIMASZ
 40
0.125
  9
$DIMEXO
 40
0.125
  9
$DIMDLI
 40
0.375
  9
$DIMRND
 40
0.0
  9
$DIMDLE
 40
0.0
  9
$DIMEXE
 40
0.125
  9
$DIMTP
 40
0.0
  9
$DIMTM
 40
0.04
  9
$DIMTXT
 40
0.125
  9
$DIMCEN
 40
-0.125
  9
$DIMTSZ
 40
0.0
  9
$DIMTOL
 70
     0
  9
$DIMLIM
 70
     0
  9
$DIMTIH
 70
     1
  9
$DIMTOH
 70
     1
  9
$DIMSE1
 70
     0
  9
$DIMSE2
 70
     0
  9
$DIMTAD
 70
     0
  9
$DIMZIN
 70
     4
  9
$DIMBLK
  1

  9
$DIMASO
 70
     1
  9
$DIMSHO
 70
     1
  9
$DIMPOST
  1

  9
$DIMAPOST
  1

  9
$DIMALT
 70
     0
  9
$DIMALTD
 70
     2
  9
$DIMALTF
 40
25.4
  9
$DIMLFAC
 40
1.0
  9
$DIMTOFL
 70
     0
  9
$DIMTVP
 40
0.0
  9
$DIMTIX
 70
     1
  9
$DIMSOXD
 70
     0
  9
$DIMSAH
 70
     0
  9
$DIMBLK1
  1

  9
$DIMBLK2
  1

  9
$DIMSTYLE
  2
STANDARD
  9
$DIMCLRD
 70
     0
  9
$DIMCLRE
 70
     0
  9
$DIMCLRT
 70
     0
  9
$DIMTFAC
 40
1.0
  9
$DIMGAP
 40
0.09
  9
$DIMJUST
 70
     0
  9
$DIMSD1
 70
     0
  9
$DIMSD2
 70
     0
  9
$DIMTOLJ
 70
     1
  9
$DIMTZIN
 70
     0
  9
$DIMALTZ
 70
     0
  9
$DIMALTTZ
 70
     0
  9
$DIMFIT
 70
     3
  9
$DIMUPT
 70
     0
  9
$DIMUNIT
 70
     2
  9
$DIMDEC
 70
     3
  9
$DIMTDEC
 70
     4
  9
$DIMALTU
 70
     2
  9
$DIMALTTD
 70
     2
  9
$DIMTXSTY
  7
ROMANS
  9
$DIMAUNIT
 70
     0
  9
$LUNITS
 70
     2
  9
$LUPREC
 70
     3
  9
$SKETCHINC
 40
0.1
  9
$FILLETRAD
 40
0.0
  9
$AUNITS
 70
     0
  9
$AUPREC
 70
     0
  9
$MENU
  1
AUTOMSTR
  9
$ELEVATION
 40
0.0
  9
$PELEVATION
 40
0.0
  9
$THICKNESS
 40
0.0
  9
$LIMCHECK
 70
     0
  9
$BLIPMODE
 70
     0
  9
$CHAMFERA
 40
0.0
  9
$CHAMFERB
 40
0.0
  9
$CHAMFERC
 40
0.0
  9
$CHAMFERD
 40
0.0
  9
$SKPOLY
 70
     0
  9
$TDCREATE
 40
2448351.374791434
  9
$TDUPDATE
 40
2452458.306644953
  9
$TDINDWG
 40
0.0392975000
  9
$TDUSRTIMER
 40
0.0392975000
  9
$USRTIMER
 70
     1
  9
$ANGBASE
 50
0.0
  9
$ANGDIR
 70
     0
  9
$PDMODE
 70
     0
  9
$PDSIZE
 40
0.0
  9
$PLINEWID
 40
0.0
  9
$COORDS
 70
     2
  9
$SPLFRAME
 70
     0
  9
$SPLINETYPE
 70
     6
  9
$SPLINESEGS
 70
     8
  9
$ATTDIA
 70
     0
  9
$ATTREQ
 70
     1
  9
$HANDLING
 70
 22529
  9
$HANDSEED
  5
373
  9
$SURFTAB1
 70
     6
  9
$SURFTAB2
 70
     6
  9
$SURFTYPE
 70
     6
  9
$SURFU
 70
     6
  9
$SURFV
 70
     6
  9
$UCSNAME
  2

  9
$UCSORG
 10
0.0
 20
0.0
 30
0.0
  9
$UCSXDIR
 10
1.0
 20
0.0
 30
0.0
  9
$UCSYDIR
 10
0.0
 20
1.0
 30
0.0
  9
$PUCSNAME
  2

  9
$PUCSORG
 10
0.0
 20
0.0
 30
0.0
  9
$PUCSXDIR
 10
1.0
 20
0.0
 30
0.0
  9
$PUCSYDIR
 10
0.0
 20
1.0
 30
0.0
  9
$USERI1
 70
     0
  9
$USERI2
 70
     0
  9
$USERI3
 70
     0
  9
$USERI4
 70
     0
  9
$USERI5
 70
     0
  9
$USERR1
 40
0.0
  9
$USERR2
 40
0.0
  9
$USERR3
 40
0.0
  9
$USERR4
 40
0.0
  9
$USERR5
 40
0.0
  9
$WORLDVIEW
 70
     1
  9
$SHADEDGE
 70
     3
  9
$SHADEDIF
 70
    70
  9
$TILEMODE
 70
     1
  9
$MAXACTVP
 70
    16
  9
$PINSBASE
 10
0.0
 20
0.0
 30
0.0
  9
$PLIMCHECK
 70
     0
  9
$PEXTMIN
 10
1.000000000000000E+20
 20
1.000000000000000E+20
 30
1.000000000000000E+20
  9
$PEXTMAX
 10
-1.000000000000000E+20
 20
-1.000000000000000E+20
 30
-1.000000000000000E+20
  9
$PLIMMIN
 10
0.0
 20
0.0
  9
$PLIMMAX
 10
12.0
 20
9.0
  9
$UNITMODE
 70
     0
  9
$VISRETAIN
 70
     0
  9
$PLINEGEN
 70
     1
  9
$PSLTSCALE
 70
     0
  9
$TREEDEPTH
 70
  3020
  9
$PICKSTYLE
 70
     1
  9
$CMLSTYLE
  2
STANDARD
  9
$CMLJUST
 70
     0
  9
$CMLSCALE
 40
1.0
  9
$PROXYGRAPHICS
 70
     1
  9
$MEASUREMENT
 70
     0
  0
ENDSEC
  0
SECTION
  2
CLASSES
  0
CLASS
  1
LWPOLYLINE
  2
AcDbPolyline
  3
AutoCAD 2000
 90
        0
280
     0
281
     1
  0
CLASS
  1
ACDBDICTIONARYWDFLT
  2
AcDbDictionaryWithDefault
  3
AutoCAD 2000
 90
        0
280
     0
281
     0
  0
CLASS
  1
ACDBPLACEHOLDER
  2
AcDbPlaceHolder
  3
AutoCAD 2000
 90
        0
280
     0
281
     0
  0
CLASS
  1
LAYOUT
  2
AcDbLayout
  3
AutoCAD 2000
 90
        0
280
     0
281
     0
  0
CLASS
  1
DICTIONARYVAR
  2
AcDbDictionaryVar
  3
AutoCAD 2000
 90
        0
280
     0
281
     0
  0
CLASS
  1
LONG_TRANSACTION
  2
AcDbLongTransaction
  3
AutoCAD 2000
 90
        0
280
     0
281
     0
  0
CLASS
  1
LWPOLYLINE
  2
AcDbPolyline
  3
AutoCAD 2000
 90
        0
280
     0
281
     1
  0
CLASS
  1
HATCH
  2
AcDbHatch
  3
AutoCAD 2000
 90
        0
280
     0
281
     1
  0
CLASS
  1
XRECORD
  2
AcDbXrecord
  3
AutoCAD 2000
 90
        0
280
     0
281
     0
  0
ENDSEC
  0
SECTION
  2
TABLES
  0
TABLE
  2
VPORT
  5
8
330
0
100
AcDbSymbolTable
 70
     2
  0
VPORT
  5
34E
330
8
100
AcDbSymbolTableRecord
100
AcDbViewportTableRecord
  2
*ACTIVE
 70
     0
 10
0.0
 20
0.0
 11
1.0
 21
1.0
 12
21.17246935685292
 22
3.718749991300867
 13
0.0
 23
0.0
 14
0.015625
 24
0.015625
 15
0.0
 25
0.0
 16
0.0
 26
0.0
 36
1.0
 17
0.0
 27
0.0
 37
0.0
 40
11.2087500034797
 41
4.320930232558139
 42
50.0
 43
0.0
 44
0.0
 50
0.0
 51
0.0
 71
     0
 72
  2000
 73
     1
 74
     1
 75
     1
 76
     0
 77
     0
 78
     0
  0
ENDTAB
  0
TABLE
  2
LTYPE
  5
5
330
0
100
AcDbSymbolTable
 70
     1
  0
LTYPE
  5
12
330
5
100
AcDbSymbolTableRecord
100
AcDbLinetypeTableRecord
  2
BYBLOCK
 70
     0
  3

 72
    65
 73
     0
 40
0.0
  0
LTYPE
  5
13
330
5
100
AcDbSymbolTableRecord
100
AcDbLinetypeTableRecord
  2
BYLAYER
 70
     0
  3

 72
    65
 73
     0
 40
0.0
  0
LTYPE
  5
14
330
5
100
AcDbSymbolTableRecord
100
AcDbLinetypeTableRecord
  2
CONTINUOUS
 70
     0
  3
Solid line
 72
    65
 73
     0
 40
0.0
  0
ENDTAB
  0
TABLE
  2
LAYER
  5
2
330
0
100
AcDbSymbolTable
 70
     3
  0
LAYER
  5
F
330
2
100
AcDbSymbolTableRecord
100
AcDbLayerTableRecord
  2
0
 70
     0
 62
     7
  6
CONTINUOUS
  0
LAYER
  5
27
330
2
100
AcDbSymbolTableRecord
100
AcDbLayerTableRecord
  2
DIM
 70
     0
 62
     4
  6
CONTINUOUS
  0
LAYER
  5
28
330
2
100
AcDbSymbolTableRecord
100
AcDbLayerTableRecord
  2
TEXT
 70
     0
 62
     3
  6
CONTINUOUS
  0
ENDTAB
  0
TABLE
  2
STYLE
  5
3
330
0
100
AcDbSymbolTable
 70
     3
  0
STYLE
  5
10
330
3
100
AcDbSymbolTableRecord
100
AcDbTextStyleTableRecord
  2
STANDARD
 70
     0
 40
0.0
 41
1.0
 50
0.0
 71
     0
 42
0.25
  3
txt
  4

  0
STYLE
  5
23A
330
3
100
AcDbSymbolTableRecord
100
AcDbTextStyleTableRecord
  2
ITALICC
 70
     0
 40
0.0
 41
1.0
 50
0.0
 71
     0
 42
0.125
  3
italicc
  4

  0
STYLE
  5
34A
330
3
100
AcDbSymbolTableRecord
100
AcDbTextStyleTableRecord
  2
ROMANS
 70
     0
 40
0.0
 41
1.0
 50
0.0
 71
     0
 42
0.125
  3
romans.shx
  4

  0
ENDTAB
  0
TABLE
  2
VIEW
  5
6
330
0
100
AcDbSymbolTable
 70
     0
  0
ENDTAB
  0
TABLE
  2
UCS
  5
7
330
0
100
AcDbSymbolTable
 70
     0
  0
ENDTAB
  0
TABLE
  2
APPID
  5
9
330
0
100
AcDbSymbolTable
 70
     1
  0
APPID
  5
11
330
9
100
AcDbSymbolTableRecord
100
AcDbRegAppTableRecord
  2
ACAD
 70
     0
  0
ENDTAB
  0
TABLE
  2
DIMSTYLE
  5
A
330
0
100
AcDbSymbolTable
 70
     1
  0
DIMSTYLE
105
22D
330
A
100
AcDbSymbolTableRecord
100
AcDbDimStyleTableRecord
  2
STANDARD
 70
     0
  3

  4

  5

  6

  7

 40
1.0
 41
0.18
 42
0.0625
 43
0.38
 44
0.18
 45
0.0
 46
0.0
 47
0.0
 48
0.0
140
0.18
141
0.09
142
0.0
143
25.4
144
1.0
145
0.0
146
1.0
147
0.09
 71
     0
 72
     0
 73
     1
 74
     1
 75
     0
 76
     0
 77
     0
 78
     0
170
     0
171
     2
172
     0
173
     0
174
     0
175
     0
176
     0
177
     0
178
     0
270
     2
271
     4
272
     4
273
     2
274
     2
340
10
275
     0
280
     0
281
     0
282
     0
283
     1
284
     0
285
     0
286
     0
287
     3
288
     0
  0
ENDTAB
  0
TABLE
  2
BLOCK_RECORD
  5
1
330
0
100
AcDbSymbolTable
 70
     0
  0
BLOCK_RECORD
  5
18
102
{ACAD_XDICTIONARY
360
371
102
}
330
1
100
AcDbSymbolTableRecord
100
AcDbBlockTableRecord
  2
*MODEL_SPACE
  0
BLOCK_RECORD
  5
15
102
{ACAD_XDICTIONARY
360
36F
102
}
330
1
100
AcDbSymbolTableRecord
100
AcDbBlockTableRecord
  2
*PAPER_SPACE
  0
ENDTAB
  0
ENDSEC
  0
SECTION
  2
BLOCKS
  0
BLOCK
  5
31
330
18
100
AcDbEntity
  8
0
100
AcDbBlockBegin
  2
*MODEL_SPACE
 70
     0
 10
0.0
 20
0.0
 30
0.0
  3
*MODEL_SPACE
  1

  0
ENDBLK
  5
32
330
18
100
AcDbEntity
  8
0
100
AcDbBlockEnd
  0
BLOCK
  5
2F
330
15
100
AcDbEntity
 67
     1
  8
0
100
AcDbBlockBegin
  2
*PAPER_SPACE
 70
     0
 10
0.0
 20
0.0
 30
0.0
  3
*PAPER_SPACE
  1

  0
ENDBLK
  5
30
330
15
100
AcDbEntity
 67
     1
  8
0
100
AcDbBlockEnd
  0
ENDSEC
  0
SECTION
  2
ENTITIES
  0
LWPOLYLINE
  5
33
330
18
100
AcDbEntity
  8
0
100
AcDbPolyline
 90
       27
 70
     1
 43
0.0
 10
3.008373412263472
 20
3.234375
 42
0.2679491924311231
 10
3.035436706131736
 20
3.25
 10
3.0625
 20
3.296875
 10
2.96875
 20
3.296875
 10
2.96875
 20
5.109375
 10
3.84375
 20
5.109375
 10
3.84375
 20
4.109375
 10
4.125
 20
4.109375
 10
4.125
 20
3.296875
 10
4.0625
 20
3.296875
 10
4.089563293868263
 20
3.25
 42
0.2679491924311231
 10
4.116626587736527
 20
3.234375
 10
4.171875
 20
3.234375
 10
4.171875
 20
4.109375
 10
4.84375
 20
4.109375
 10
4.84375
 20
3.203124999999999
 42
1.0
 10
4.906249999999998
 20
3.203124999999999
 10
4.90625
 20
4.151875
 42
0.4142135623730951
 10
4.88625
 20
4.171875
 10
3.90625
 20
4.171875
 10
3.90625
 20
5.151875
 42
0.4142135623730951
 10
3.88625
 20
5.171875
 10
2.926249999999999
 20
5.171875
 42
0.4142135623730951
 10
2.90625
 20
5.151875
 10
2.90625
 20
3.203125
 42
1.0
 10
2.968749999999999
 20
3.203125
 10
2.96875
 20
3.234375
  0
TEXT
  5
2C0
330
18
100
AcDbEntity
  8
TEXT
100
AcDbText
 10
3.064410147581461
 20
2.728172644020183
 30
0.0
 40
0.125
  1
PART #110311
  7
ITALICC
 72
     1
 11
3.80548157615289
 21
2.728172644020183
 31
0.0
100
AcDbText
  0
LINE
  5
2C1
330
18
100
AcDbEntity
  8
TEXT
100
AcDbLine
 10
3.773215075104952
 20
2.483818958000349
 30
0.0
 11
3.84986305639751
 21
2.483818958000349
 31
0.0
  0
LINE
  5
2C2
330
18
100
AcDbEntity
  8
TEXT
100
AcDbLine
 10
3.84538316907101
 20
2.548095652657115
 30
0.0
 11
3.777883451421494
 21
2.548095652657115
 31
0.0
  0
LWPOLYLINE
  5
2C3
330
18
100
AcDbEntity
  8
TEXT
100
AcDbPolyline
 90
        5
 70
     0
 43
0.0001332181640625
 10
2.136103032570277
 20
2.424868850899302
 10
2.149424848976526
 20
2.424868850899302
 10
2.149424848976526
 20
2.461503846016491
 10
2.186059844093716
 20
2.461503846016491
 10
2.186059844093716
 20
2.474825662422738
  0
LWPOLYLINE
  5
2C4
330
18
100
AcDbEntity
  8
TEXT
100
AcDbPolyline
 90
        3
 70
     0
 43
0.0006660908203125
 10
2.176068481789025
 20
2.521452019844617
 10
2.089476675148401
 20
2.521452019844617
 10
2.089476675148401
 20
2.43486021320399
  0
LWPOLYLINE
  5
2C5
330
18
100
AcDbEntity
  8
TEXT
100
AcDbPolyline
 90
        3
 70
     0
 43
0.0006660908203125
 10
2.176068481789025
 20
2.548095652657118
 10
2.062833042335903
 20
2.548095652657118
 10
2.062833042335903
 20
2.43486021320399
  0
LWPOLYLINE
  5
2C6
330
18
100
AcDbEntity
  8
TEXT
100
AcDbPolyline
 90
        5
 70
     0
 43
0.0001332181640625
 10
2.186059844093716
 20
2.354929314766491
 10
2.186059844093716
 20
2.368251131172741
 10
2.149424848976528
 20
2.368251131172741
 10
2.149424848976528
 20
2.404886126289928
 10
2.136103032570277
 20
2.404886126289928
  0
LWPOLYLINE
  5
2C7
330
18
100
AcDbEntity
  8
TEXT
100
AcDbPolyline
 90
        3
 70
     0
 43
0.0006660908203125
 10
2.089476675148401
 20
2.394894763985242
 10
2.089476675148401
 20
2.308302957344616
 10
2.176068481789025
 20
2.308302957344616
  0
LWPOLYLINE
  5
2C8
330
18
100
AcDbEntity
  8
TEXT
100
AcDbPolyline
 90
        3
 70
     0
 43
0.0006660908203125
 10
2.062833042335903
 20
2.394894763985242
 10
2.062833042335903
 20
2.281659324532115
 10
2.176068481789025
 20
2.281659324532115
  0
LWPOLYLINE
  5
2C9
330
18
100
AcDbEntity
  8
TEXT
100
AcDbPolyline
 90
        2
 70
     0
 43
0.0001332181640625
 10
2.089476675148401
 20
2.394894763985242
 10
2.149424848976528
 20
2.404886126289928
  0
LWPOLYLINE
  5
2CA
330
18
100
AcDbEntity
  8
TEXT
100
AcDbPolyline
 90
        2
 70
     0
 43
0.0001332181640625
 10
2.136103032570277
 20
2.404886126289928
 10
2.062833042335903
 20
2.394894763985242
  0
LWPOLYLINE
  5
2CB
330
18
100
AcDbEntity
  8
TEXT
100
AcDbPolyline
 90
        2
 70
     0
 43
0.0006660908203125
 10
2.089476675148401
 20
2.394894763985242
 10
2.062833042335903
 20
2.394894763985242
  0
LWPOLYLINE
  5
2CC
330
18
100
AcDbEntity
  8
TEXT
100
AcDbPolyline
 90
        2
 70
     0
 43
0.0001332181640625
 10
2.089476675148401
 20
2.308302957344616
 10
2.149424848976528
 20
2.368251131172741
  0
LWPOLYLINE
  5
2CD
330
18
100
AcDbEntity
  8
TEXT
100
AcDbPolyline
 90
        2
 70
     0
 43
0.0006660908203125
 10
2.089476675148401
 20
2.43486021320399
 10
2.062833042335903
 20
2.43486021320399
  0
LWPOLYLINE
  5
2CE
330
18
100
AcDbEntity
  8
TEXT
100
AcDbPolyline
 90
        2
 70
     0
 43
0.0001332181640625
 10
2.062833042335903
 20
2.43486021320399
 10
2.136103032570277
 20
2.424868850899302
  0
LWPOLYLINE
  5
2CF
330
18
100
AcDbEntity
  8
TEXT
100
AcDbPolyline
 90
        2
 70
     0
 43
0.0001332181640625
 10
2.089476675148401
 20
2.43486021320399
 10
2.149424848976526
 20
2.424868850899302
  0
LWPOLYLINE
  5
2D0
330
18
100
AcDbEntity
  8
TEXT
100
AcDbPolyline
 90
        2
 70
     0
 43
0.0001332181640625
 10
2.089476675148401
 20
2.521452019844617
 10
2.149424848976526
 20
2.461503846016491
  0
LWPOLYLINE
  5
2D1
330
18
100
AcDbEntity
  8
TEXT
100
AcDbPolyline
 90
        5
 70
     0
 43
0.0001332181640625
 10
2.255999380226527
 20
2.404886126289928
 10
2.242677563820278
 20
2.404886126289928
 10
2.242677563820278
 20
2.368251131172741
 10
2.206042568703088
 20
2.368251131172741
 10
2.206042568703088
 20
2.354929314766491
  0
LWPOLYLINE
  5
2D2
330
18
100
AcDbEntity
  8
TEXT
100
AcDbPolyline
 90
        2
 70
     0
 43
0.0001332181640625
 10
2.302625737648402
 20
2.394894763985242
 10
2.242677563820278
 20
2.404886126289928
  0
LWPOLYLINE
  5
2D3
330
18
100
AcDbEntity
  8
TEXT
100
AcDbPolyline
 90
        2
 70
     0
 43
0.0001332181640625
 10
2.329269370460903
 20
2.394894763985242
 10
2.255999380226527
 20
2.404886126289928
  0
LWPOLYLINE
  5
2D4
330
18
100
AcDbEntity
  8
TEXT
100
AcDbPolyline
 90
        3
 70
     0
 43
0.0006660908203125
 10
2.216033931007777
 20
2.281659324532115
 10
2.329269370460903
 20
2.281659324532115
 10
2.329269370460903
 20
2.394894763985242
  0
LWPOLYLINE
  5
2D5
330
18
100
AcDbEntity
  8
TEXT
100
AcDbPolyline
 90
        3
 70
     0
 43
0.0006660908203125
 10
2.216033931007777
 20
2.308302957344616
 10
2.302625737648402
 20
2.308302957344616
 10
2.302625737648402
 20
2.394894763985242
  0
LWPOLYLINE
  5
2D6
330
18
100
AcDbEntity
  8
TEXT
100
AcDbPolyline
 90
        2
 70
     0
 43
0.0001332181640625
 10
2.302625737648402
 20
2.308302957344616
 10
2.242677563820278
 20
2.368251131172741
  0
LWPOLYLINE
  5
2D7
330
18
100
AcDbEntity
  8
TEXT
100
AcDbPolyline
 90
        2
 70
     0
 43
0.0006660908203125
 10
2.216033931007777
 20
2.308302957344616
 10
2.216033931007777
 20
2.281659324532115
  0
LWPOLYLINE
  5
2D8
330
18
100
AcDbEntity
  8
TEXT
100
AcDbPolyline
 90
        2
 70
     0
 43
0.0001332181640625
 10
2.206042568703088
 20
2.354929314766491
 10
2.216033931007777
 20
2.281659324532115
  0
LWPOLYLINE
  5
2D9
330
18
100
AcDbEntity
  8
TEXT
100
AcDbPolyline
 90
        2
 70
     0
 43
0.0001332181640625
 10
2.216033931007777
 20
2.308302957344616
 10
2.206042568703088
 20
2.368251131172741
  0
LWPOLYLINE
  5
2DA
330
18
100
AcDbEntity
  8
TEXT
100
AcDbPolyline
 90
        2
 70
     0
 43
0.0001332181640625
 10
2.176068481789025
 20
2.281659324532115
 10
2.186059844093716
 20
2.354929314766491
  0
LWPOLYLINE
  5
2DB
330
18
100
AcDbEntity
  8
TEXT
100
AcDbPolyline
 90
        2
 70
     0
 43
0.0001332181640625
 10
2.176068481789025
 20
2.308302957344616
 10
2.186059844093716
 20
2.368251131172741
  0
LWPOLYLINE
  5
2DC
330
18
100
AcDbEntity
  8
TEXT
100
AcDbPolyline
 90
        2
 70
     0
 43
0.0006660908203125
 10
2.176068481789025
 20
2.308302957344616
 10
2.176068481789025
 20
2.281659324532115
  0
LWPOLYLINE
  5
2DD
330
18
100
AcDbEntity
  8
TEXT
100
AcDbPolyline
 90
        2
 70
     0
 43
0.0006660908203125
 10
2.302625737648402
 20
2.394894763985242
 10
2.329269370460903
 20
2.394894763985242
  0
LWPOLYLINE
  5
2DE
330
18
100
AcDbEntity
  8
TEXT
100
AcDbPolyline
 90
        2
 70
     0
 43
0.0001332181640625
 10
2.302625737648402
 20
2.521452019844617
 10
2.242677563820278
 20
2.461503846016491
  0
LWPOLYLINE
  5
2DF
330
18
100
AcDbEntity
  8
TEXT
100
AcDbPolyline
 90
        2
 70
     0
 43
0.0001332181640625
 10
2.302625737648402
 20
2.43486021320399
 10
2.242677563820278
 20
2.424868850899302
  0
LWPOLYLINE
  5
2E0
330
18
100
AcDbEntity
  8
TEXT
100
AcDbPolyline
 90
        2
 70
     0
 43
0.0001332181640625
 10
2.255999380226527
 20
2.424868850899302
 10
2.329269370460903
 20
2.43486021320399
  0
LWPOLYLINE
  5
2E1
330
18
100
AcDbEntity
  8
TEXT
100
AcDbPolyline
 90
        3
 70
     0
 43
0.0006660908203125
 10
2.302625737648402
 20
2.43486021320399
 10
2.302625737648402
 20
2.521452019844617
 10
2.216033931007777
 20
2.521452019844617
  0
LWPOLYLINE
  5
2E2
330
18
100
AcDbEntity
  8
TEXT
100
AcDbPolyline
 90
        3
 70
     0
 43
0.0006660908203125
 10
2.329269370460903
 20
2.43486021320399
 10
2.329269370460903
 20
2.548095652657118
 10
2.216033931007777
 20
2.548095652657118
  0
LWPOLYLINE
  5
2E3
330
18
100
AcDbEntity
  8
TEXT
100
AcDbPolyline
 90
        2
 70
     0
 43
0.0001332181640625
 10
2.216033931007777
 20
2.548095652657118
 10
2.206042568703088
 20
2.474825662422738
  0
LWPOLYLINE
  5
2E4
330
18
100
AcDbEntity
  8
TEXT
100
AcDbPolyline
 90
        2
 70
     0
 43
0.0001332181640625
 10
2.216033931007777
 20
2.521452019844617
 10
2.206042568703088
 20
2.461503846016491
  0
LWPOLYLINE
  5
2E5
330
18
100
AcDbEntity
  8
TEXT
100
AcDbPolyline
 90
        2
 70
     0
 43
0.0006660908203125
 10
2.216033931007777
 20
2.521452019844617
 10
2.216033931007777
 20
2.548095652657118
  0
LWPOLYLINE
  5
2E6
330
18
100
AcDbEntity
  8
TEXT
100
AcDbPolyline
 90
        5
 70
     0
 43
0.0001332181640625
 10
2.206042568703088
 20
2.474825662422738
 10
2.206042568703088
 20
2.461503846016491
 10
2.242677563820278
 20
2.461503846016491
 10
2.242677563820278
 20
2.424868850899302
 10
2.255999380226527
 20
2.424868850899302
  0
LWPOLYLINE
  5
2E7
330
18
100
AcDbEntity
  8
TEXT
100
AcDbPolyline
 90
        2
 70
     0
 43
0.0001332181640625
 10
2.176068481789025
 20
2.521452019844617
 10
2.186059844093716
 20
2.461503846016491
  0
LWPOLYLINE
  5
2E8
330
18
100
AcDbEntity
  8
TEXT
100
AcDbPolyline
 90
        2
 70
     0
 43
0.0001332181640625
 10
2.186059844093716
 20
2.474825662422738
 10
2.176068481789025
 20
2.548095652657118
  0
LWPOLYLINE
  5
2E9
330
18
100
AcDbEntity
  8
TEXT
100
AcDbPolyline
 90
        2
 70
     0
 43
0.0006660908203125
 10
2.176068481789025
 20
2.521452019844617
 10
2.176068481789025
 20
2.548095652657118
  0
LWPOLYLINE
  5
2EA
330
18
100
AcDbEntity
  8
TEXT
100
AcDbPolyline
 90
        2
 70
     0
 43
0.0006660908203125
 10
2.302625737648402
 20
2.43486021320399
 10
2.329269370460903
 20
2.43486021320399
  0
LWPOLYLINE
  5
2EB
330
18
100
AcDbEntity
  8
TEXT
100
AcDbPolyline
 90
        2
 70
     0
 43
0.0
 10
3.048049291209533
 20
2.333173961883532
 42
0.3318488747599744
 10
3.117168583774846
 20
2.281622619668604
 42
-6.868794160588311
  0
LINE
  5
2EC
330
18
100
AcDbEntity
  8
TEXT
100
AcDbLine
 10
3.11602901027865
 20
2.616107130395925
 30
0.0
 11
3.049220297712285
 21
2.616107130395925
 31
0.0
  0
LINE
  5
2ED
330
18
100
AcDbEntity
  8
TEXT
100
AcDbLine
 10
2.769877930093191
 20
2.548095652657115
 30
0.0
 11
2.59414617719468
 21
2.548095652657115
 31
0.0
  0
ARC
  5
2EE
330
18
100
AcDbEntity
  8
TEXT
100
AcDbCircle
 10
2.66498364355323
 20
2.364818428029161
 30
0.0
 40
0.0831958083605586
100
AcDbArc
 50
270.0
 51
90.0
  0
LINE
  5
2EF
330
18
100
AcDbEntity
  8
TEXT
100
AcDbLine
 10
2.599383507308928
 20
2.483818958000349
 30
0.0
 11
2.766289161337899
 21
2.483818958000349
 31
0.0
  0
LINE
  5
2F0
330
18
100
AcDbEntity
  8
TEXT
100
AcDbLine
 10
2.669924017459509
 20
2.349979626002043
 30
0.0
 11
2.512058717748175
 21
2.349979626002043
 31
0.0
  0
LINE
  5
2F1
330
18
100
AcDbEntity
  8
TEXT
100
AcDbLine
 10
2.512058717748177
 20
2.281622619668604
 30
0.0
 11
2.664983643553229
 21
2.281622619668604
 31
0.0
  0
ARC
  5
2F2
330
18
100
AcDbEntity
  8
TEXT
100
AcDbCircle
 10
2.59414617719468
 20
2.466008193210613
 30
0.0
 40
0.0820874594465043
100
AcDbArc
 50
90.0
 51
270.0
  0
LINE
  5
2F3
330
18
100
AcDbEntity
  8
TEXT
100
AcDbLine
 10
2.512058717748175
 20
2.349979626002043
 30
0.0
 11
2.512058717748177
 21
2.281622619668604
 31
0.0
  0
LINE
  5
2F4
330
18
100
AcDbEntity
  8
TEXT
100
AcDbLine
 10
2.59414617719468
 20
2.383920733764107
 30
0.0
 11
2.669924017459509
 21
2.383920733764107
 31
0.0
  0
ARC
  5
2F5
330
18
100
AcDbEntity
  8
TEXT
100
AcDbCircle
 10
2.669924017459509
 20
2.366950179883077
 30
0.0
 40
0.0169705538810321
100
AcDbArc
 50
270.0
 51
90.0
  0
LINE
  5
2F6
330
18
100
AcDbEntity
  8
TEXT
100
AcDbLine
 10
2.664983643553229
 20
2.448014236389721
 30
0.0
 11
2.599383507308928
 21
2.448014236389721
 31
0.0
  0
ARC
  5
2F7
330
18
100
AcDbEntity
  8
TEXT
100
AcDbCircle
 10
2.599383507308929
 20
2.465916597195037
 30
0.0
 40
0.017902360805315
100
AcDbArc
 50
90.0
 51
270.0
  0
LINE
  5
2F8
330
18
100
AcDbEntity
  8
TEXT
100
AcDbLine
 10
2.960349822113044
 20
2.447223656543994
 30
0.0
 11
2.901719501081106
 21
2.548095652657115
 31
0.0
  0
LINE
  5
2F9
330
18
100
AcDbEntity
  8
TEXT
100
AcDbLine
 10
2.820175768818004
 20
2.281622619668604
 30
0.0
 11
2.916816019892999
 21
2.281893258766886
 31
0.0
  0
LWPOLYLINE
  5
2FA
330
18
100
AcDbEntity
  8
TEXT
100
AcDbPolyline
 90
        6
 70
     1
 43
0.0
 10
2.862699572393154
 20
2.483818958000349
 10
2.832382978172946
 20
2.483818958000349
 10
2.832382978172946
 20
2.360707959945455
 42
0.407328721240804
 10
2.843926629334422
 20
2.348889045269069
 10
2.904548328379153
 20
2.348889045269069
 10
2.922013668786471
 20
2.381701274312548
  0
LINE
  5
2FB
330
18
100
AcDbEntity
  8
TEXT
100
AcDbLine
 10
2.766289161337899
 20
2.483818958000349
 30
0.0
 11
2.766289161337899
 21
2.341415011006653
 31
0.0
  0
ARC
  5
2FC
330
18
100
AcDbEntity
  8
TEXT
100
AcDbCircle
 10
2.826405179311651
 20
2.341415011006653
 30
0.0
 40
0.0601160179737537
100
AcDbArc
 50
180.0000000000003
 51
264.0521544866073
  0
LINE
  5
2FD
330
18
100
AcDbEntity
  8
TEXT
100
AcDbLine
 10
2.829920534937198
 20
2.582483570251253
 30
0.0
 11
2.769877930093191
 21
2.582483570251253
 31
0.0
  0
LINE
  5
2FE
330
18
100
AcDbEntity
  8
TEXT
100
AcDbLine
 10
2.769877930093191
 20
2.582483570251253
 30
0.0
 11
2.769877930093191
 21
2.548095652657115
 31
0.0
  0
LINE
  5
2FF
330
18
100
AcDbEntity
  8
TEXT
100
AcDbLine
 10
2.829920534937198
 20
2.548095652657115
 30
0.0
 11
2.829920534937198
 21
2.582483570251253
 31
0.0
  0
LINE
  5
300
330
18
100
AcDbEntity
  8
TEXT
100
AcDbLine
 10
2.901719501081106
 20
2.548095652657115
 30
0.0
 11
2.829920534937198
 21
2.548095652657115
 31
0.0
  0
LINE
  5
301
330
18
100
AcDbEntity
  8
TEXT
100
AcDbLine
 10
2.950749585116089
 20
2.301581125773616
 30
0.0
 11
3.048049291209534
 21
2.465931336708885
 31
0.0
  0
LINE
  5
302
330
18
100
AcDbEntity
  8
TEXT
100
AcDbLine
 10
3.048049291209534
 20
2.465931336708885
 30
0.0
 11
3.048049291209534
 21
2.333173961883528
 31
0.0
  0
ARC
  5
303
330
18
100
AcDbEntity
  8
TEXT
100
AcDbCircle
 10
2.916706025203876
 20
2.321170341942299
 30
0.0
 40
0.0392772371940762
100
AcDbArc
 50
270.1604552698595
 51
330.0831797321295
  0
LINE
  5
304
330
18
100
AcDbEntity
  8
TEXT
100
AcDbLine
 10
3.019098384918909
 20
2.548095652657115
 30
0.0
 11
2.960349822113044
 21
2.447223656543994
 31
0.0
  0
LINE
  5
305
330
18
100
AcDbEntity
  8
TEXT
100
AcDbLine
 10
3.049220297712285
 20
2.616107130395925
 30
0.0
 11
3.049220297712285
 21
2.548095652657115
 31
0.0
  0
LINE
  5
306
330
18
100
AcDbEntity
  8
TEXT
100
AcDbLine
 10
3.049220297712285
 20
2.548095652657115
 30
0.0
 11
3.019098384918909
 21
2.548095652657115
 31
0.0
  0
LWPOLYLINE
  5
307
330
18
100
AcDbEntity
  8
TEXT
100
AcDbPolyline
 90
        4
 70
     0
 43
0.0
 10
3.401306419332444
 20
2.476265168834239
 10
3.401306419332444
 20
2.281622619668604
 10
3.469784702620302
 20
2.281622619668604
 10
3.469784702620302
 20
2.325113564619042
 42
-1.714843617202739
  0
LWPOLYLINE
  5
308
330
18
100
AcDbEntity
  8
TEXT
100
AcDbPolyline
 90
        2
 70
     0
 43
0.0
 10
3.436440769876654
 20
2.548095652657118
 42
-0.3277054968067132
 10
3.472222460589819
 20
2.519773106887474
 42
6.667889725900311
  0
LWPOLYLINE
  5
309
330
18
100
AcDbEntity
  8
TEXT
100
AcDbPolyline
 90
        2
 70
     0
 43
0.0
 10
3.265007197297427
 20
2.483818958000349
 42
-0.4142135623731017
 10
3.27256098646354
 20
2.476265168834239
 42
-0.9999999999999998
  0
LINE
  5
30A
330
18
100
AcDbEntity
  8
TEXT
100
AcDbLine
 10
3.282358920347447
 20
2.548095652657115
 30
0.0
 11
3.148340864416311
 21
2.548095652657115
 31
0.0
  0
LINE
  5
30B
330
18
100
AcDbEntity
  8
TEXT
100
AcDbLine
 10
3.21517191747428
 20
2.281622619668604
 30
0.0
 11
3.21517191747428
 21
2.483818958000349
 31
0.0
  0
LINE
  5
30C
330
18
100
AcDbEntity
  8
TEXT
100
AcDbLine
 10
3.148340864416311
 20
2.548095652657115
 30
0.0
 11
3.148340864416311
 21
2.347231445924706
 31
0.0
  0
LINE
  5
30D
330
18
100
AcDbEntity
  8
TEXT
100
AcDbLine
 10
3.11602901027865
 20
2.364010457771603
 30
0.0
 11
3.11602901027865
 21
2.616107130395925
 31
0.0
  0
LINE
  5
30E
330
18
100
AcDbEntity
  8
TEXT
100
AcDbLine
 10
3.117168583774845
 20
2.281622619668604
 30
0.0
 11
3.21517191747428
 21
2.281622619668604
 31
0.0
  0
LINE
  5
30F
330
18
100
AcDbEntity
  8
TEXT
100
AcDbLine
 10
3.148340864416311
 20
2.347231445924706
 30
0.0
 11
3.131347227531709
 21
2.347231445924706
 31
0.0
  0
ARC
  5
310
330
18
100
AcDbEntity
  8
TEXT
100
AcDbCircle
 10
3.131347227531708
 20
2.362613252168132
 30
0.0
 40
0.0153818062434269
100
AcDbArc
 50
174.7883570302258
 51
270.0
  0
LINE
  5
311
330
18
100
AcDbEntity
  8
TEXT
100
AcDbLine
 10
3.21517191747428
 20
2.483818958000349
 30
0.0
 11
3.265007197297427
 21
2.483818958000349
 31
0.0
  0
LINE
  5
312
330
18
100
AcDbEntity
  8
TEXT
100
AcDbLine
 10
3.272560986463541
 20
2.476265168834239
 30
0.0
 11
3.272560986463541
 21
2.281622619668604
 31
0.0
  0
LINE
  5
313
330
18
100
AcDbEntity
  8
TEXT
100
AcDbLine
 10
3.339619033245381
 20
2.281622619668604
 30
0.0
 11
3.339619033245381
 21
2.483818958000349
 31
0.0
  0
LINE
  5
314
330
18
100
AcDbEntity
  8
TEXT
100
AcDbLine
 10
3.272560986463541
 20
2.281622619668604
 30
0.0
 11
3.339619033245381
 21
2.281622619668604
 31
0.0
  0
LWPOLYLINE
  5
315
330
18
100
AcDbEntity
  8
TEXT
100
AcDbPolyline
 90
        3
 70
     0
 43
0.0
 10
3.436440769876654
 20
2.548095652657118
 10
3.318140611060609
 20
2.548095652657118
 10
3.318140611060609
 20
2.520928155896222
 42
-1.960274751411753
  0
LINE
  5
316
330
18
100
AcDbEntity
  8
TEXT
100
AcDbLine
 10
3.339619033245381
 20
2.483818958000349
 30
0.0
 11
3.393752630166331
 21
2.483818958000349
 31
0.0
  0
LWPOLYLINE
  5
317
330
18
100
AcDbEntity
  8
TEXT
100
AcDbPolyline
 90
        2
 70
     0
 43
0.0
 10
3.282358920347448
 20
2.548095652657118
 42
-0.3328679258950098
 10
3.318140611060609
 20
2.520928155896222
 42
6.772930709997214
  0
LWPOLYLINE
  5
318
330
18
100
AcDbEntity
  8
TEXT
100
AcDbPolyline
 90
        2
 70
     0
 43
0.0
 10
3.39375263016633
 20
2.483818958000349
 42
-0.4142135623731017
 10
3.401306419332444
 20
2.476265168834239
 42
-0.9999999999999998
  0
ARC
  5
319
330
18
100
AcDbEntity
  8
TEXT
100
AcDbCircle
 10
3.60502743002981
 20
2.506512085536212
 30
0.0
 40
0.0416329381542859
100
AcDbArc
 50
26.56974201007528
 51
87.20939649401342
  0
LWPOLYLINE
  5
31A
330
18
100
AcDbEntity
  8
TEXT
100
AcDbPolyline
 90
        2
 70
     0
 43
0.0
 10
3.512860635487937
 20
2.281622619668604
 10
3.646878053119314
 20
2.281622619668604
 42
0.9999999999999998
  0
LWPOLYLINE
  5
31B
330
18
100
AcDbEntity
  8
TEXT
100
AcDbPolyline
 90
        4
 70
     1
 43
0.0
 10
3.626755588049421
 20
2.384586597652629
 10
3.538095269389563
 20
2.384586597652629
 42
0.9999999999999998
 10
3.538095269389563
 20
2.342188057148768
 10
3.626755588049421
 20
2.342188057148768
 42
1.0
  0
LWPOLYLINE
  5
31C
330
18
100
AcDbEntity
  8
TEXT
100
AcDbPolyline
 90
        2
 70
     0
 43
0.0
 10
3.469784702620302
 20
2.325113564619042
 42
0.2901071551932823
 10
3.512860635487937
 20
2.281622619668604
 42
5.328517124445801
  0
LINE
  5
31D
330
18
100
AcDbEntity
  8
TEXT
100
AcDbLine
 10
3.607054369806879
 20
2.548095652657115
 30
0.0
 11
3.472222460589819
 21
2.548095652657115
 31
0.0
  0
LINE
  5
31E
330
18
100
AcDbEntity
  8
TEXT
100
AcDbLine
 10
3.531536556983138
 20
2.446543984538217
 30
0.0
 11
3.613824546766521
 21
2.446543984538217
 31
0.0
  0
LINE
  5
31F
330
18
100
AcDbEntity
  8
TEXT
100
AcDbLine
 10
3.5780234714624
 20
2.483818958000349
 30
0.0
 11
3.470817198075111
 21
2.483818958000349
 31
0.0
  0
LINE
  5
320
330
18
100
AcDbEntity
  8
TEXT
100
AcDbLine
 10
3.472222460589819
 20
2.548095652657115
 30
0.0
 11
3.472222460589819
 21
2.519773106887471
 31
0.0
  0
ARC
  5
321
330
18
100
AcDbEntity
  8
TEXT
100
AcDbCircle
 10
3.531536556983137
 20
2.378858403394098
 30
0.0
 40
0.0676855811441166
100
AcDbArc
 50
90.0
 51
153.7768192527749
  0
LINE
  5
322
330
18
100
AcDbEntity
  8
TEXT
100
AcDbLine
 10
3.470817198075111
 20
2.483818958000349
 30
0.0
 11
3.470817198075111
 21
2.408766551926142
 31
0.0
  0
LINE
  5
323
330
18
100
AcDbEntity
  8
TEXT
100
AcDbLine
 10
3.613824546766521
 20
2.446543984538217
 30
0.0
 11
3.603559786352957
 21
2.467794524110911
 31
0.0
  0
ARC
  5
324
330
18
100
AcDbEntity
  8
TEXT
100
AcDbCircle
 10
3.578023471462399
 20
2.455459583000352
 30
0.0
 40
0.028359375
100
AcDbArc
 50
25.78218179591245
 51
90.0
  0
LINE
  5
325
330
18
100
AcDbEntity
  8
TEXT
100
AcDbLine
 10
3.748309199822293
 20
2.281622619668604
 30
0.0
 11
3.748309199822288
 21
2.458913125100072
 31
0.0
  0
LWPOLYLINE
  5
326
330
18
100
AcDbEntity
  8
TEXT
100
AcDbPolyline
 90
        2
 70
     0
 43
0.0
 10
3.689953985986958
 20
2.281622619668604
 10
3.748309199822292
 20
2.281622619668604
  0
LWPOLYLINE
  5
327
330
18
100
AcDbEntity
  8
TEXT
100
AcDbPolyline
 90
        2
 70
     0
 43
0.0
 10
3.689953985986958
 20
2.325113564619042
 42
-0.2901071551932486
 10
3.646878053119314
 20
2.281622619668604
 42
-5.328517124445184
  0
LWPOLYLINE
  5
328
330
18
100
AcDbEntity
  8
TEXT
100
AcDbPolyline
 90
        2
 70
     0
 43
0.0
 10
3.689953985986958
 20
2.325113564619042
 10
3.689953985986958
 20
2.281622619668604
  0
LINE
  5
329
330
18
100
AcDbEntity
  8
TEXT
100
AcDbLine
 10
3.749911214981421
 20
2.548095652657115
 30
0.0
 11
3.68601430868192
 21
2.548095652657115
 31
0.0
  0
LINE
  5
32A
330
18
100
AcDbEntity
  8
TEXT
100
AcDbLine
 10
3.68601430868192
 20
2.548095652657115
 30
0.0
 11
3.68601430868192
 21
2.442883674103687
 31
0.0
  0
LINE
  5
32B
330
18
100
AcDbEntity
  8
TEXT
100
AcDbLine
 10
3.68601430868192
 20
2.442883674103687
 30
0.0
 11
3.642263537500018
 21
2.525133950099832
 31
0.0
  0
ARC
  5
32C
330
18
100
AcDbEntity
  8
TEXT
100
AcDbCircle
 10
3.773215075104952
 20
2.458913082717686
 30
0.0
 40
0.0249058752826653
100
AcDbArc
 50
89.99971217465335
 51
179.9999999999985
  0
ARC
  5
32D
330
18
100
AcDbEntity
  8
TEXT
100
AcDbCircle
 10
3.781104032044529
 20
2.51684992537485
 30
0.0
 40
0.0314112657011332
100
AcDbArc
 50
95.88484768694724
 51
173.2388340632136
  0
LINE
  5
32E
330
18
100
AcDbEntity
  8
TEXT
100
AcDbLine
 10
3.749911214981421
 20
2.52054800279624
 30
0.0
 11
3.749911214981421
 21
2.548095652657115
 31
0.0
  0
TEXT
  5
32F
330
18
100
AcDbEntity
  8
TEXT
100
AcDbText
 10
4.218786734403211
 20
2.3745084283141
 30
0.0
 40
0.0522247191011236
  1
Minneapolis, MN 55432-0008
 41
1.11444212721585
 72
     5
 11
5.547719318672875
 21
2.3745084283141
 31
0.0
100
AcDbText
  0
TEXT
  5
330
330
18
100
AcDbEntity
  8
TEXT
100
AcDbText
 10
4.218786734403211
 20
2.467766855280392
 30
0.0
 40
0.0522247191011236
  1
6536 Main St. N.E. * P.O. Box 32008
 41
0.8388932496075369
 72
     5
 11
5.547719318672875
 21
2.467766855280392
 31
0.0
100
AcDbText
  0
TEXT
  5
331
330
18
100
AcDbEntity
  8
TEXT
100
AcDbText
 10
4.218786734403211
 20
2.561025282246684
 30
0.0
 40
0.0522247191011236
  1
Stylmark  Incorporated
 41
1.221428571428571
 72
     5
 11
5.547719318672875
 21
2.561025282246684
 31
0.0
100
AcDbText
  0
TEXT
  5
332
330
18
100
AcDbEntity
  8
TEXT
100
AcDbText
 10
4.218786734403211
 20
2.281250001347808
 30
0.0
 40
0.0522247191011236
  1
Phone  1-800-328-2495
 41
1.272321428571429
 72
     5
 11
5.547719318672875
 21
2.281250001347808
 31
0.0
100
AcDbText
  0
LINE
  5
333
330
18
100
AcDbEntity
  8
TEXT
100
AcDbLine
 10
3.971230922940196
 20
2.438202409716141
 30
0.0
 11
4.035788038905901
 21
2.548095652657115
 31
0.0
  0
LINE
  5
334
330
18
100
AcDbEntity
  8
TEXT
100
AcDbLine
 10
4.035788038905901
 20
2.548095652657115
 30
0.0
 11
3.960796206176275
 21
2.548095652657115
 31
0.0
  0
LINE
  5
335
330
18
100
AcDbEntity
  8
TEXT
100
AcDbLine
 10
3.990144773927601
 20
2.281622619668604
 30
0.0
 11
4.066723146303806
 21
2.281622619668604
 31
0.0
  0
LINE
  5
336
330
18
100
AcDbEntity
  8
TEXT
100
AcDbLine
 10
4.066723146303806
 20
2.281622619668604
 30
0.0
 11
3.971230922940196
 21
2.438202409716141
 31
0.0
  0
LINE
  5
337
330
18
100
AcDbEntity
  8
TEXT
100
AcDbLine
 10
3.914241240716136
 20
2.281622619668604
 30
0.0
 11
3.914241240716136
 21
2.413202188144784
 31
0.0
  0
LINE
  5
338
330
18
100
AcDbEntity
  8
TEXT
100
AcDbLine
 10
3.914241240716136
 20
2.413202188144784
 30
0.0
 11
3.990144773927601
 21
2.281622619668604
 31
0.0
  0
LINE
  5
339
330
18
100
AcDbEntity
  8
TEXT
100
AcDbLine
 10
3.84986305639751
 20
2.483818958000349
 30
0.0
 11
3.849863056397516
 21
2.281622619668604
 31
0.0
  0
LINE
  5
33A
330
18
100
AcDbEntity
  8
TEXT
100
AcDbLine
 10
3.849863056397516
 20
2.281622619668604
 30
0.0
 11
3.914241240716136
 21
2.281622619668604
 31
0.0
  0
LINE
  5
33B
330
18
100
AcDbEntity
  8
TEXT
100
AcDbLine
 10
3.913698047620289
 20
2.613559858424715
 30
0.0
 11
3.845383169071015
 21
2.613559858424715
 31
0.0
  0
LINE
  5
33C
330
18
100
AcDbEntity
  8
TEXT
100
AcDbLine
 10
3.845383169071015
 20
2.613559858424715
 30
0.0
 11
3.84538316907101
 21
2.548095652657115
 31
0.0
  0
LINE
  5
33D
330
18
100
AcDbEntity
  8
TEXT
100
AcDbLine
 10
3.960796206176273
 20
2.548095652657115
 30
0.0
 11
3.913698047620289
 21
2.472230326245576
 31
0.0
  0
LINE
  5
33E
330
18
100
AcDbEntity
  8
TEXT
100
AcDbLine
 10
3.913698047620289
 20
2.472230326245576
 30
0.0
 11
3.913698047620289
 21
2.613559858424715
 31
0.0
  0
ENDSEC
  0
SECTION
  2
OBJECTS
  0
DICTIONARY
  5
C
330
0
100
AcDbDictionary
  3
ACAD_GROUP
350
D
  3
ACAD_LAYOUT
350
343
  3
ACAD_MLINESTYLE
350
E
  3
ACAD_PLOTSETTINGS
350
344
  3
ACAD_PLOTSTYLENAME
350
341
  3
ACDBHEADERROUNDTRIPXREC
350
34F
  3
ACDBVARIABLEDICTIONARY
350
34C
  0
DICTIONARY
  5
371
330
18
100
AcDbDictionary
280
     1
  3
ACAD_LAYOUTSELFREF
360
372
  0
DICTIONARY
  5
36F
330
15
100
AcDbDictionary
280
     1
  3
ACAD_LAYOUTSELFREF
360
370
  0
DICTIONARY
  5
D
102
{ACAD_REACTORS
330
C
102
}
330
C
100
AcDbDictionary
  0
DICTIONARY
  5
343
102
{ACAD_REACTORS
330
C
102
}
330
C
100
AcDbDictionary
  0
DICTIONARY
  5
E
102
{ACAD_REACTORS
330
C
102
}
330
C
100
AcDbDictionary
  3
STANDARD
350
1B
  0
DICTIONARY
  5
344
102
{ACAD_REACTORS
330
C
102
}
330
C
100
AcDbDictionary
  0
ACDBDICTIONARYWDFLT
  5
341
102
{ACAD_REACTORS
330
C
102
}
330
C
100
AcDbDictionary
281
     1
  3
Normal
350
342
100
AcDbDictionaryWithDefault
340
342
  0
DICTIONARY
  5
34F
102
{ACAD_REACTORS
330
C
102
}
330
C
100
AcDbDictionary
  3
CEPSNTYPE
350
359
  3
FINGERPRINTGUID
350
35A
  3
HYPERLINKBASE
350
352
  3
INSUNITS
350
358
  3
LAYOUTDICT
350
354
  3
LWETCUNION
350
357
  3
PLOTSETDICT
350
355
  3
PLOTSTYLNAMDICT
350
356
  3
PSVPSCALE
350
35C
  3
PUCSBASE
350
35F
  3
PUCSORGBACK
350
365
  3
PUCSORGBOTTOM
350
361
  3
PUCSORGFRONT
350
364
  3
PUCSORGLEFT
350
362
  3
PUCSORGRIGHT
350
363
  3
PUCSORGTOP
350
360
  3
PUCSORTHOREF
350
35D
  3
PUCSORTHOVIEW
350
35E
  3
STYLESHEET
350
353
  3
TSTACKALIGN
350
350
  3
TSTACKSIZE
350
351
  3
UCSBASE
350
368
  3
UCSORGBACK
350
36E
  3
UCSORGBOTTOM
350
36A
  3
UCSORGFRONT
350
36D
  3
UCSORGLEFT
350
36B
  3
UCSORGRIGHT
350
36C
  3
UCSORGTOP
350
369
  3
UCSORTHOREF
350
366
  3
UCSORTHOVIEW
350
367
  3
VERSIONGUID
350
35B
  0
DICTIONARY
  5
34C
102
{ACAD_REACTORS
330
C
102
}
330
C
100
AcDbDictionary
  3
DIMASSOC
350
34D
  0
XRECORD
  5
372
102
{ACAD_REACTORS
330
371
102
}
330
371
100
AcDbXrecord
340
18
  0
XRECORD
  5
370
102
{ACAD_REACTORS
330
36F
102
}
330
36F
100
AcDbXrecord
340
15
  0
MLINESTYLE
  5
1B
102
{ACAD_REACTORS
330
E
102
}
330
E
100
AcDbMlineStyle
  2
STANDARD
 70
     0
  3

 62
     0
 51
90.0
 52
90.0
 71
     2
 49
0.5
 62
   256
  6
BYLAYER
 49
-0.5
 62
   256
  6
BYLAYER
  0
ACDBPLACEHOLDER
  5
342
102
{ACAD_REACTORS
330
341
102
}
330
341
100
AcDbPlaceHolder
280
     0
  0
XRECORD
  5
359
102
{ACAD_REACTORS
330
34F
102
}
330
34F
100
AcDbXrecord
 90
        0
  0
XRECORD
  5
35A
102
{ACAD_REACTORS
330
34F
102
}
330
34F
100
AcDbXrecord
  1
{3DD02620-8DB6-11D6-88E6-0090279574E7}
  0
XRECORD
  5
352
102
{ACAD_REACTORS
330
34F
102
}
330
34F
100
AcDbXrecord
  1

  0
XRECORD
  5
358
102
{ACAD_REACTORS
330
34F
102
}
330
34F
100
AcDbXrecord
 90
        0
  0
XRECORD
  5
354
102
{ACAD_REACTORS
330
34F
102
}
330
34F
100
AcDbXrecord
340
343
  0
XRECORD
  5
357
102
{ACAD_REACTORS
330
34F
102
}
330
34F
100
AcDbXrecord
 90
    14877
  0
XRECORD
  5
355
102
{ACAD_REACTORS
330
34F
102
}
330
34F
100
AcDbXrecord
340
344
  0
XRECORD
  5
356
102
{ACAD_REACTORS
330
34F
102
}
330
34F
100
AcDbXrecord
340
341
  0
XRECORD
  5
35C
102
{ACAD_REACTORS
330
34F
102
}
330
34F
100
AcDbXrecord
 40
0.0
  0
XRECORD
  5
35F
102
{ACAD_REACTORS
330
34F
102
}
330
34F
100
AcDbXrecord
340
0
  0
XRECORD
  5
365
102
{ACAD_REACTORS
330
34F
102
}
330
34F
100
AcDbXrecord
 10
0.0
 20
0.0
 30
0.0
  0
XRECORD
  5
361
102
{ACAD_REACTORS
330
34F
102
}
330
34F
100
AcDbXrecord
 10
0.0
 20
0.0
 30
0.0
  0
XRECORD
  5
364
102
{ACAD_REACTORS
330
34F
102
}
330
34F
100
AcDbXrecord
 10
0.0
 20
0.0
 30
0.0
  0
XRECORD
  5
362
102
{ACAD_REACTORS
330
34F
102
}
330
34F
100
AcDbXrecord
 10
0.0
 20
0.0
 30
0.0
  0
XRECORD
  5
363
102
{ACAD_REACTORS
330
34F
102
}
330
34F
100
AcDbXrecord
 10
0.0
 20
0.0
 30
0.0
  0
XRECORD
  5
360
102
{ACAD_REACTORS
330
34F
102
}
330
34F
100
AcDbXrecord
 10
0.0
 20
0.0
 30
0.0
  0
XRECORD
  5
35D
102
{ACAD_REACTORS
330
34F
102
}
330
34F
100
AcDbXrecord
340
0
  0
XRECORD
  5
35E
102
{ACAD_REACTORS
330
34F
102
}
330
34F
100
AcDbXrecord
 70
     0
  0
XRECORD
  5
353
102
{ACAD_REACTORS
330
34F
102
}
330
34F
100
AcDbXrecord
  1

  0
XRECORD
  5
350
102
{ACAD_REACTORS
330
34F
102
}
330
34F
100
AcDbXrecord
 90
        1
  0
XRECORD
  5
351
102
{ACAD_REACTORS
330
34F
102
}
330
34F
100
AcDbXrecord
 90
       70
  0
XRECORD
  5
368
102
{ACAD_REACTORS
330
34F
102
}
330
34F
100
AcDbXrecord
340
0
  0
XRECORD
  5
36E
102
{ACAD_REACTORS
330
34F
102
}
330
34F
100
AcDbXrecord
 10
0.0
 20
0.0
 30
0.0
  0
XRECORD
  5
36A
102
{ACAD_REACTORS
330
34F
102
}
330
34F
100
AcDbXrecord
 10
0.0
 20
0.0
 30
0.0
  0
XRECORD
  5
36D
102
{ACAD_REACTORS
330
34F
102
}
330
34F
100
AcDbXrecord
 10
0.0
 20
0.0
 30
0.0
  0
XRECORD
  5
36B
102
{ACAD_REACTORS
330
34F
102
}
330
34F
100
AcDbXrecord
 10
0.0
 20
0.0
 30
0.0
  0
XRECORD
  5
36C
102
{ACAD_REACTORS
330
34F
102
}
330
34F
100
AcDbXrecord
 10
0.0
 20
0.0
 30
0.0
  0
XRECORD
  5
369
102
{ACAD_REACTORS
330
34F
102
}
330
34F
100
AcDbXrecord
 10
0.0
 20
0.0
 30
0.0
  0
XRECORD
  5
366
102
{ACAD_REACTORS
330
34F
102
}
330
34F
100
AcDbXrecord
340
0
  0
XRECORD
  5
367
102
{ACAD_REACTORS
330
34F
102
}
330
34F
100
AcDbXrecord
 70
     0
  0
XRECORD
  5
35B
102
{ACAD_REACTORS
330
34F
102
}
330
34F
100
AcDbXrecord
  1
{3DD02622-8DB6-11D6-88E6-0090279574E7}
  0
DICTIONARYVAR
  5
34D
102
{ACAD_REACTORS
330
34C
102
}
330
34C
100
DictionaryVariables
280
     0
  1
1
  0
ENDSEC
  0
EOF
