  0
SECTION
  2
HEADER
  9
$ACADVER
  1
AC1014
  9
$ACADMAINTVER
 70
     9
  9
$DWGCODEPAGE
  3
ANSI_1252
  9
$INSBASE
 10
5.648246963615486
 20
5.372507101453789
 30
0.0
  9
$EXTMIN
 10
3.905265384388343
 20
4.584904803424555
 30
0.0
  9
$EXTMAX
 10
7.390484706135477
 20
6.622507101453789
 30
0.0
  9
$LIMMIN
 10
0.0
 20
0.0
  9
$LIMMAX
 10
18.0
 20
12.0
  9
$ORTHOMODE
 70
     1
  9
$REGENMODE
 70
     1
  9
$FILLMODE
 70
     1
  9
$QTEXTMODE
 70
     0
  9
$MIRRTEXT
 70
     0
  9
$DRAGMODE
 70
     2
  9
$LTSCALE
 40
1.0
  9
$OSMODE
 70
    39
  9
$ATTMODE
 70
     1
  9
$TEXTSIZE
 40
0.125
  9
$TRACEWID
 40
0.05
  9
$TEXTSTYLE
  7
ROMANS
  9
$CLAYER
  8
0
  9
$CELTYPE
  6
BYLAYER
  9
$CECOLOR
 62
   256
  9
$CELTSCALE
 40
1.0
  9
$DELOBJ
 70
     1
  9
$DISPSILH
 70
     1
  9
$DIMSCALE
 40
1.0
  9
$DIMASZ
 40
0.125
  9
$DIMEXO
 40
0.125
  9
$DIMDLI
 40
0.375
  9
$DIMRND
 40
0.0
  9
$DIMDLE
 40
0.0
  9
$DIMEXE
 40
0.125
  9
$DIMTP
 40
0.0
  9
$DIMTM
 40
0.0
  9
$DIMTXT
 40
0.125
  9
$DIMCEN
 40
-0.125
  9
$DIMTSZ
 40
0.0
  9
$DIMTOL
 70
     0
  9
$DIMLIM
 70
     0
  9
$DIMTIH
 70
     1
  9
$DIMTOH
 70
     1
  9
$DIMSE1
 70
     0
  9
$DIMSE2
 70
     0
  9
$DIMTAD
 70
     0
  9
$DIMZIN
 70
     4
  9
$DIMBLK
  1

  9
$DIMASO
 70
     1
  9
$DIMSHO
 70
     1
  9
$DIMPOST
  1

  9
$DIMAPOST
  1

  9
$DIMALT
 70
     0
  9
$DIMALTD
 70
     2
  9
$DIMALTF
 40
25.4
  9
$DIMLFAC
 40
1.0
  9
$DIMTOFL
 70
     0
  9
$DIMTVP
 40
0.0
  9
$DIMTIX
 70
     1
  9
$DIMSOXD
 70
     0
  9
$DIMSAH
 70
     0
  9
$DIMBLK1
  1

  9
$DIMBLK2
  1

  9
$DIMSTYLE
  2
STANDARD
  9
$DIMCLRD
 70
     0
  9
$DIMCLRE
 70
     0
  9
$DIMCLRT
 70
     0
  9
$DIMTFAC
 40
1.0
  9
$DIMGAP
 40
0.09
  9
$DIMJUST
 70
     0
  9
$DIMSD1
 70
     0
  9
$DIMSD2
 70
     0
  9
$DIMTOLJ
 70
     1
  9
$DIMTZIN
 70
     4
  9
$DIMALTZ
 70
     0
  9
$DIMALTTZ
 70
     0
  9
$DIMFIT
 70
     3
  9
$DIMUPT
 70
     0
  9
$DIMUNIT
 70
     2
  9
$DIMDEC
 70
     3
  9
$DIMTDEC
 70
     3
  9
$DIMALTU
 70
     2
  9
$DIMALTTD
 70
     2
  9
$DIMTXSTY
  7
ROMANS
  9
$DIMAUNIT
 70
     0
  9
$LUNITS
 70
     2
  9
$LUPREC
 70
     3
  9
$SKETCHINC
 40
0.1
  9
$FILLETRAD
 40
0.03125
  9
$AUNITS
 70
     0
  9
$AUPREC
 70
     0
  9
$MENU
  1
ACAD
  9
$ELEVATION
 40
0.0
  9
$PELEVATION
 40
0.0
  9
$THICKNESS
 40
0.0
  9
$LIMCHECK
 70
     0
  9
$BLIPMODE
 70
     0
  9
$CHAMFERA
 40
0.0
  9
$CHAMFERB
 40
0.0
  9
$CHAMFERC
 40
0.0
  9
$CHAMFERD
 40
0.0
  9
$SKPOLY
 70
     0
  9
$TDCREATE
 40
2448994.568198495
  9
$TDUPDATE
 40
2452458.306557442
  9
$TDINDWG
 40
0.0030731366
  9
$TDUSRTIMER
 40
0.0030731366
  9
$USRTIMER
 70
     1
  9
$ANGBASE
 50
0.0
  9
$ANGDIR
 70
     0
  9
$PDMODE
 70
     0
  9
$PDSIZE
 40
0.0
  9
$PLINEWID
 40
0.0
  9
$COORDS
 70
     2
  9
$SPLFRAME
 70
     0
  9
$SPLINETYPE
 70
     6
  9
$SPLINESEGS
 70
     8
  9
$ATTDIA
 70
     0
  9
$ATTREQ
 70
     1
  9
$HANDLING
 70
 22529
  9
$HANDSEED
  5
7DE1B343D9E2199
  9
$SURFTAB1
 70
     6
  9
$SURFTAB2
 70
     6
  9
$SURFTYPE
 70
     6
  9
$SURFU
 70
     6
  9
$SURFV
 70
     6
  9
$UCSNAME
  2

  9
$UCSORG
 10
0.0
 20
0.0
 30
0.0
  9
$UCSXDIR
 10
1.0
 20
0.0
 30
0.0
  9
$UCSYDIR
 10
0.0
 20
1.0
 30
0.0
  9
$PUCSNAME
  2

  9
$PUCSORG
 10
0.0
 20
0.0
 30
0.0
  9
$PUCSXDIR
 10
1.0
 20
0.0
 30
0.0
  9
$PUCSYDIR
 10
0.0
 20
1.0
 30
0.0
  9
$USERI1
 70
     0
  9
$USERI2
 70
     0
  9
$USERI3
 70
     0
  9
$USERI4
 70
     0
  9
$USERI5
 70
     0
  9
$USERR1
 40
0.0
  9
$USERR2
 40
0.0
  9
$USERR3
 40
0.0
  9
$USERR4
 40
0.0
  9
$USERR5
 40
0.0
  9
$WORLDVIEW
 70
     1
  9
$SHADEDGE
 70
     3
  9
$SHADEDIF
 70
    70
  9
$TILEMODE
 70
     1
  9
$MAXACTVP
 70
    16
  9
$PINSBASE
 10
3.883823540466849
 20
50.00000000000001
 30
5.069852970858799
  9
$PLIMCHECK
 70
     0
  9
$PEXTMIN
 10
1.000000000000000E+20
 20
1.000000000000000E+20
 30
1.000000000000000E+20
  9
$PEXTMAX
 10
-1.000000000000000E+20
 20
-1.000000000000000E+20
 30
-1.000000000000000E+20
  9
$PLIMMIN
 10
0.0
 20
0.0
  9
$PLIMMAX
 10
12.0
 20
9.0
  9
$UNITMODE
 70
     0
  9
$VISRETAIN
 70
     0
  9
$PLINEGEN
 70
     1
  9
$PSLTSCALE
 70
     0
  9
$TREEDEPTH
 70
  3020
  9
$PICKSTYLE
 70
     1
  9
$CMLSTYLE
  2
STANDARD
  9
$CMLJUST
 70
     0
  9
$CMLSCALE
 40
1.0
  9
$PROXYGRAPHICS
 70
     1
  9
$MEASUREMENT
 70
     0
  0
ENDSEC
  0
SECTION
  2
CLASSES
  0
CLASS
  1
LWPOLYLINE
  2
AcDbPolyline
  3
AutoCAD 2000
 90
        0
280
     0
281
     1
  0
CLASS
  1
ACDBDICTIONARYWDFLT
  2
AcDbDictionaryWithDefault
  3
AutoCAD 2000
 90
        0
280
     0
281
     0
  0
CLASS
  1
ACDBPLACEHOLDER
  2
AcDbPlaceHolder
  3
AutoCAD 2000
 90
        0
280
     0
281
     0
  0
CLASS
  1
LAYOUT
  2
AcDbLayout
  3
AutoCAD 2000
 90
        0
280
     0
281
     0
  0
CLASS
  1
DICTIONARYVAR
  2
AcDbDictionaryVar
  3
AutoCAD 2000
 90
        0
280
     0
281
     0
  0
CLASS
  1
LONG_TRANSACTION
  2
AcDbLongTransaction
  3
AutoCAD 2000
 90
        0
280
     0
281
     0
  0
CLASS
  1
LWPOLYLINE
  2
AcDbPolyline
  3
AutoCAD 2000
 90
        0
280
     0
281
     1
  0
CLASS
  1
HATCH
  2
AcDbHatch
  3
AutoCAD 2000
 90
        0
280
     0
281
     1
  0
CLASS
  1
XRECORD
  2
AcDbXrecord
  3
AutoCAD 2000
 90
        0
280
     0
281
     0
  0
ENDSEC
  0
SECTION
  2
TABLES
  0
TABLE
  2
VPORT
  5
7DE1B343D9E2125
330
0
100
AcDbSymbolTable
 70
     2
  0
VPORT
  5
7DE1B343D9E2174
330
7DE1B343D9E2125
100
AcDbSymbolTableRecord
100
AcDbViewportTableRecord
  2
*ACTIVE
 70
     0
 10
0.0
 20
0.0
 11
1.0
 21
1.0
 12
8.647713161741513
 22
5.603576687634429
 13
0.0
 23
0.0
 14
0.015625
 24
0.015625
 15
0.0
 25
0.0
 16
0.0
 26
0.0
 36
1.0
 17
0.0
 27
0.0
 37
0.0
 40
2.30073162544344
 41
4.320930232558139
 42
50.0
 43
0.0
 44
0.0
 50
0.0
 51
0.0
 71
     0
 72
  2000
 73
     1
 74
     0
 75
     0
 76
     0
 77
     0
 78
     0
  0
ENDTAB
  0
TABLE
  2
LTYPE
  5
7DE1B343D9E2122
330
0
100
AcDbSymbolTable
 70
     1
  0
LTYPE
  5
7DE1B343D9E212F
330
7DE1B343D9E2122
100
AcDbSymbolTableRecord
100
AcDbLinetypeTableRecord
  2
BYBLOCK
 70
     0
  3

 72
    65
 73
     0
 40
0.0
  0
LTYPE
  5
7DE1B343D9E2130
330
7DE1B343D9E2122
100
AcDbSymbolTableRecord
100
AcDbLinetypeTableRecord
  2
BYLAYER
 70
     0
  3

 72
    65
 73
     0
 40
0.0
  0
LTYPE
  5
7DE1B343D9E2131
330
7DE1B343D9E2122
100
AcDbSymbolTableRecord
100
AcDbLinetypeTableRecord
  2
CONTINUOUS
 70
     0
  3
Solid line
 72
    65
 73
     0
 40
0.0
  0
ENDTAB
  0
TABLE
  2
LAYER
  5
7DE1B343D9E211F
330
0
100
AcDbSymbolTable
 70
     3
  0
LAYER
  5
7DE1B343D9E212C
330
7DE1B343D9E211F
100
AcDbSymbolTableRecord
100
AcDbLayerTableRecord
  2
0
 70
     0
 62
     7
  6
CONTINUOUS
  0
LAYER
  5
7DE1B343D9E213C
330
7DE1B343D9E211F
100
AcDbSymbolTableRecord
100
AcDbLayerTableRecord
  2
TEXT
 70
     0
 62
     3
  6
CONTINUOUS
  0
LAYER
  5
7DE1B343D9E214C
330
7DE1B343D9E211F
100
AcDbSymbolTableRecord
100
AcDbLayerTableRecord
  2
ASHADE
 70
     4
 62
     7
  6
CONTINUOUS
  0
ENDTAB
  0
TABLE
  2
STYLE
  5
7DE1B343D9E2120
330
0
100
AcDbSymbolTable
 70
     4
  0
STYLE
  5
7DE1B343D9E212D
330
7DE1B343D9E2120
100
AcDbSymbolTableRecord
100
AcDbTextStyleTableRecord
  2
STANDARD
 70
     0
 40
0.0
 41
1.0
 50
0.0
 71
     0
 42
0.3125
  3
txt
  4

  0
STYLE
  5
7DE1B343D9E2139
330
7DE1B343D9E2120
100
AcDbSymbolTableRecord
100
AcDbTextStyleTableRecord
  2
ITALICC
 70
     0
 40
0.0
 41
1.0
 50
0.0
 71
     0
 42
0.125
  3
italicc
  4

  0
STYLE
  5
7DE1B343D9E2149
330
7DE1B343D9E2120
100
AcDbSymbolTableRecord
100
AcDbTextStyleTableRecord
  2
ASHADE
 70
     0
 40
0.2
 41
1.0
 50
0.0
 71
     0
 42
0.3125
  3
simplex
  4

  0
STYLE
  5
7DE1B343D9E2164
330
7DE1B343D9E2120
100
AcDbSymbolTableRecord
100
AcDbTextStyleTableRecord
  2
ROMANS
 70
     0
 40
0.0
 41
1.0
 50
0.0
 71
     0
 42
0.125
  3
romans.shx
  4

  0
ENDTAB
  0
TABLE
  2
VIEW
  5
7DE1B343D9E2123
330
0
100
AcDbSymbolTable
 70
     0
  0
ENDTAB
  0
TABLE
  2
UCS
  5
7DE1B343D9E2124
330
0
100
AcDbSymbolTable
 70
     0
  0
ENDTAB
  0
TABLE
  2
APPID
  5
7DE1B343D9E2126
330
0
100
AcDbSymbolTable
 70
     6
  0
APPID
  5
7DE1B343D9E212E
330
7DE1B343D9E2126
100
AcDbSymbolTableRecord
100
AcDbRegAppTableRecord
  2
ACAD
 70
     0
  0
APPID
  5
7DE1B343D9E214A
330
7DE1B343D9E2126
100
AcDbSymbolTableRecord
100
AcDbRegAppTableRecord
  2
AVE_RENDER
 70
     0
  0
APPID
  5
7DE1B343D9E214B
330
7DE1B343D9E2126
100
AcDbSymbolTableRecord
100
AcDbRegAppTableRecord
  2
AVE_ENTITY_MATERIAL
 70
     0
  0
APPID
  5
7DE1B343D9E2158
330
7DE1B343D9E2126
100
AcDbSymbolTableRecord
100
AcDbRegAppTableRecord
  2
AVE_FINISH
 70
     0
  0
APPID
  5
7DE1B343D9E2159
330
7DE1B343D9E2126
100
AcDbSymbolTableRecord
100
AcDbRegAppTableRecord
  2
AVE_MATERIAL
 70
     0
  0
APPID
  5
7DE1B343D9E215A
330
7DE1B343D9E2126
100
AcDbSymbolTableRecord
100
AcDbRegAppTableRecord
  2
AVE_GLOBAL
 70
     0
  0
ENDTAB
  0
TABLE
  2
DIMSTYLE
  5
7DE1B343D9E2127
330
0
100
AcDbSymbolTable
 70
     1
  0
DIMSTYLE
105
7DE1B343D9E2141
330
7DE1B343D9E2127
100
AcDbSymbolTableRecord
100
AcDbDimStyleTableRecord
  2
STANDARD
 70
     0
  3

  4

  5

  6

  7

 40
1.0
 41
0.125
 42
0.125
 43
0.375
 44
0.125
 45
0.0
 46
0.0
 47
0.0
 48
0.0
140
0.125
141
-0.125
142
0.0
143
25.4
144
1.0
145
0.0
146
1.0
147
0.09
 71
     0
 72
     0
 73
     1
 74
     1
 75
     0
 76
     0
 77
     0
 78
     4
170
     0
171
     2
172
     0
173
     0
174
     1
175
     0
176
     0
177
     0
178
     0
270
     2
271
     3
272
     3
273
     2
274
     2
340
7DE1B343D9E2164
275
     0
280
     0
281
     0
282
     0
283
     1
284
     4
285
     0
286
     0
287
     3
288
     0
  0
ENDTAB
  0
TABLE
  2
BLOCK_RECORD
  5
7DE1B343D9E211E
330
0
100
AcDbSymbolTable
 70
     2
  0
BLOCK_RECORD
  5
7DE1B343D9E2135
102
{ACAD_XDICTIONARY
360
7DE1B343D9E2197
102
}
330
7DE1B343D9E211E
100
AcDbSymbolTableRecord
100
AcDbBlockTableRecord
  2
*MODEL_SPACE
  0
BLOCK_RECORD
  5
7DE1B343D9E2132
102
{ACAD_XDICTIONARY
360
7DE1B343D9E2195
102
}
330
7DE1B343D9E211E
100
AcDbSymbolTableRecord
100
AcDbBlockTableRecord
  2
*PAPER_SPACE
  0
BLOCK_RECORD
  5
7DE1B343D9E214D
330
7DE1B343D9E211E
100
AcDbSymbolTableRecord
100
AcDbBlockTableRecord
  2
AVE_RENDER
  0
BLOCK_RECORD
  5
7DE1B343D9E215B
330
7DE1B343D9E211E
100
AcDbSymbolTableRecord
100
AcDbBlockTableRecord
  2
AVE_GLOBAL
  0
ENDTAB
  0
ENDSEC
  0
SECTION
  2
BLOCKS
  0
BLOCK
  5
7DE1B343D9E213F
330
7DE1B343D9E2135
100
AcDbEntity
  8
0
100
AcDbBlockBegin
  2
*MODEL_SPACE
 70
     0
 10
0.0
 20
0.0
 30
0.0
  3
*MODEL_SPACE
  1

  0
ENDBLK
  5
7DE1B343D9E2140
330
7DE1B343D9E2135
100
AcDbEntity
  8
0
100
AcDbBlockEnd
  0
BLOCK
  5
7DE1B343D9E213D
330
7DE1B343D9E2132
100
AcDbEntity
 67
     1
  8
0
100
AcDbBlockBegin
  2
*PAPER_SPACE
 70
     0
 10
0.0
 20
0.0
 30
0.0
  3
*PAPER_SPACE
  1

  0
ENDBLK
  5
7DE1B343D9E213E
330
7DE1B343D9E2132
100
AcDbEntity
 67
     1
  8
0
100
AcDbBlockEnd
  0
BLOCK
  5
7DE1B343D9E214E
330
7DE1B343D9E214D
100
AcDbEntity
  8
0
100
AcDbBlockBegin
  2
AVE_RENDER
 70
     0
 10
0.0
 20
0.0
 30
0.0
  3
AVE_RENDER
  1
AVE_RENDER
  0
ENDBLK
  5
7DE1B343D9E214F
330
7DE1B343D9E214D
100
AcDbEntity
  8
0
100
AcDbBlockEnd
  0
BLOCK
  5
7DE1B343D9E215C
330
7DE1B343D9E215B
100
AcDbEntity
  8
0
100
AcDbBlockBegin
  2
AVE_GLOBAL
 70
     0
 10
0.0
 20
0.0
 30
0.0
  3
AVE_GLOBAL
  1
AVE_GLOBAL
  0
ENDBLK
  5
7DE1B343D9E215D
330
7DE1B343D9E215B
100
AcDbEntity
  8
0
100
AcDbBlockEnd
  0
ENDSEC
  0
SECTION
  2
ENTITIES
  0
LWPOLYLINE
  5
7DE1B343D9E0BB0
330
7DE1B343D9E2135
100
AcDbEntity
  8
0
100
AcDbPolyline
 90
       14
 70
     1
 43
0.0
 10
4.594120375878958
 20
5.435007101453789
 10
4.462392841052343
 20
5.435007101453789
 42
0.0067531206854311
 10
4.461137395978497
 20
5.402955819402508
 42
-0.9999999999999998
 10
4.398657945050234
 20
5.404558383505071
 42
-0.9746794344808964
 10
6.897835982180738
 20
5.404558383505071
 42
-0.9999999999999996
 10
6.835356531252475
 20
5.402955819402508
 42
0.0067531206854311
 10
6.834101086178628
 20
5.435007101453789
 10
6.702373551352014
 20
5.435007101453789
 42
-0.2679491924311238
 10
6.67531025748375
 20
5.450632101453789
 10
6.648246963615486
 20
5.497507101453789
 10
6.829149690346184
 20
5.497507101453789
 42
0.8997354108424374
 10
4.467344236884787
 20
5.497507101453789
 10
4.648246963615485
 20
5.497507101453789
 10
4.621183669747221
 20
5.450632101453789
 42
-0.2679491924311238
  0
TEXT
  5
7DE1B343D9E1FE0
330
7DE1B343D9E2135
100
AcDbEntity
  8
TEXT
100
AcDbText
 10
4.895270773139295
 20
5.042923407507136
 30
0.0
 40
0.125
  1
PART #110310
  7
ITALICC
 72
     1
 11
5.648246963615486
 21
5.042923407507136
 31
0.0
100
AcDbText
  0
TEXT
  5
7DE1B343D9E1FE1
330
7DE1B343D9E2135
100
AcDbEntity
  8
TEXT
100
AcDbText
 10
6.061552121865807
 20
4.59600076483476
 30
0.0
 40
0.0522247191011236
  1
Phone  1-800-328-2495
 41
1.272321428571429
 72
     5
 11
7.39048470613547
 21
4.59600076483476
 31
0.0
100
AcDbText
  0
TEXT
  5
7DE1B343D9E1FE2
330
7DE1B343D9E2135
100
AcDbEntity
  8
TEXT
100
AcDbText
 10
6.061552121865807
 20
4.875776045733637
 30
0.0
 40
0.0522247191011236
  1
Stylmark  Incorporated
 41
1.221428571428573
 72
     5
 11
7.39048470613547
 21
4.875776045733637
 31
0.0
100
AcDbText
  0
TEXT
  5
7DE1B343D9E1FE3
330
7DE1B343D9E2135
100
AcDbEntity
  8
TEXT
100
AcDbText
 10
6.061552121865807
 20
4.782517618767345
 30
0.0
 40
0.0522247191011236
  1
6536 Main St. N.E. * P.O. Box 32008
 41
0.8388932496075366
 72
     5
 11
7.39048470613547
 21
4.782517618767345
 31
0.0
100
AcDbText
  0
TEXT
  5
7DE1B343D9E1FE4
330
7DE1B343D9E2135
100
AcDbEntity
  8
TEXT
100
AcDbText
 10
6.061552121865807
 20
4.689259191801053
 30
0.0
 40
0.0522247191011236
  1
Minneapolis, MN 55432-0008
 41
1.11444212721585
 72
     5
 11
7.39048470613547
 21
4.689259191801053
 31
0.0
100
AcDbText
  0
LWPOLYLINE
  5
7DE1B343D9E1FE5
330
7DE1B343D9E2135
100
AcDbEntity
  8
TEXT
100
AcDbPolyline
 90
        3
 70
     0
 43
0.0006660908203125
 10
3.905598429798499
 20
4.709645527472195
 10
3.905598429798499
 20
4.596410088019068
 10
4.018833869251621
 20
4.596410088019068
  0
LWPOLYLINE
  5
7DE1B343D9E1FEA
330
7DE1B343D9E2135
100
AcDbEntity
  8
TEXT
100
AcDbPolyline
 90
        3
 70
     0
 43
0.0006660908203125
 10
3.932242062610996
 20
4.709645527472195
 10
3.932242062610996
 20
4.623053720831569
 10
4.018833869251621
 20
4.623053720831569
  0
LWPOLYLINE
  5
7DE1B343D9E1FEF
330
7DE1B343D9E2135
100
AcDbEntity
  8
TEXT
100
AcDbPolyline
 90
        2
 70
     0
 43
0.0001332181640625
 10
3.978868420032873
 20
4.719636889776881
 10
3.905598429798499
 20
4.709645527472195
  0
LWPOLYLINE
  5
7DE1B343D9E1FF3
330
7DE1B343D9E2135
100
AcDbEntity
  8
TEXT
100
AcDbPolyline
 90
        2
 70
     0
 43
0.0001332181640625
 10
3.932242062610996
 20
4.709645527472195
 10
3.992190236439124
 20
4.719636889776881
  0
LWPOLYLINE
  5
7DE1B343D9E1FF7
330
7DE1B343D9E2135
100
AcDbEntity
  8
TEXT
100
AcDbPolyline
 90
        2
 70
     0
 43
0.0001332181640625
 10
3.932242062610996
 20
4.623053720831569
 10
3.992190236439124
 20
4.683001894659694
  0
LWPOLYLINE
  5
7DE1B343D9E1FFB
330
7DE1B343D9E2135
100
AcDbEntity
  8
TEXT
100
AcDbPolyline
 90
        3
 70
     0
 43
0.0006660908203125
 10
4.018833869251621
 20
4.862846416144071
 10
3.905598429798499
 20
4.862846416144071
 10
3.905598429798499
 20
4.749610976690943
  0
LWPOLYLINE
  5
7DE1B343D9E2000
330
7DE1B343D9E2135
100
AcDbEntity
  8
TEXT
100
AcDbPolyline
 90
        3
 70
     0
 43
0.0006660908203125
 10
4.018833869251621
 20
4.83620278333157
 10
3.932242062610996
 20
4.83620278333157
 10
3.932242062610996
 20
4.749610976690943
  0
LWPOLYLINE
  5
7DE1B343D9E2005
330
7DE1B343D9E2135
100
AcDbEntity
  8
TEXT
100
AcDbPolyline
 90
        2
 70
     0
 43
0.0001332181640625
 10
3.932242062610996
 20
4.83620278333157
 10
3.992190236439122
 20
4.776254609503444
  0
LWPOLYLINE
  5
7DE1B343D9E2009
330
7DE1B343D9E2135
100
AcDbEntity
  8
TEXT
100
AcDbPolyline
 90
        2
 70
     0
 43
0.0001332181640625
 10
3.932242062610996
 20
4.749610976690943
 10
3.992190236439122
 20
4.739619614386255
  0
LWPOLYLINE
  5
7DE1B343D9E200D
330
7DE1B343D9E2135
100
AcDbEntity
  8
TEXT
100
AcDbPolyline
 90
        2
 70
     0
 43
0.0001332181640625
 10
3.905598429798499
 20
4.749610976690943
 10
3.978868420032873
 20
4.739619614386255
  0
LWPOLYLINE
  5
7DE1B343D9E2011
330
7DE1B343D9E2135
100
AcDbEntity
  8
TEXT
100
AcDbPolyline
 90
        2
 70
     0
 43
0.0006660908203125
 10
3.932242062610996
 20
4.709645527472195
 10
3.905598429798499
 20
4.709645527472195
  0
LWPOLYLINE
  5
7DE1B343D9E2015
330
7DE1B343D9E2135
100
AcDbEntity
  8
TEXT
100
AcDbPolyline
 90
        2
 70
     0
 43
0.0006660908203125
 10
3.932242062610996
 20
4.749610976690943
 10
3.905598429798499
 20
4.749610976690943
  0
LINE
  5
7DE1B343D9E2019
330
7DE1B343D9E2135
100
AcDbEntity
  8
TEXT
100
AcDbLine
 10
5.420788858924996
 20
4.798569721487302
 30
0.0
 11
5.313582585537707
 21
4.798569721487302
 31
0.0
  0
LINE
  5
7DE1B343D9E201A
330
7DE1B343D9E2135
100
AcDbEntity
  8
TEXT
100
AcDbLine
 10
5.449819757269475
 20
4.862846416144067
 30
0.0
 11
5.314987848052416
 21
4.862846416144067
 31
0.0
  0
ARC
  5
7DE1B343D9E201B
330
7DE1B343D9E2135
100
AcDbEntity
  8
TEXT
100
AcDbCircle
 10
5.374301944445733
 20
4.693609166881051
 30
0.0
 40
0.0676855811441166
100
AcDbArc
 50
90.0
 51
153.7768192527749
  0
LWPOLYLINE
  5
7DE1B343D9E201C
330
7DE1B343D9E2135
100
AcDbEntity
  8
TEXT
100
AcDbPolyline
 90
        2
 70
     0
 43
0.0
 10
5.312550090082897
 20
4.639864328105995
 42
0.2901071551932823
 10
5.355626022950533
 20
4.596373383155556
 42
5.328517124445801
  0
ARC
  5
7DE1B343D9E2020
330
7DE1B343D9E2135
100
AcDbEntity
  8
TEXT
100
AcDbCircle
 10
4.669170566774247
 20
4.656165774493606
 30
0.0
 40
0.0601160179737537
100
AcDbArc
 50
180.0000000000003
 51
264.0521544866073
  0
LINE
  5
7DE1B343D9E2021
330
7DE1B343D9E2135
100
AcDbEntity
  8
TEXT
100
AcDbLine
 10
4.672685922399795
 20
4.897234333738206
 30
0.0
 11
4.612643317555788
 21
4.897234333738206
 31
0.0
  0
ARC
  5
7DE1B343D9E2022
330
7DE1B343D9E2135
100
AcDbEntity
  8
TEXT
100
AcDbCircle
 10
4.436911564657276
 20
4.780758956697566
 30
0.0
 40
0.0820874594465043
100
AcDbArc
 50
90.0
 51
270.0
  0
LWPOLYLINE
  5
7DE1B343D9E2023
330
7DE1B343D9E2135
100
AcDbEntity
  8
TEXT
100
AcDbPolyline
 90
        2
 70
     0
 43
0.0001332181640625
 10
4.028825231556312
 20
4.789576425909691
 10
4.018833869251621
 20
4.862846416144071
  0
LWPOLYLINE
  5
7DE1B343D9E2027
330
7DE1B343D9E2135
100
AcDbEntity
  8
TEXT
100
AcDbPolyline
 90
        2
 70
     0
 43
0.0001332181640625
 10
4.018833869251621
 20
4.83620278333157
 10
4.028825231556312
 20
4.776254609503444
  0
LWPOLYLINE
  5
7DE1B343D9E202B
330
7DE1B343D9E2135
100
AcDbEntity
  8
TEXT
100
AcDbPolyline
 90
        3
 70
     0
 43
0.0006660908203125
 10
4.172034757923499
 20
4.749610976690943
 10
4.172034757923499
 20
4.862846416144071
 10
4.058799318470373
 20
4.862846416144071
  0
LWPOLYLINE
  5
7DE1B343D9E2030
330
7DE1B343D9E2135
100
AcDbEntity
  8
TEXT
100
AcDbPolyline
 90
        3
 70
     0
 43
0.0006660908203125
 10
4.145391125110998
 20
4.749610976690943
 10
4.145391125110998
 20
4.83620278333157
 10
4.058799318470373
 20
4.83620278333157
  0
LWPOLYLINE
  5
7DE1B343D9E2035
330
7DE1B343D9E2135
100
AcDbEntity
  8
TEXT
100
AcDbPolyline
 90
        2
 70
     0
 43
0.0001332181640625
 10
4.145391125110998
 20
4.83620278333157
 10
4.085442951282874
 20
4.776254609503444
  0
LWPOLYLINE
  5
7DE1B343D9E2039
330
7DE1B343D9E2135
100
AcDbEntity
  8
TEXT
100
AcDbPolyline
 90
        2
 70
     0
 43
0.0001332181640625
 10
4.058799318470373
 20
4.83620278333157
 10
4.048807956165684
 20
4.776254609503444
  0
LWPOLYLINE
  5
7DE1B343D9E203D
330
7DE1B343D9E2135
100
AcDbEntity
  8
TEXT
100
AcDbPolyline
 90
        2
 70
     0
 43
0.0001332181640625
 10
4.058799318470373
 20
4.862846416144071
 10
4.048807956165684
 20
4.789576425909691
  0
LWPOLYLINE
  5
7DE1B343D9E2041
330
7DE1B343D9E2135
100
AcDbEntity
  8
TEXT
100
AcDbPolyline
 90
        2
 70
     0
 43
0.0001332181640625
 10
4.098764767689123
 20
4.739619614386255
 10
4.172034757923499
 20
4.749610976690943
  0
LWPOLYLINE
  5
7DE1B343D9E2045
330
7DE1B343D9E2135
100
AcDbEntity
  8
TEXT
100
AcDbPolyline
 90
        2
 70
     0
 43
0.0001332181640625
 10
4.145391125110998
 20
4.749610976690943
 10
4.085442951282874
 20
4.739619614386255
  0
LWPOLYLINE
  5
7DE1B343D9E2049
330
7DE1B343D9E2135
100
AcDbEntity
  8
TEXT
100
AcDbPolyline
 90
        2
 70
     0
 43
0.0001332181640625
 10
4.172034757923499
 20
4.709645527472195
 10
4.098764767689123
 20
4.719636889776881
  0
LWPOLYLINE
  5
7DE1B343D9E204D
330
7DE1B343D9E2135
100
AcDbEntity
  8
TEXT
100
AcDbPolyline
 90
        2
 70
     0
 43
0.0001332181640625
 10
4.145391125110998
 20
4.709645527472195
 10
4.085442951282874
 20
4.719636889776881
  0
LWPOLYLINE
  5
7DE1B343D9E2051
330
7DE1B343D9E2135
100
AcDbEntity
  8
TEXT
100
AcDbPolyline
 90
        2
 70
     0
 43
0.0001332181640625
 10
4.145391125110998
 20
4.623053720831569
 10
4.085442951282874
 20
4.683001894659694
  0
LWPOLYLINE
  5
7DE1B343D9E2055
330
7DE1B343D9E2135
100
AcDbEntity
  8
TEXT
100
AcDbPolyline
 90
        3
 70
     0
 43
0.0006660908203125
 10
4.058799318470373
 20
4.623053720831569
 10
4.145391125110998
 20
4.623053720831569
 10
4.145391125110998
 20
4.709645527472195
  0
LWPOLYLINE
  5
7DE1B343D9E205A
330
7DE1B343D9E2135
100
AcDbEntity
  8
TEXT
100
AcDbPolyline
 90
        3
 70
     0
 43
0.0006660908203125
 10
4.058799318470373
 20
4.596410088019068
 10
4.172034757923499
 20
4.596410088019068
 10
4.172034757923499
 20
4.709645527472195
  0
LWPOLYLINE
  5
7DE1B343D9E205F
330
7DE1B343D9E2135
100
AcDbEntity
  8
TEXT
100
AcDbPolyline
 90
        5
 70
     0
 43
0.0001332181640625
 10
4.028825231556312
 20
4.669680078253444
 10
4.028825231556312
 20
4.683001894659694
 10
3.992190236439124
 20
4.683001894659694
 10
3.992190236439124
 20
4.719636889776881
 10
3.978868420032873
 20
4.719636889776881
  0
LWPOLYLINE
  5
7DE1B343D9E2066
330
7DE1B343D9E2135
100
AcDbEntity
  8
TEXT
100
AcDbPolyline
 90
        2
 70
     0
 43
0.0006660908203125
 10
4.018833869251621
 20
4.623053720831569
 10
4.018833869251621
 20
4.596410088019068
  0
LWPOLYLINE
  5
7DE1B343D9E206A
330
7DE1B343D9E2135
100
AcDbEntity
  8
TEXT
100
AcDbPolyline
 90
        2
 70
     0
 43
0.0001332181640625
 10
4.018833869251621
 20
4.623053720831569
 10
4.028825231556312
 20
4.683001894659694
  0
LWPOLYLINE
  5
7DE1B343D9E206E
330
7DE1B343D9E2135
100
AcDbEntity
  8
TEXT
100
AcDbPolyline
 90
        2
 70
     0
 43
0.0001332181640625
 10
4.018833869251621
 20
4.596410088019068
 10
4.028825231556312
 20
4.669680078253444
  0
LWPOLYLINE
  5
7DE1B343D9E2072
330
7DE1B343D9E2135
100
AcDbEntity
  8
TEXT
100
AcDbPolyline
 90
        5
 70
     0
 43
0.0001332181640625
 10
3.978868420032873
 20
4.739619614386255
 10
3.992190236439122
 20
4.739619614386255
 10
3.992190236439122
 20
4.776254609503444
 10
4.028825231556312
 20
4.776254609503444
 10
4.028825231556312
 20
4.789576425909691
  0
LWPOLYLINE
  5
7DE1B343D9E2079
330
7DE1B343D9E2135
100
AcDbEntity
  8
TEXT
100
AcDbPolyline
 90
        5
 70
     0
 43
0.0001332181640625
 10
4.048807956165684
 20
4.789576425909691
 10
4.048807956165684
 20
4.776254609503444
 10
4.085442951282874
 20
4.776254609503444
 10
4.085442951282874
 20
4.739619614386255
 10
4.098764767689123
 20
4.739619614386255
  0
LWPOLYLINE
  5
7DE1B343D9E2080
330
7DE1B343D9E2135
100
AcDbEntity
  8
TEXT
100
AcDbPolyline
 90
        2
 70
     0
 43
0.0001332181640625
 10
4.058799318470373
 20
4.623053720831569
 10
4.048807956165684
 20
4.683001894659694
  0
LWPOLYLINE
  5
7DE1B343D9E2084
330
7DE1B343D9E2135
100
AcDbEntity
  8
TEXT
100
AcDbPolyline
 90
        2
 70
     0
 43
0.0001332181640625
 10
4.048807956165684
 20
4.669680078253444
 10
4.058799318470373
 20
4.596410088019068
  0
LWPOLYLINE
  5
7DE1B343D9E2088
330
7DE1B343D9E2135
100
AcDbEntity
  8
TEXT
100
AcDbPolyline
 90
        2
 70
     0
 43
0.0006660908203125
 10
4.058799318470373
 20
4.623053720831569
 10
4.058799318470373
 20
4.596410088019068
  0
LWPOLYLINE
  5
7DE1B343D9E208C
330
7DE1B343D9E2135
100
AcDbEntity
  8
TEXT
100
AcDbPolyline
 90
        5
 70
     0
 43
0.0001332181640625
 10
4.098764767689123
 20
4.719636889776881
 10
4.085442951282874
 20
4.719636889776881
 10
4.085442951282874
 20
4.683001894659694
 10
4.048807956165684
 20
4.683001894659694
 10
4.048807956165684
 20
4.669680078253444
  0
LWPOLYLINE
  5
7DE1B343D9E2093
330
7DE1B343D9E2135
100
AcDbEntity
  8
TEXT
100
AcDbPolyline
 90
        2
 70
     0
 43
0.0006660908203125
 10
4.145391125110998
 20
4.749610976690943
 10
4.172034757923499
 20
4.749610976690943
  0
LWPOLYLINE
  5
7DE1B343D9E2097
330
7DE1B343D9E2135
100
AcDbEntity
  8
TEXT
100
AcDbPolyline
 90
        2
 70
     0
 43
0.0006660908203125
 10
4.145391125110998
 20
4.709645527472195
 10
4.172034757923499
 20
4.709645527472195
  0
LINE
  5
7DE1B343D9E209B
330
7DE1B343D9E2135
100
AcDbEntity
  8
TEXT
100
AcDbLine
 10
4.442148894771523
 20
4.798569721487302
 30
0.0
 11
4.609054548800495
 21
4.798569721487302
 31
0.0
  0
LINE
  5
7DE1B343D9E209C
330
7DE1B343D9E2135
100
AcDbEntity
  8
TEXT
100
AcDbLine
 10
4.507749031015825
 20
4.762764999876674
 30
0.0
 11
4.442148894771523
 21
4.762764999876674
 31
0.0
  0
LINE
  5
7DE1B343D9E209D
330
7DE1B343D9E2135
100
AcDbEntity
  8
TEXT
100
AcDbLine
 10
4.354824105210772
 20
4.596373383155556
 30
0.0
 11
4.507749031015825
 21
4.596373383155556
 31
0.0
  0
LINE
  5
7DE1B343D9E209E
330
7DE1B343D9E2135
100
AcDbEntity
  8
TEXT
100
AcDbLine
 10
4.512689404922104
 20
4.664730389488996
 30
0.0
 11
4.35482410521077
 21
4.664730389488996
 31
0.0
  0
LINE
  5
7DE1B343D9E209F
330
7DE1B343D9E2135
100
AcDbEntity
  8
TEXT
100
AcDbLine
 10
4.436911564657275
 20
4.69867149725106
 30
0.0
 11
4.512689404922104
 21
4.69867149725106
 31
0.0
  0
ARC
  5
7DE1B343D9E20A0
330
7DE1B343D9E2135
100
AcDbEntity
  8
TEXT
100
AcDbCircle
 10
4.442148894771524
 20
4.78066736068199
 30
0.0
 40
0.017902360805315
100
AcDbArc
 50
90.0
 51
270.0
  0
LINE
  5
7DE1B343D9E20A1
330
7DE1B343D9E2135
100
AcDbEntity
  8
TEXT
100
AcDbLine
 10
4.35482410521077
 20
4.664730389488996
 30
0.0
 11
4.354824105210772
 21
4.596373383155556
 31
0.0
  0
LINE
  5
7DE1B343D9E20A2
330
7DE1B343D9E2135
100
AcDbEntity
  8
TEXT
100
AcDbLine
 10
4.609054548800495
 20
4.798569721487302
 30
0.0
 11
4.609054548800495
 21
4.656165774493606
 31
0.0
  0
ARC
  5
7DE1B343D9E20A3
330
7DE1B343D9E2135
100
AcDbEntity
  8
TEXT
100
AcDbCircle
 10
4.507749031015825
 20
4.679569191516113
 30
0.0
 40
0.0831958083605586
100
AcDbArc
 50
270.0
 51
90.0
  0
ARC
  5
7DE1B343D9E20A4
330
7DE1B343D9E2135
100
AcDbEntity
  8
TEXT
100
AcDbCircle
 10
4.512689404922105
 20
4.68170094337003
 30
0.0
 40
0.0169705538810321
100
AcDbArc
 50
270.0
 51
90.0
  0
LWPOLYLINE
  5
7DE1B343D9E20A5
330
7DE1B343D9E2135
100
AcDbEntity
  8
TEXT
100
AcDbPolyline
 90
        2
 70
     0
 43
0.0006660908203125
 10
4.018833869251621
 20
4.83620278333157
 10
4.018833869251621
 20
4.862846416144071
  0
LWPOLYLINE
  5
7DE1B343D9E20A9
330
7DE1B343D9E2135
100
AcDbEntity
  8
TEXT
100
AcDbPolyline
 90
        2
 70
     0
 43
0.0006660908203125
 10
4.058799318470373
 20
4.83620278333157
 10
4.058799318470373
 20
4.862846416144071
  0
LINE
  5
7DE1B343D9E20AD
330
7DE1B343D9E2135
100
AcDbEntity
  8
TEXT
100
AcDbLine
 10
4.612643317555788
 20
4.862846416144067
 30
0.0
 11
4.436911564657275
 21
4.862846416144067
 31
0.0
  0
LINE
  5
7DE1B343D9E20AE
330
7DE1B343D9E2135
100
AcDbEntity
  8
TEXT
100
AcDbLine
 10
4.612643317555788
 20
4.897234333738206
 30
0.0
 11
4.612643317555788
 21
4.862846416144067
 31
0.0
  0
LINE
  5
7DE1B343D9E20AF
330
7DE1B343D9E2135
100
AcDbEntity
  8
TEXT
100
AcDbLine
 10
4.80311520957564
 20
4.761974420030947
 30
0.0
 11
4.744484888543702
 21
4.862846416144067
 31
0.0
  0
LINE
  5
7DE1B343D9E20B0
330
7DE1B343D9E2135
100
AcDbEntity
  8
TEXT
100
AcDbLine
 10
4.861863772381505
 20
4.862846416144067
 30
0.0
 11
4.80311520957564
 21
4.761974420030947
 31
0.0
  0
LINE
  5
7DE1B343D9E20B1
330
7DE1B343D9E2135
100
AcDbEntity
  8
TEXT
100
AcDbLine
 10
4.958794397741247
 20
4.678761221258556
 30
0.0
 11
4.958794397741247
 21
4.930857893882878
 31
0.0
  0
LINE
  5
7DE1B343D9E20B2
330
7DE1B343D9E2135
100
AcDbEntity
  8
TEXT
100
AcDbLine
 10
4.991106251878907
 20
4.862846416144067
 30
0.0
 11
4.991106251878907
 21
4.661982209411659
 31
0.0
  0
LINE
  5
7DE1B343D9E20B3
330
7DE1B343D9E2135
100
AcDbEntity
  8
TEXT
100
AcDbLine
 10
4.991106251878907
 20
4.661982209411659
 30
0.0
 11
4.974112614994306
 21
4.661982209411659
 31
0.0
  0
LINE
  5
7DE1B343D9E20B4
330
7DE1B343D9E2135
100
AcDbEntity
  8
TEXT
100
AcDbLine
 10
4.959933971237441
 20
4.596373383155556
 30
0.0
 11
5.057937304936876
 21
4.596373383155556
 31
0.0
  0
LINE
  5
7DE1B343D9E20B5
330
7DE1B343D9E2135
100
AcDbEntity
  8
TEXT
100
AcDbLine
 10
4.793514972578686
 20
4.616331889260569
 30
0.0
 11
4.89081467867213
 21
4.780682100195837
 31
0.0
  0
ARC
  5
7DE1B343D9E20B6
330
7DE1B343D9E2135
100
AcDbEntity
  8
TEXT
100
AcDbCircle
 10
4.759471412666472
 20
4.635921105429252
 30
0.0
 40
0.0392772371940762
100
AcDbArc
 50
270.1604552698595
 51
330.0831797321295
  0
LINE
  5
7DE1B343D9E20B7
330
7DE1B343D9E2135
100
AcDbEntity
  8
TEXT
100
AcDbLine
 10
4.6629411562806
 20
4.596373383155556
 30
0.0
 11
4.759581407355595
 21
4.596644022253839
 31
0.0
  0
LWPOLYLINE
  5
7DE1B343D9E20B8
330
7DE1B343D9E2135
100
AcDbEntity
  8
TEXT
100
AcDbPolyline
 90
        6
 70
     1
 43
0.0
 10
4.70546495985575
 20
4.798569721487302
 10
4.675148365635542
 20
4.798569721487302
 10
4.675148365635542
 20
4.675458723432408
 42
0.407328721240804
 10
4.686692016797018
 20
4.663639808756022
 10
4.747313715841749
 20
4.663639808756022
 10
4.764779056249067
 20
4.696452037799501
  0
LINE
  5
7DE1B343D9E20C0
330
7DE1B343D9E2135
100
AcDbEntity
  8
TEXT
100
AcDbLine
 10
4.89081467867213
 20
4.780682100195837
 30
0.0
 11
4.89081467867213
 21
4.647924725370481
 31
0.0
  0
ARC
  5
7DE1B343D9E20C1
330
7DE1B343D9E2135
100
AcDbEntity
  8
TEXT
100
AcDbCircle
 10
4.974112614994304
 20
4.677364015655085
 30
0.0
 40
0.0153818062434269
100
AcDbArc
 50
174.7883570302258
 51
270.0
  0
LWPOLYLINE
  5
7DE1B343D9E20C2
330
7DE1B343D9E2135
100
AcDbEntity
  8
TEXT
100
AcDbPolyline
 90
        2
 70
     0
 43
0.0
 10
4.890814678672128
 20
4.647924725370485
 42
0.3318488747599744
 10
4.959933971237441
 20
4.596373383155556
 42
-6.868794160588311
  0
LINE
  5
7DE1B343D9E20C6
330
7DE1B343D9E2135
100
AcDbEntity
  8
TEXT
100
AcDbLine
 10
5.115326373926137
 20
4.596373383155556
 30
0.0
 11
5.182384420707977
 21
4.596373383155556
 31
0.0
  0
LINE
  5
7DE1B343D9E20C7
330
7DE1B343D9E2135
100
AcDbEntity
  8
TEXT
100
AcDbLine
 10
5.115326373926137
 20
4.791015932321192
 30
0.0
 11
5.115326373926137
 21
4.596373383155556
 31
0.0
  0
LINE
  5
7DE1B343D9E20C8
330
7DE1B343D9E2135
100
AcDbEntity
  8
TEXT
100
AcDbLine
 10
5.057937304936876
 20
4.798569721487302
 30
0.0
 11
5.107772584760024
 21
4.798569721487302
 31
0.0
  0
LINE
  5
7DE1B343D9E20C9
330
7DE1B343D9E2135
100
AcDbEntity
  8
TEXT
100
AcDbLine
 10
5.057937304936876
 20
4.596373383155556
 30
0.0
 11
5.057937304936876
 21
4.798569721487302
 31
0.0
  0
LWPOLYLINE
  5
7DE1B343D9E20CA
330
7DE1B343D9E2135
100
AcDbEntity
  8
TEXT
100
AcDbPolyline
 90
        2
 70
     0
 43
0.0
 10
5.107772584760022
 20
4.798569721487302
 42
-0.4142135623731017
 10
5.115326373926135
 20
4.791015932321192
 42
-0.9999999999999998
  0
LINE
  5
7DE1B343D9E20CE
330
7DE1B343D9E2135
100
AcDbEntity
  8
TEXT
100
AcDbLine
 10
5.313582585537707
 20
4.798569721487302
 30
0.0
 11
5.313582585537707
 21
4.723517315413095
 31
0.0
  0
LINE
  5
7DE1B343D9E20CF
330
7DE1B343D9E2135
100
AcDbEntity
  8
TEXT
100
AcDbLine
 10
5.182384420707977
 20
4.798569721487302
 30
0.0
 11
5.236518017628927
 21
4.798569721487302
 31
0.0
  0
LINE
  5
7DE1B343D9E20D0
330
7DE1B343D9E2135
100
AcDbEntity
  8
TEXT
100
AcDbLine
 10
5.182384420707977
 20
4.596373383155556
 30
0.0
 11
5.182384420707977
 21
4.798569721487302
 31
0.0
  0
LWPOLYLINE
  5
7DE1B343D9E20D1
330
7DE1B343D9E2135
100
AcDbEntity
  8
TEXT
100
AcDbPolyline
 90
        2
 70
     0
 43
0.0
 10
5.236518017628926
 20
4.798569721487302
 42
-0.4142135623731017
 10
5.244071806795039
 20
4.791015932321192
 42
-0.9999999999999998
  0
LWPOLYLINE
  5
7DE1B343D9E20D5
330
7DE1B343D9E2135
100
AcDbEntity
  8
TEXT
100
AcDbPolyline
 90
        4
 70
     0
 43
0.0
 10
5.244071806795039
 20
4.791015932321192
 10
5.244071806795039
 20
4.596373383155556
 10
5.312550090082897
 20
4.596373383155556
 10
5.312550090082897
 20
4.639864328105995
 42
-1.714843617202739
  0
LINE
  5
7DE1B343D9E20DB
330
7DE1B343D9E2135
100
AcDbEntity
  8
TEXT
100
AcDbLine
 10
4.672685922399795
 20
4.862846416144067
 30
0.0
 11
4.672685922399795
 21
4.897234333738206
 31
0.0
  0
LINE
  5
7DE1B343D9E20DC
330
7DE1B343D9E2135
100
AcDbEntity
  8
TEXT
100
AcDbLine
 10
4.744484888543702
 20
4.862846416144067
 30
0.0
 11
4.672685922399795
 21
4.862846416144067
 31
0.0
  0
LINE
  5
7DE1B343D9E20DD
330
7DE1B343D9E2135
100
AcDbEntity
  8
TEXT
100
AcDbLine
 10
4.891985685174882
 20
4.862846416144067
 30
0.0
 11
4.861863772381505
 21
4.862846416144067
 31
0.0
  0
LINE
  5
7DE1B343D9E20DE
330
7DE1B343D9E2135
100
AcDbEntity
  8
TEXT
100
AcDbLine
 10
4.891985685174882
 20
4.930857893882878
 30
0.0
 11
4.891985685174882
 21
4.862846416144067
 31
0.0
  0
LINE
  5
7DE1B343D9E20DF
330
7DE1B343D9E2135
100
AcDbEntity
  8
TEXT
100
AcDbLine
 10
4.958794397741247
 20
4.930857893882878
 30
0.0
 11
4.891985685174882
 21
4.930857893882878
 31
0.0
  0
LWPOLYLINE
  5
7DE1B343D9E20E0
330
7DE1B343D9E2135
100
AcDbEntity
  8
TEXT
100
AcDbPolyline
 90
        3
 70
     0
 43
0.0
 10
5.279206157339249
 20
4.862846416144071
 10
5.160905998523205
 20
4.862846416144071
 10
5.160905998523205
 20
4.835678919383175
 42
-1.960274751411753
  0
LINE
  5
7DE1B343D9E20E5
330
7DE1B343D9E2135
100
AcDbEntity
  8
TEXT
100
AcDbLine
 10
5.125124307810043
 20
4.862846416144067
 30
0.0
 11
4.991106251878907
 21
4.862846416144067
 31
0.0
  0
LWPOLYLINE
  5
7DE1B343D9E20E6
330
7DE1B343D9E2135
100
AcDbEntity
  8
TEXT
100
AcDbPolyline
 90
        2
 70
     0
 43
0.0
 10
5.125124307810043
 20
4.862846416144071
 42
-0.3328679258950098
 10
5.160905998523205
 20
4.835678919383175
 42
6.772930709997214
  0
LINE
  5
7DE1B343D9E20EA
330
7DE1B343D9E2135
100
AcDbEntity
  8
TEXT
100
AcDbLine
 10
5.314987848052416
 20
4.862846416144067
 30
0.0
 11
5.314987848052416
 21
4.834523870374423
 31
0.0
  0
LWPOLYLINE
  5
7DE1B343D9E20EB
330
7DE1B343D9E2135
100
AcDbEntity
  8
TEXT
100
AcDbPolyline
 90
        2
 70
     0
 43
0.0
 10
5.279206157339249
 20
4.862846416144071
 42
-0.3277054968067132
 10
5.314987848052414
 20
4.834523870374427
 42
6.667889725900311
  0
LINE
  5
7DE1B343D9E20EF
330
7DE1B343D9E2135
100
AcDbEntity
  8
TEXT
100
AcDbLine
 10
5.528779696144516
 20
4.75763443759064
 30
0.0
 11
5.485028924962614
 21
4.839884713586785
 31
0.0
  0
LINE
  5
7DE1B343D9E20F0
330
7DE1B343D9E2135
100
AcDbEntity
  8
TEXT
100
AcDbLine
 10
5.528779696144516
 20
4.862846416144067
 30
0.0
 11
5.528779696144516
 21
4.75763443759064
 31
0.0
  0
LINE
  5
7DE1B343D9E20F1
330
7DE1B343D9E2135
100
AcDbEntity
  8
TEXT
100
AcDbLine
 10
5.756463435082885
 20
4.786981089732529
 30
0.0
 11
5.756463435082885
 21
4.928310621911668
 31
0.0
  0
LINE
  5
7DE1B343D9E20F2
330
7DE1B343D9E2135
100
AcDbEntity
  8
TEXT
100
AcDbLine
 10
5.803561593638869
 20
4.862846416144067
 30
0.0
 11
5.756463435082885
 21
4.786981089732529
 31
0.0
  0
LINE
  5
7DE1B343D9E20F3
330
7DE1B343D9E2135
100
AcDbEntity
  8
TEXT
100
AcDbLine
 10
5.813996310402792
 20
4.752953173203094
 30
0.0
 11
5.878553426368497
 21
4.862846416144067
 31
0.0
  0
LINE
  5
7DE1B343D9E20F4
330
7DE1B343D9E2135
100
AcDbEntity
  8
TEXT
100
AcDbLine
 10
5.692628443860112
 20
4.596373383155556
 30
0.0
 11
5.757006628178732
 21
4.596373383155556
 31
0.0
  0
LWPOLYLINE
  5
7DE1B343D9E20F5
330
7DE1B343D9E2135
100
AcDbEntity
  8
TEXT
100
AcDbPolyline
 90
        2
 70
     0
 43
0.0
 10
5.532719373449554
 20
4.639864328105995
 42
-0.2901071551932486
 10
5.489643440581909
 20
4.596373383155556
 42
-5.328517124445184
  0
ARC
  5
7DE1B343D9E20F9
330
7DE1B343D9E2135
100
AcDbEntity
  8
TEXT
100
AcDbCircle
 10
5.420788858924995
 20
4.770210346487305
 30
0.0
 40
0.028359375
100
AcDbArc
 50
25.78218179591245
 51
90.0
  0
LINE
  5
7DE1B343D9E20FA
330
7DE1B343D9E2135
100
AcDbEntity
  8
TEXT
100
AcDbLine
 10
5.456589934229118
 20
4.76129474802517
 30
0.0
 11
5.446325173815553
 21
4.782545287597864
 31
0.0
  0
LINE
  5
7DE1B343D9E20FB
330
7DE1B343D9E2135
100
AcDbEntity
  8
TEXT
100
AcDbLine
 10
5.374301944445734
 20
4.76129474802517
 30
0.0
 11
5.456589934229118
 21
4.76129474802517
 31
0.0
  0
LWPOLYLINE
  5
7DE1B343D9E20FC
330
7DE1B343D9E2135
100
AcDbEntity
  8
TEXT
100
AcDbPolyline
 90
        4
 70
     1
 43
0.0
 10
5.469520975512017
 20
4.699337361139582
 10
5.380860656852158
 20
4.699337361139582
 42
0.9999999999999998
 10
5.380860656852158
 20
4.656938820635721
 10
5.469520975512017
 20
4.656938820635721
 42
1.0
  0
LWPOLYLINE
  5
7DE1B343D9E2102
330
7DE1B343D9E2135
100
AcDbEntity
  8
TEXT
100
AcDbPolyline
 90
        2
 70
     0
 43
0.0
 10
5.355626022950533
 20
4.596373383155556
 10
5.489643440581909
 20
4.596373383155556
 42
0.9999999999999998
  0
LINE
  5
7DE1B343D9E2106
330
7DE1B343D9E2135
100
AcDbEntity
  8
TEXT
100
AcDbLine
 10
5.615980462567549
 20
4.798569721487302
 30
0.0
 11
5.692628443860106
 21
4.798569721487302
 31
0.0
  0
LINE
  5
7DE1B343D9E2107
330
7DE1B343D9E2135
100
AcDbEntity
  8
TEXT
100
AcDbLine
 10
5.692628443860106
 20
4.798569721487302
 30
0.0
 11
5.692628443860112
 21
4.596373383155556
 31
0.0
  0
ARC
  5
7DE1B343D9E2108
330
7DE1B343D9E2135
100
AcDbEntity
  8
TEXT
100
AcDbCircle
 10
5.615980462567547
 20
4.773663846204639
 30
0.0
 40
0.0249058752826653
100
AcDbArc
 50
89.99971217465335
 51
179.9999999999985
  0
LINE
  5
7DE1B343D9E2109
330
7DE1B343D9E2135
100
AcDbEntity
  8
TEXT
100
AcDbLine
 10
5.591074587284889
 20
4.596373383155556
 30
0.0
 11
5.591074587284884
 21
4.773663888587025
 31
0.0
  0
LWPOLYLINE
  5
7DE1B343D9E210A
330
7DE1B343D9E2135
100
AcDbEntity
  8
TEXT
100
AcDbPolyline
 90
        2
 70
     0
 43
0.0
 10
5.532719373449554
 20
4.596373383155556
 10
5.591074587284888
 20
4.596373383155556
  0
LWPOLYLINE
  5
7DE1B343D9E210E
330
7DE1B343D9E2135
100
AcDbEntity
  8
TEXT
100
AcDbPolyline
 90
        2
 70
     0
 43
0.0
 10
5.532719373449554
 20
4.639864328105995
 10
5.532719373449554
 20
4.596373383155556
  0
LINE
  5
7DE1B343D9E2112
330
7DE1B343D9E2135
100
AcDbEntity
  8
TEXT
100
AcDbLine
 10
5.909488533766403
 20
4.596373383155556
 30
0.0
 11
5.813996310402792
 21
4.752953173203094
 31
0.0
  0
LINE
  5
7DE1B343D9E2113
330
7DE1B343D9E2135
100
AcDbEntity
  8
TEXT
100
AcDbLine
 10
5.832910161390197
 20
4.596373383155556
 30
0.0
 11
5.909488533766403
 21
4.596373383155556
 31
0.0
  0
LINE
  5
7DE1B343D9E2114
330
7DE1B343D9E2135
100
AcDbEntity
  8
TEXT
100
AcDbLine
 10
5.757006628178732
 20
4.727952951631737
 30
0.0
 11
5.832910161390197
 21
4.596373383155556
 31
0.0
  0
LINE
  5
7DE1B343D9E2115
330
7DE1B343D9E2135
100
AcDbEntity
  8
TEXT
100
AcDbLine
 10
5.757006628178732
 20
4.596373383155556
 30
0.0
 11
5.757006628178732
 21
4.727952951631737
 31
0.0
  0
LINE
  5
7DE1B343D9E2116
330
7DE1B343D9E2135
100
AcDbEntity
  8
TEXT
100
AcDbLine
 10
5.756463435082885
 20
4.928310621911668
 30
0.0
 11
5.688148556533612
 21
4.928310621911668
 31
0.0
  0
ARC
  5
7DE1B343D9E2117
330
7DE1B343D9E2135
100
AcDbEntity
  8
TEXT
100
AcDbCircle
 10
5.447792817492405
 20
4.821262849023165
 30
0.0
 40
0.0416329381542859
100
AcDbArc
 50
26.56974201007528
 51
87.20939649401342
  0
LINE
  5
7DE1B343D9E2118
330
7DE1B343D9E2135
100
AcDbEntity
  8
TEXT
100
AcDbLine
 10
5.592676602444017
 20
4.862846416144067
 30
0.0
 11
5.528779696144516
 21
4.862846416144067
 31
0.0
  0
LINE
  5
7DE1B343D9E2119
330
7DE1B343D9E2135
100
AcDbEntity
  8
TEXT
100
AcDbLine
 10
5.592676602444017
 20
4.835298766283193
 30
0.0
 11
5.592676602444017
 21
4.862846416144067
 31
0.0
  0
ARC
  5
7DE1B343D9E211A
330
7DE1B343D9E2135
100
AcDbEntity
  8
TEXT
100
AcDbCircle
 10
5.623869419507125
 20
4.831600688861803
 30
0.0
 40
0.0314112657011332
100
AcDbArc
 50
95.88484768694724
 51
173.2388340632136
  0
LINE
  5
7DE1B343D9E211B
330
7DE1B343D9E2135
100
AcDbEntity
  8
TEXT
100
AcDbLine
 10
5.688148556533606
 20
4.862846416144067
 30
0.0
 11
5.62064883888409
 21
4.862846416144067
 31
0.0
  0
LINE
  5
7DE1B343D9E211C
330
7DE1B343D9E2135
100
AcDbEntity
  8
TEXT
100
AcDbLine
 10
5.688148556533612
 20
4.928310621911668
 30
0.0
 11
5.688148556533606
 21
4.862846416144067
 31
0.0
  0
LINE
  5
7DE1B343D9E211D
330
7DE1B343D9E2135
100
AcDbEntity
  8
TEXT
100
AcDbLine
 10
5.878553426368497
 20
4.862846416144067
 30
0.0
 11
5.803561593638871
 21
4.862846416144067
 31
0.0
  0
INSERT
  5
7DE1B343D9E2150
330
7DE1B343D9E2135
100
AcDbEntity
  8
ASHADE
 62
     1
100
AcDbBlockReference
  2
AVE_RENDER
 10
0.0
 20
0.0
 30
0.0
1001
AVE_RENDER
1002
{
1070
     6
1000
Pref
1070
    30
1070
    20
1070
     1
1070
     0
1000

1070
    10
1070
     1
1070
    30
1040
1.0
1070
     1
1040
0.3
1040
0.7
1040
0.0
1040
10.0
1010
-1.0
1020
-1.0
1030
-1.0
1040
0.3
1070
    49
1070
     0
1070
     0
1010
1.0
1020
1.0
1030
1.0
1040
45.0
1070
     1
1070
     0
1000
WCS
1040
0.0
1002
}
  0
INSERT
  5
7DE1B343D9E2151
330
7DE1B343D9E2135
100
AcDbEntity
  8
ASHADE
 62
     3
100
AcDbBlockReference
  2
AVE_RENDER
 10
0.0
 20
0.0
 30
0.0
1001
AVE_RENDER
1002
{
1070
     0
1000
Full Opt
1070
     0
1070
     1
1070
     1
1070
     1
1070
     0
1070
     0
1070
     0
1070
     1
1070
     1
1040
0.0001
1040
0.0001
1002
}
  0
INSERT
  5
7DE1B343D9E2152
330
7DE1B343D9E2135
100
AcDbEntity
  8
ASHADE
 62
     4
100
AcDbBlockReference
  2
AVE_RENDER
 10
0.0
 20
0.0
 30
0.0
1001
AVE_RENDER
1002
{
1070
     0
1000
Quick Opt
1070
     0
1070
     1
1070
     1
1070
     1
1070
     0
1070
     0
1070
     1
1002
}
  0
INSERT
  5
7DE1B343D9E2153
330
7DE1B343D9E2135
100
AcDbEntity
  8
ASHADE
 62
     5
100
AcDbBlockReference
  2
AVE_RENDER
 10
0.0
 20
0.0
 30
0.0
1001
AVE_RENDER
1002
{
1070
     1
1000
Scanl Opt
1070
     2
1070
     0
1070
     2
1040
2.0
1040
4.0
1070
     0
1070
     1
1070
     0
1040
0.03
1002
}
  0
INSERT
  5
7DE1B343D9E2154
330
7DE1B343D9E2135
100
AcDbEntity
  8
ASHADE
 62
     6
100
AcDbBlockReference
  2
AVE_RENDER
 10
0.0
 20
0.0
 30
0.0
1001
AVE_RENDER
1002
{
1070
     2
1000
Raytr Opt
1070
     2
1070
     0
1070
     2
1040
2.0
1040
4.0
1070
     0
1070
     1
1070
     1
1040
0.03
1070
     3
1040
0.03
1002
}
  0
INSERT
  5
7DE1B343D9E2155
330
7DE1B343D9E2135
100
AcDbEntity
  8
ASHADE
 62
     7
100
AcDbBlockReference
  2
AVE_RENDER
 10
0.0
 20
0.0
 30
0.0
1001
AVE_RENDER
1002
{
1070
     0
1000
RFile Opt
1070
     5
1070
   640
1070
   480
1070
 10000
1070
     3
1070
    32
1070
    24
1070
     0
1070
     0
1070
     0
1070
     1
1070
     0
1070
     0
1070
     0
1002
}
  0
INSERT
  5
7DE1B343D9E2156
330
7DE1B343D9E2135
100
AcDbEntity
  8
ASHADE
 62
     8
100
AcDbBlockReference
  2
AVE_RENDER
 10
0.0
 20
0.0
 30
0.0
1001
AVE_RENDER
1002
{
1070
     0
1000
Fog Opt
1070
     0
1070
     0
1040
0.0
1040
1.0
1040
0.0
1040
1.0
1010
0.5
1020
0.5
1030
0.5
1002
}
  0
INSERT
  5
7DE1B343D9E2157
330
7DE1B343D9E2135
100
AcDbEntity
  8
ASHADE
 62
     9
100
AcDbBlockReference
  2
AVE_RENDER
 10
0.0
 20
0.0
 30
0.0
1001
AVE_RENDER
1002
{
1070
     0
1000
BG Opt
1070
     0
1070
     1
1010
0.0
1020
0.0
1030
0.0
1010
1.0
1020
0.0
1030
0.0
1010
0.0
1020
1.0
1030
0.0
1010
0.0
1020
0.0
1030
1.0
1040
0.5
1040
0.33
1040
0.0
1000

1070
     1
1000

1070
     1
1070
     1
1040
1.0
1040
1.0
1040
0.0
1040
0.0
1070
     0
1002
}
  0
INSERT
  5
7DE1B343D9E215E
330
7DE1B343D9E2135
100
AcDbEntity
  8
ASHADE
 62
     1
100
AcDbBlockReference
  2
AVE_GLOBAL
 10
0.0
 20
0.0
 30
0.0
1001
AVE_MATERIAL
1002
{
1000
*GLOBAL*
1000
1
1000
Global finish.
1002
{
1002
}
1002
{
1070
    63
1002
{
1002
{
1010
-1.0
1020
-1.0
1030
-1.0
1002
}
1040
0.1000000014901161
1000

1040
0.0
1002
{
1002
}
1040
0.0
1002
{
1002
}
1040
0.0
1002
}
1002
{
1002
{
1010
-1.0
1020
-1.0
1030
-1.0
1002
}
1040
0.6999999880790711
1000

1040
0.0
1002
{
1002
}
1040
0.0
1002
{
1002
}
1040
0.0
1002
}
1002
{
1002
{
1010
-1.0
1020
-1.0
1030
-1.0
1002
}
1040
0.2000000029802322
1000

1040
0.0
1002
{
1002
}
1040
0.0
1002
{
1002
}
1040
0.0
1002
}
1002
{
1070
     0
1002
{
1070
     1
1002
{
1040
1.0
1040
1.0
1000

1040
0.0
1002
{
1002
}
1040
0.0
1002
{
1002
}
1040
0.0
1002
}
1002
}
1040
1.0
1040
0.0
1040
0.0
1002
}
1002
{
1040
1.0
1040
1.0
1000

1040
0.0
1002
{
1002
}
1040
0.0
1002
{
1002
}
1040
0.0
1002
}
1002
{
1040
0.5
1040
1.0
1000

1040
0.0
1002
{
1002
}
1040
0.0
1002
{
1002
}
1040
0.0
1002
}
1002
{
1070
     0
1040
0.0
1002
{
1002
}
1040
1.0
1002
{
1002
}
1040
0.0
1002
}
1002
{
1040
0.0
1002
{
1002
{
1010
0.0
1020
0.0
1030
0.0
1002
}
1040
1.0
1000

1040
0.0
1002
{
1002
}
1040
0.0
1002
{
1002
}
1040
0.0
1002
}
1002
}
1002
{
1002
{
1070
     1
1002
{
1040
0.0
1040
1.0
1000

1040
0.0
1002
{
1002
}
1040
0.0
1002
{
1002
}
1040
0.0
1002
}
1002
}
1040
0.0
1002
{
1002
}
1010
1.0
1020
0.0
1030
0.0
1010
0.0
1020
1.0
1030
0.0
1010
0.0
1020
0.0
1030
1.0
1070
     0
1002
}
1002
{
1002
{
1040
1.0
1040
1.0
1002
{
1070
     1
1002
{
1040
1.0
1040
1.0
1000

1040
0.0
1002
{
1002
}
1040
0.0
1002
{
1002
}
1040
0.0
1002
}
1002
}
1002
}
1070
     0
1040
0.0
1002
{
1002
}
1002
}
1002
{
1002
}
1002
}
1002
{
1071
        3
1070
     3
1070
     0
1002
{
1070
     2
1070
     0
1070
     0
1040
0.0
1002
}
1070
     0
1070
     2
1002
{
1002
}
1002
}
1002
{
1040
8030.0
1040
190.3000030517578
1040
0.3050000071525574
1040
228.0
1040
545.0
1040
14.0
1040
17.39999961853027
1040
0.4560000002384186
1002
}
1002
}
  0
ENDSEC
  0
SECTION
  2
OBJECTS
  0
DICTIONARY
  5
7DE1B343D9E2129
330
0
100
AcDbDictionary
  3
ACAD_GROUP
350
7DE1B343D9E212A
  3
ACAD_LAYOUT
350
7DE1B343D9E216A
  3
ACAD_MLINESTYLE
350
7DE1B343D9E212B
  3
ACAD_PLOTSETTINGS
350
7DE1B343D9E216B
  3
ACAD_PLOTSTYLENAME
350
7DE1B343D9E2168
  3
ACDBHEADERROUNDTRIPXREC
350
7DE1B343D9E2175
  3
ACDBVARIABLEDICTIONARY
350
7DE1B343D9E2172
  0
DICTIONARY
  5
7DE1B343D9E2197
330
7DE1B343D9E2135
100
AcDbDictionary
280
     1
  3
ACAD_LAYOUTSELFREF
360
7DE1B343D9E2198
  0
DICTIONARY
  5
7DE1B343D9E2195
330
7DE1B343D9E2132
100
AcDbDictionary
280
     1
  3
ACAD_LAYOUTSELFREF
360
7DE1B343D9E2196
  0
DICTIONARY
  5
7DE1B343D9E212A
102
{ACAD_REACTORS
330
7DE1B343D9E2129
102
}
330
7DE1B343D9E2129
100
AcDbDictionary
  0
DICTIONARY
  5
7DE1B343D9E216A
102
{ACAD_REACTORS
330
7DE1B343D9E2129
102
}
330
7DE1B343D9E2129
100
AcDbDictionary
  0
DICTIONARY
  5
7DE1B343D9E212B
102
{ACAD_REACTORS
330
7DE1B343D9E2129
102
}
330
7DE1B343D9E2129
100
AcDbDictionary
  3
STANDARD
350
7DE1B343D9E2138
  0
DICTIONARY
  5
7DE1B343D9E216B
102
{ACAD_REACTORS
330
7DE1B343D9E2129
102
}
330
7DE1B343D9E2129
100
AcDbDictionary
  0
ACDBDICTIONARYWDFLT
  5
7DE1B343D9E2168
102
{ACAD_REACTORS
330
7DE1B343D9E2129
102
}
330
7DE1B343D9E2129
100
AcDbDictionary
281
     1
  3
Normal
350
7DE1B343D9E2169
100
AcDbDictionaryWithDefault
340
7DE1B343D9E2169
  0
DICTIONARY
  5
7DE1B343D9E2175
102
{ACAD_REACTORS
330
7DE1B343D9E2129
102
}
330
7DE1B343D9E2129
100
AcDbDictionary
  3
CEPSNTYPE
350
7DE1B343D9E217F
  3
FINGERPRINTGUID
350
7DE1B343D9E2180
  3
HYPERLINKBASE
350
7DE1B343D9E2178
  3
INSUNITS
350
7DE1B343D9E217E
  3
LAYOUTDICT
350
7DE1B343D9E217A
  3
LWETCUNION
350
7DE1B343D9E217D
  3
PLOTSETDICT
350
7DE1B343D9E217B
  3
PLOTSTYLNAMDICT
350
7DE1B343D9E217C
  3
PSVPSCALE
350
7DE1B343D9E2182
  3
PUCSBASE
350
7DE1B343D9E2185
  3
PUCSORGBACK
350
7DE1B343D9E218B
  3
PUCSORGBOTTOM
350
7DE1B343D9E2187
  3
PUCSORGFRONT
350
7DE1B343D9E218A
  3
PUCSORGLEFT
350
7DE1B343D9E2188
  3
PUCSORGRIGHT
350
7DE1B343D9E2189
  3
PUCSORGTOP
350
7DE1B343D9E2186
  3
PUCSORTHOREF
350
7DE1B343D9E2183
  3
PUCSORTHOVIEW
350
7DE1B343D9E2184
  3
STYLESHEET
350
7DE1B343D9E2179
  3
TSTACKALIGN
350
7DE1B343D9E2176
  3
TSTACKSIZE
350
7DE1B343D9E2177
  3
UCSBASE
350
7DE1B343D9E218E
  3
UCSORGBACK
350
7DE1B343D9E2194
  3
UCSORGBOTTOM
350
7DE1B343D9E2190
  3
UCSORGFRONT
350
7DE1B343D9E2193
  3
UCSORGLEFT
350
7DE1B343D9E2191
  3
UCSORGRIGHT
350
7DE1B343D9E2192
  3
UCSORGTOP
350
7DE1B343D9E218F
  3
UCSORTHOREF
350
7DE1B343D9E218C
  3
UCSORTHOVIEW
350
7DE1B343D9E218D
  3
VERSIONGUID
350
7DE1B343D9E2181
  0
DICTIONARY
  5
7DE1B343D9E2172
102
{ACAD_REACTORS
330
7DE1B343D9E2129
102
}
330
7DE1B343D9E2129
100
AcDbDictionary
  3
DIMASSOC
350
7DE1B343D9E2173
  0
XRECORD
  5
7DE1B343D9E2198
102
{ACAD_REACTORS
330
7DE1B343D9E2197
102
}
330
7DE1B343D9E2197
100
AcDbXrecord
340
7DE1B343D9E2135
  0
XRECORD
  5
7DE1B343D9E2196
102
{ACAD_REACTORS
330
7DE1B343D9E2195
102
}
330
7DE1B343D9E2195
100
AcDbXrecord
340
7DE1B343D9E2132
  0
MLINESTYLE
  5
7DE1B343D9E2138
102
{ACAD_REACTORS
330
7DE1B343D9E212B
102
}
330
7DE1B343D9E212B
100
AcDbMlineStyle
  2
STANDARD
 70
     0
  3

 62
     0
 51
90.0
 52
90.0
 71
     2
 49
0.5
 62
   256
  6
BYLAYER
 49
-0.5
 62
   256
  6
BYLAYER
  0
ACDBPLACEHOLDER
  5
7DE1B343D9E2169
102
{ACAD_REACTORS
330
7DE1B343D9E2168
102
}
330
7DE1B343D9E2168
100
AcDbPlaceHolder
280
     0
  0
XRECORD
  5
7DE1B343D9E217F
102
{ACAD_REACTORS
330
7DE1B343D9E2175
102
}
330
7DE1B343D9E2175
100
AcDbXrecord
 90
        0
  0
XRECORD
  5
7DE1B343D9E2180
102
{ACAD_REACTORS
330
7DE1B343D9E2175
102
}
330
7DE1B343D9E2175
100
AcDbXrecord
  1
{384309C0-8DB6-11D6-88E6-0090279574E7}
  0
XRECORD
  5
7DE1B343D9E2178
102
{ACAD_REACTORS
330
7DE1B343D9E2175
102
}
330
7DE1B343D9E2175
100
AcDbXrecord
  1

  0
XRECORD
  5
7DE1B343D9E217E
102
{ACAD_REACTORS
330
7DE1B343D9E2175
102
}
330
7DE1B343D9E2175
100
AcDbXrecord
 90
        0
  0
XRECORD
  5
7DE1B343D9E217A
102
{ACAD_REACTORS
330
7DE1B343D9E2175
102
}
330
7DE1B343D9E2175
100
AcDbXrecord
340
7DE1B343D9E216A
  0
XRECORD
  5
7DE1B343D9E217D
102
{ACAD_REACTORS
330
7DE1B343D9E2175
102
}
330
7DE1B343D9E2175
100
AcDbXrecord
 90
    14877
  0
XRECORD
  5
7DE1B343D9E217B
102
{ACAD_REACTORS
330
7DE1B343D9E2175
102
}
330
7DE1B343D9E2175
100
AcDbXrecord
340
7DE1B343D9E216B
  0
XRECORD
  5
7DE1B343D9E217C
102
{ACAD_REACTORS
330
7DE1B343D9E2175
102
}
330
7DE1B343D9E2175
100
AcDbXrecord
340
7DE1B343D9E2168
  0
XRECORD
  5
7DE1B343D9E2182
102
{ACAD_REACTORS
330
7DE1B343D9E2175
102
}
330
7DE1B343D9E2175
100
AcDbXrecord
 40
0.0
  0
XRECORD
  5
7DE1B343D9E2185
102
{ACAD_REACTORS
330
7DE1B343D9E2175
102
}
330
7DE1B343D9E2175
100
AcDbXrecord
340
0
  0
XRECORD
  5
7DE1B343D9E218B
102
{ACAD_REACTORS
330
7DE1B343D9E2175
102
}
330
7DE1B343D9E2175
100
AcDbXrecord
 10
0.0
 20
0.0
 30
0.0
  0
XRECORD
  5
7DE1B343D9E2187
102
{ACAD_REACTORS
330
7DE1B343D9E2175
102
}
330
7DE1B343D9E2175
100
AcDbXrecord
 10
0.0
 20
0.0
 30
0.0
  0
XRECORD
  5
7DE1B343D9E218A
102
{ACAD_REACTORS
330
7DE1B343D9E2175
102
}
330
7DE1B343D9E2175
100
AcDbXrecord
 10
0.0
 20
0.0
 30
0.0
  0
XRECORD
  5
7DE1B343D9E2188
102
{ACAD_REACTORS
330
7DE1B343D9E2175
102
}
330
7DE1B343D9E2175
100
AcDbXrecord
 10
0.0
 20
0.0
 30
0.0
  0
XRECORD
  5
7DE1B343D9E2189
102
{ACAD_REACTORS
330
7DE1B343D9E2175
102
}
330
7DE1B343D9E2175
100
AcDbXrecord
 10
0.0
 20
0.0
 30
0.0
  0
XRECORD
  5
7DE1B343D9E2186
102
{ACAD_REACTORS
330
7DE1B343D9E2175
102
}
330
7DE1B343D9E2175
100
AcDbXrecord
 10
0.0
 20
0.0
 30
0.0
  0
XRECORD
  5
7DE1B343D9E2183
102
{ACAD_REACTORS
330
7DE1B343D9E2175
102
}
330
7DE1B343D9E2175
100
AcDbXrecord
340
0
  0
XRECORD
  5
7DE1B343D9E2184
102
{ACAD_REACTORS
330
7DE1B343D9E2175
102
}
330
7DE1B343D9E2175
100
AcDbXrecord
 70
     0
  0
XRECORD
  5
7DE1B343D9E2179
102
{ACAD_REACTORS
330
7DE1B343D9E2175
102
}
330
7DE1B343D9E2175
100
AcDbXrecord
  1

  0
XRECORD
  5
7DE1B343D9E2176
102
{ACAD_REACTORS
330
7DE1B343D9E2175
102
}
330
7DE1B343D9E2175
100
AcDbXrecord
 90
        1
  0
XRECORD
  5
7DE1B343D9E2177
102
{ACAD_REACTORS
330
7DE1B343D9E2175
102
}
330
7DE1B343D9E2175
100
AcDbXrecord
 90
       70
  0
XRECORD
  5
7DE1B343D9E218E
102
{ACAD_REACTORS
330
7DE1B343D9E2175
102
}
330
7DE1B343D9E2175
100
AcDbXrecord
340
0
  0
XRECORD
  5
7DE1B343D9E2194
102
{ACAD_REACTORS
330
7DE1B343D9E2175
102
}
330
7DE1B343D9E2175
100
AcDbXrecord
 10
0.0
 20
0.0
 30
0.0
  0
XRECORD
  5
7DE1B343D9E2190
102
{ACAD_REACTORS
330
7DE1B343D9E2175
102
}
330
7DE1B343D9E2175
100
AcDbXrecord
 10
0.0
 20
0.0
 30
0.0
  0
XRECORD
  5
7DE1B343D9E2193
102
{ACAD_REACTORS
330
7DE1B343D9E2175
102
}
330
7DE1B343D9E2175
100
AcDbXrecord
 10
0.0
 20
0.0
 30
0.0
  0
XRECORD
  5
7DE1B343D9E2191
102
{ACAD_REACTORS
330
7DE1B343D9E2175
102
}
330
7DE1B343D9E2175
100
AcDbXrecord
 10
0.0
 20
0.0
 30
0.0
  0
XRECORD
  5
7DE1B343D9E2192
102
{ACAD_REACTORS
330
7DE1B343D9E2175
102
}
330
7DE1B343D9E2175
100
AcDbXrecord
 10
0.0
 20
0.0
 30
0.0
  0
XRECORD
  5
7DE1B343D9E218F
102
{ACAD_REACTORS
330
7DE1B343D9E2175
102
}
330
7DE1B343D9E2175
100
AcDbXrecord
 10
0.0
 20
0.0
 30
0.0
  0
XRECORD
  5
7DE1B343D9E218C
102
{ACAD_REACTORS
330
7DE1B343D9E2175
102
}
330
7DE1B343D9E2175
100
AcDbXrecord
340
0
  0
XRECORD
  5
7DE1B343D9E218D
102
{ACAD_REACTORS
330
7DE1B343D9E2175
102
}
330
7DE1B343D9E2175
100
AcDbXrecord
 70
     0
  0
XRECORD
  5
7DE1B343D9E2181
102
{ACAD_REACTORS
330
7DE1B343D9E2175
102
}
330
7DE1B343D9E2175
100
AcDbXrecord
  1
{384309C2-8DB6-11D6-88E6-0090279574E7}
  0
DICTIONARYVAR
  5
7DE1B343D9E2173
102
{ACAD_REACTORS
330
7DE1B343D9E2172
102
}
330
7DE1B343D9E2172
100
DictionaryVariables
280
     0
  1
1
  0
ENDSEC
  0
EOF
