  0
SECTION
  2
HEADER
  9
$ACADVER
  1
AC1014
  9
$ACADMAINTVER
 70
     9
  9
$DWGCODEPAGE
  3
ANSI_1252
  9
$INSBASE
 10
0.0
 20
0.0
 30
0.0
  9
$EXTMIN
 10
2.466251800786781
 20
3.933743849123868
 30
0.0
  9
$EXTMAX
 10
6.271584380113214
 20
7.364000582589593
 30
0.0
  9
$LIMMIN
 10
0.0
 20
0.0
  9
$LIMMAX
 10
8.5
 20
11.0
  9
$ORTHOMODE
 70
     1
  9
$REGENMODE
 70
     1
  9
$FILLMODE
 70
     1
  9
$QTEXTMODE
 70
     0
  9
$MIRRTEXT
 70
     0
  9
$DRAGMODE
 70
     2
  9
$LTSCALE
 40
1.0
  9
$OSMODE
 70
    39
  9
$ATTMODE
 70
     1
  9
$TEXTSIZE
 40
0.125
  9
$TRACEWID
 40
0.05
  9
$TEXTSTYLE
  7
ROMANS
  9
$CLAYER
  8
DIM
  9
$CELTYPE
  6
BYLAYER
  9
$CECOLOR
 62
   256
  9
$CELTSCALE
 40
1.0
  9
$DELOBJ
 70
     1
  9
$DISPSILH
 70
     1
  9
$DIMSCALE
 40
2.0
  9
$DIMASZ
 40
0.125
  9
$DIMEXO
 40
0.125
  9
$DIMDLI
 40
0.375
  9
$DIMRND
 40
0.0
  9
$DIMDLE
 40
0.0
  9
$DIMEXE
 40
0.125
  9
$DIMTP
 40
0.0
  9
$DIMTM
 40
0.04
  9
$DIMTXT
 40
0.125
  9
$DIMCEN
 40
-0.125
  9
$DIMTSZ
 40
0.0
  9
$DIMTOL
 70
     0
  9
$DIMLIM
 70
     0
  9
$DIMTIH
 70
     1
  9
$DIMTOH
 70
     1
  9
$DIMSE1
 70
     0
  9
$DIMSE2
 70
     0
  9
$DIMTAD
 70
     0
  9
$DIMZIN
 70
     4
  9
$DIMBLK
  1

  9
$DIMASO
 70
     1
  9
$DIMSHO
 70
     1
  9
$DIMPOST
  1

  9
$DIMAPOST
  1

  9
$DIMALT
 70
     0
  9
$DIMALTD
 70
     2
  9
$DIMALTF
 40
25.4
  9
$DIMLFAC
 40
1.0
  9
$DIMTOFL
 70
     0
  9
$DIMTVP
 40
0.0
  9
$DIMTIX
 70
     1
  9
$DIMSOXD
 70
     0
  9
$DIMSAH
 70
     0
  9
$DIMBLK1
  1

  9
$DIMBLK2
  1

  9
$DIMSTYLE
  2
STANDARD
  9
$DIMCLRD
 70
     0
  9
$DIMCLRE
 70
     0
  9
$DIMCLRT
 70
     0
  9
$DIMTFAC
 40
1.0
  9
$DIMGAP
 40
0.09
  9
$DIMJUST
 70
     0
  9
$DIMSD1
 70
     0
  9
$DIMSD2
 70
     0
  9
$DIMTOLJ
 70
     1
  9
$DIMTZIN
 70
     4
  9
$DIMALTZ
 70
     0
  9
$DIMALTTZ
 70
     0
  9
$DIMFIT
 70
     3
  9
$DIMUPT
 70
     0
  9
$DIMUNIT
 70
     2
  9
$DIMDEC
 70
     3
  9
$DIMTDEC
 70
     3
  9
$DIMALTU
 70
     2
  9
$DIMALTTD
 70
     2
  9
$DIMTXSTY
  7
ROMANS
  9
$DIMAUNIT
 70
     0
  9
$LUNITS
 70
     2
  9
$LUPREC
 70
     3
  9
$SKETCHINC
 40
0.1
  9
$FILLETRAD
 40
0.5
  9
$AUNITS
 70
     0
  9
$AUPREC
 70
     0
  9
$MENU
  1
AUTOMSTR
  9
$ELEVATION
 40
0.0
  9
$PELEVATION
 40
0.0
  9
$THICKNESS
 40
0.0
  9
$LIMCHECK
 70
     0
  9
$BLIPMODE
 70
     0
  9
$CHAMFERA
 40
0.0
  9
$CHAMFERB
 40
0.0
  9
$CHAMFERC
 40
0.0
  9
$CHAMFERD
 40
0.0
  9
$SKPOLY
 70
     0
  9
$TDCREATE
 40
2448351.354168981
  9
$TDUPDATE
 40
2452458.306441539
  9
$TDINDWG
 40
0.0359888657
  9
$TDUSRTIMER
 40
0.0359888657
  9
$USRTIMER
 70
     1
  9
$ANGBASE
 50
0.0
  9
$ANGDIR
 70
     0
  9
$PDMODE
 70
     0
  9
$PDSIZE
 40
0.0
  9
$PLINEWID
 40
0.0
  9
$COORDS
 70
     2
  9
$SPLFRAME
 70
     0
  9
$SPLINETYPE
 70
     6
  9
$SPLINESEGS
 70
     8
  9
$ATTDIA
 70
     0
  9
$ATTREQ
 70
     1
  9
$HANDLING
 70
 22529
  9
$HANDSEED
  5
7CA
  9
$SURFTAB1
 70
     6
  9
$SURFTAB2
 70
     6
  9
$SURFTYPE
 70
     6
  9
$SURFU
 70
     6
  9
$SURFV
 70
     6
  9
$UCSNAME
  2

  9
$UCSORG
 10
0.0
 20
0.0
 30
0.0
  9
$UCSXDIR
 10
1.0
 20
0.0
 30
0.0
  9
$UCSYDIR
 10
0.0
 20
1.0
 30
0.0
  9
$PUCSNAME
  2

  9
$PUCSORG
 10
0.0
 20
0.0
 30
0.0
  9
$PUCSXDIR
 10
1.0
 20
0.0
 30
0.0
  9
$PUCSYDIR
 10
0.0
 20
1.0
 30
0.0
  9
$USERI1
 70
     0
  9
$USERI2
 70
     0
  9
$USERI3
 70
     0
  9
$USERI4
 70
     0
  9
$USERI5
 70
     0
  9
$USERR1
 40
0.0
  9
$USERR2
 40
0.0
  9
$USERR3
 40
0.0
  9
$USERR4
 40
0.0
  9
$USERR5
 40
0.0
  9
$WORLDVIEW
 70
     1
  9
$SHADEDGE
 70
     3
  9
$SHADEDIF
 70
    70
  9
$TILEMODE
 70
     1
  9
$MAXACTVP
 70
    16
  9
$PINSBASE
 10
0.0
 20
0.0
 30
0.0
  9
$PLIMCHECK
 70
     0
  9
$PEXTMIN
 10
1.000000000000000E+20
 20
1.000000000000000E+20
 30
1.000000000000000E+20
  9
$PEXTMAX
 10
-1.000000000000000E+20
 20
-1.000000000000000E+20
 30
-1.000000000000000E+20
  9
$PLIMMIN
 10
0.0
 20
0.0
  9
$PLIMMAX
 10
12.0
 20
9.0
  9
$UNITMODE
 70
     0
  9
$VISRETAIN
 70
     0
  9
$PLINEGEN
 70
     1
  9
$PSLTSCALE
 70
     0
  9
$TREEDEPTH
 70
  3020
  9
$PICKSTYLE
 70
     1
  9
$CMLSTYLE
  2
STANDARD
  9
$CMLJUST
 70
     0
  9
$CMLSCALE
 40
1.0
  9
$PROXYGRAPHICS
 70
     1
  9
$MEASUREMENT
 70
     0
  0
ENDSEC
  0
SECTION
  2
CLASSES
  0
CLASS
  1
LWPOLYLINE
  2
AcDbPolyline
  3
AutoCAD 2000
 90
        0
280
     0
281
     1
  0
CLASS
  1
ACDBDICTIONARYWDFLT
  2
AcDbDictionaryWithDefault
  3
AutoCAD 2000
 90
        0
280
     0
281
     0
  0
CLASS
  1
ACDBPLACEHOLDER
  2
AcDbPlaceHolder
  3
AutoCAD 2000
 90
        0
280
     0
281
     0
  0
CLASS
  1
LAYOUT
  2
AcDbLayout
  3
AutoCAD 2000
 90
        0
280
     0
281
     0
  0
CLASS
  1
DICTIONARYVAR
  2
AcDbDictionaryVar
  3
AutoCAD 2000
 90
        0
280
     0
281
     0
  0
CLASS
  1
LONG_TRANSACTION
  2
AcDbLongTransaction
  3
AutoCAD 2000
 90
        0
280
     0
281
     0
  0
CLASS
  1
LWPOLYLINE
  2
AcDbPolyline
  3
AutoCAD 2000
 90
        0
280
     0
281
     1
  0
CLASS
  1
HATCH
  2
AcDbHatch
  3
AutoCAD 2000
 90
        0
280
     0
281
     1
  0
CLASS
  1
XRECORD
  2
AcDbXrecord
  3
AutoCAD 2000
 90
        0
280
     0
281
     0
  0
ENDSEC
  0
SECTION
  2
TABLES
  0
TABLE
  2
VPORT
  5
8
330
0
100
AcDbSymbolTable
 70
     2
  0
VPORT
  5
7A5
330
8
100
AcDbSymbolTableRecord
100
AcDbViewportTableRecord
  2
*ACTIVE
 70
     0
 10
0.0
 20
0.0
 11
1.0
 21
1.0
 12
9.043766651899066
 22
5.649139353817023
 13
0.0
 23
0.0
 14
0.015625
 24
0.015625
 15
0.0
 25
0.0
 16
0.0
 26
0.0
 36
1.0
 17
0.0
 27
0.0
 37
0.0
 40
3.461440958743402
 41
4.320930232558139
 42
50.0
 43
0.0
 44
0.0
 50
0.0
 51
0.0
 71
     0
 72
  2000
 73
     1
 74
     1
 75
     0
 76
     0
 77
     0
 78
     0
  0
ENDTAB
  0
TABLE
  2
LTYPE
  5
5
330
0
100
AcDbSymbolTable
 70
     1
  0
LTYPE
  5
12
330
5
100
AcDbSymbolTableRecord
100
AcDbLinetypeTableRecord
  2
BYBLOCK
 70
     0
  3

 72
    65
 73
     0
 40
0.0
  0
LTYPE
  5
13
330
5
100
AcDbSymbolTableRecord
100
AcDbLinetypeTableRecord
  2
BYLAYER
 70
     0
  3

 72
    65
 73
     0
 40
0.0
  0
LTYPE
  5
14
330
5
100
AcDbSymbolTableRecord
100
AcDbLinetypeTableRecord
  2
CONTINUOUS
 70
     0
  3
Solid line
 72
    65
 73
     0
 40
0.0
  0
ENDTAB
  0
TABLE
  2
LAYER
  5
2
330
0
100
AcDbSymbolTable
 70
     3
  0
LAYER
  5
F
330
2
100
AcDbSymbolTableRecord
100
AcDbLayerTableRecord
  2
0
 70
     0
 62
     7
  6
CONTINUOUS
  0
LAYER
  5
28
330
2
100
AcDbSymbolTableRecord
100
AcDbLayerTableRecord
  2
DIM
 70
     0
 62
     4
  6
CONTINUOUS
  0
LAYER
  5
29
330
2
100
AcDbSymbolTableRecord
100
AcDbLayerTableRecord
  2
TEXT
 70
     0
 62
     3
  6
CONTINUOUS
  0
ENDTAB
  0
TABLE
  2
STYLE
  5
3
330
0
100
AcDbSymbolTable
 70
     3
  0
STYLE
  5
10
330
3
100
AcDbSymbolTableRecord
100
AcDbTextStyleTableRecord
  2
STANDARD
 70
     0
 40
0.0
 41
1.0
 50
0.0
 71
     0
 42
0.25
  3
txt
  4

  0
STYLE
  5
3AE
330
3
100
AcDbSymbolTableRecord
100
AcDbTextStyleTableRecord
  2
ROMANS
 70
     0
 40
0.0
 41
1.0
 50
0.0
 71
     0
 42
0.125
  3
romans.shx
  4

  0
STYLE
  5
693
330
3
100
AcDbSymbolTableRecord
100
AcDbTextStyleTableRecord
  2
ITALICC
 70
     0
 40
0.0
 41
1.0
 50
0.0
 71
     0
 42
0.125
  3
italicc
  4

  0
ENDTAB
  0
TABLE
  2
VIEW
  5
6
330
0
100
AcDbSymbolTable
 70
     0
  0
ENDTAB
  0
TABLE
  2
UCS
  5
7
330
0
100
AcDbSymbolTable
 70
     0
  0
ENDTAB
  0
TABLE
  2
APPID
  5
9
330
0
100
AcDbSymbolTable
 70
     1
  0
APPID
  5
11
330
9
100
AcDbSymbolTableRecord
100
AcDbRegAppTableRecord
  2
ACAD
 70
     0
  0
ENDTAB
  0
TABLE
  2
DIMSTYLE
  5
A
330
0
100
AcDbSymbolTable
 70
     1
  0
DIMSTYLE
105
3A3
330
A
100
AcDbSymbolTableRecord
100
AcDbDimStyleTableRecord
  2
STANDARD
 70
     0
  3

  4

  5

  6

  7

 40
2.0
 41
0.125
 42
0.125
 43
0.375
 44
0.125
 45
0.0
 46
0.0
 47
0.0
 48
0.04
140
0.125
141
-0.125
142
0.0
143
25.4
144
1.0
145
0.0
146
1.0
147
0.09
 71
     0
 72
     0
 73
     1
 74
     1
 75
     0
 76
     0
 77
     0
 78
     4
170
     0
171
     2
172
     0
173
     0
174
     1
175
     0
176
     0
177
     0
178
     0
270
     2
271
     3
272
     3
273
     2
274
     2
340
3AE
275
     0
280
     0
281
     0
282
     0
283
     1
284
     4
285
     0
286
     0
287
     3
288
     0
  0
ENDTAB
  0
TABLE
  2
BLOCK_RECORD
  5
1
330
0
100
AcDbSymbolTable
 70
     0
  0
BLOCK_RECORD
  5
18
102
{ACAD_XDICTIONARY
360
7C8
102
}
330
1
100
AcDbSymbolTableRecord
100
AcDbBlockTableRecord
  2
*MODEL_SPACE
  0
BLOCK_RECORD
  5
15
102
{ACAD_XDICTIONARY
360
7C6
102
}
330
1
100
AcDbSymbolTableRecord
100
AcDbBlockTableRecord
  2
*PAPER_SPACE
  0
ENDTAB
  0
ENDSEC
  0
SECTION
  2
BLOCKS
  0
BLOCK
  5
32
330
18
100
AcDbEntity
  8
0
100
AcDbBlockBegin
  2
*MODEL_SPACE
 70
     0
 10
0.0
 20
0.0
 30
0.0
  3
*MODEL_SPACE
  1

  0
ENDBLK
  5
33
330
18
100
AcDbEntity
  8
0
100
AcDbBlockEnd
  0
BLOCK
  5
30
330
15
100
AcDbEntity
 67
     1
  8
0
100
AcDbBlockBegin
  2
*PAPER_SPACE
 70
     0
 10
0.0
 20
0.0
 30
0.0
  3
*PAPER_SPACE
  1

  0
ENDBLK
  5
31
330
15
100
AcDbEntity
 67
     1
  8
0
100
AcDbBlockEnd
  0
ENDSEC
  0
SECTION
  2
ENTITIES
  0
LWPOLYLINE
  5
342
330
18
100
AcDbEntity
  8
0
100
AcDbPolyline
 90
       17
 70
     1
 43
0.0
 10
3.296874999999999
 20
7.35983494198016
 10
5.745544353527449
 20
7.35983494198016
 42
-0.4165776075217261
 10
5.76554370315267
 20
7.33967365165758
 42
-0.4081568298497708
 10
3.297270569620253
 20
4.860035238419211
 42
-1.0
 10
3.296479430379747
 20
4.922530231008234
 42
0.0032463289609347
 10
3.328125
 20
4.923136355777919
 10
3.328125
 20
5.055708354243633
 42
-0.2679491924311219
 10
3.34375
 20
5.082771648111897
 10
3.390625
 20
5.10983494198016
 10
3.390625
 20
4.925542180211355
 42
0.3918513299984642
 10
5.702323586202241
 20
7.29733494198016
 10
3.390625
 20
7.29733494198016
 10
3.390625
 20
7.10983494198016
 10
3.34375
 20
7.136898235848423
 42
-0.2679491924311219
 10
3.328125
 20
7.163961529716688
 10
3.328125
 20
7.29733494198016
 10
3.296874999999999
 20
7.29733494198016
 42
-1.0
  0
TEXT
  5
718
330
18
100
AcDbEntity
  8
TEXT
100
AcDbText
 10
3.456257189537733
 20
4.39176245320645
 30
0.0
 40
0.125
  1
PART #110309
  7
ITALICC
 72
     1
 11
4.209233380013924
 21
4.39176245320645
 31
0.0
100
AcDbText
  0
LINE
  5
719
330
18
100
AcDbEntity
  8
TEXT
100
AcDbLine
 10
4.176966878965987
 20
4.147408767186615
 30
0.0
 11
4.253614860258545
 21
4.147408767186615
 31
0.0
  0
LINE
  5
71A
330
18
100
AcDbEntity
  8
TEXT
100
AcDbLine
 10
4.249134972932044
 20
4.211685461843381
 30
0.0
 11
4.181635255282528
 21
4.211685461843381
 31
0.0
  0
LWPOLYLINE
  5
71B
330
18
100
AcDbEntity
  8
TEXT
100
AcDbPolyline
 90
        5
 70
     0
 43
0.0001332181640625
 10
2.539854836431312
 20
4.088458660085568
 10
2.553176652837561
 20
4.088458660085568
 10
2.553176652837561
 20
4.125093655202758
 10
2.58981164795475
 20
4.125093655202758
 10
2.58981164795475
 20
4.138415471609005
  0
LWPOLYLINE
  5
71C
330
18
100
AcDbEntity
  8
TEXT
100
AcDbPolyline
 90
        3
 70
     0
 43
0.0006660908203125
 10
2.57982028565006
 20
4.185041829030883
 10
2.493228479009435
 20
4.185041829030883
 10
2.493228479009435
 20
4.098450022390257
  0
LWPOLYLINE
  5
71D
330
18
100
AcDbEntity
  8
TEXT
100
AcDbPolyline
 90
        3
 70
     0
 43
0.0006660908203125
 10
2.57982028565006
 20
4.211685461843384
 10
2.466584846196937
 20
4.211685461843384
 10
2.466584846196937
 20
4.098450022390257
  0
LWPOLYLINE
  5
71E
330
18
100
AcDbEntity
  8
TEXT
100
AcDbPolyline
 90
        5
 70
     0
 43
0.0001332181640625
 10
2.58981164795475
 20
4.018519123952757
 10
2.58981164795475
 20
4.031840940359008
 10
2.553176652837562
 20
4.031840940359008
 10
2.553176652837562
 20
4.068475935476194
 10
2.539854836431312
 20
4.068475935476194
  0
LWPOLYLINE
  5
71F
330
18
100
AcDbEntity
  8
TEXT
100
AcDbPolyline
 90
        3
 70
     0
 43
0.0006660908203125
 10
2.493228479009435
 20
4.058484573171509
 10
2.493228479009435
 20
3.971892766530882
 10
2.57982028565006
 20
3.971892766530882
  0
LWPOLYLINE
  5
720
330
18
100
AcDbEntity
  8
TEXT
100
AcDbPolyline
 90
        3
 70
     0
 43
0.0006660908203125
 10
2.466584846196937
 20
4.058484573171509
 10
2.466584846196937
 20
3.945249133718381
 10
2.57982028565006
 20
3.945249133718381
  0
LWPOLYLINE
  5
721
330
18
100
AcDbEntity
  8
TEXT
100
AcDbPolyline
 90
        2
 70
     0
 43
0.0001332181640625
 10
2.493228479009435
 20
4.058484573171509
 10
2.553176652837562
 20
4.068475935476194
  0
LWPOLYLINE
  5
722
330
18
100
AcDbEntity
  8
TEXT
100
AcDbPolyline
 90
        2
 70
     0
 43
0.0001332181640625
 10
2.539854836431312
 20
4.068475935476194
 10
2.466584846196937
 20
4.058484573171509
  0
LWPOLYLINE
  5
723
330
18
100
AcDbEntity
  8
TEXT
100
AcDbPolyline
 90
        2
 70
     0
 43
0.0006660908203125
 10
2.493228479009435
 20
4.058484573171509
 10
2.466584846196937
 20
4.058484573171509
  0
LWPOLYLINE
  5
724
330
18
100
AcDbEntity
  8
TEXT
100
AcDbPolyline
 90
        2
 70
     0
 43
0.0001332181640625
 10
2.493228479009435
 20
3.971892766530882
 10
2.553176652837562
 20
4.031840940359008
  0
LWPOLYLINE
  5
725
330
18
100
AcDbEntity
  8
TEXT
100
AcDbPolyline
 90
        2
 70
     0
 43
0.0006660908203125
 10
2.493228479009435
 20
4.098450022390257
 10
2.466584846196937
 20
4.098450022390257
  0
LWPOLYLINE
  5
726
330
18
100
AcDbEntity
  8
TEXT
100
AcDbPolyline
 90
        2
 70
     0
 43
0.0001332181640625
 10
2.466584846196937
 20
4.098450022390257
 10
2.539854836431312
 20
4.088458660085568
  0
LWPOLYLINE
  5
727
330
18
100
AcDbEntity
  8
TEXT
100
AcDbPolyline
 90
        2
 70
     0
 43
0.0001332181640625
 10
2.493228479009435
 20
4.098450022390257
 10
2.553176652837561
 20
4.088458660085568
  0
LWPOLYLINE
  5
728
330
18
100
AcDbEntity
  8
TEXT
100
AcDbPolyline
 90
        2
 70
     0
 43
0.0001332181640625
 10
2.493228479009435
 20
4.185041829030883
 10
2.553176652837561
 20
4.125093655202758
  0
LWPOLYLINE
  5
729
330
18
100
AcDbEntity
  8
TEXT
100
AcDbPolyline
 90
        5
 70
     0
 43
0.0001332181640625
 10
2.659751184087561
 20
4.068475935476194
 10
2.646429367681312
 20
4.068475935476194
 10
2.646429367681312
 20
4.031840940359008
 10
2.609794372564123
 20
4.031840940359008
 10
2.609794372564123
 20
4.018519123952757
  0
LWPOLYLINE
  5
72A
330
18
100
AcDbEntity
  8
TEXT
100
AcDbPolyline
 90
        2
 70
     0
 43
0.0001332181640625
 10
2.706377541509436
 20
4.058484573171509
 10
2.646429367681312
 20
4.068475935476194
  0
LWPOLYLINE
  5
72B
330
18
100
AcDbEntity
  8
TEXT
100
AcDbPolyline
 90
        2
 70
     0
 43
0.0001332181640625
 10
2.733021174321937
 20
4.058484573171509
 10
2.659751184087561
 20
4.068475935476194
  0
LWPOLYLINE
  5
72C
330
18
100
AcDbEntity
  8
TEXT
100
AcDbPolyline
 90
        3
 70
     0
 43
0.0006660908203125
 10
2.619785734868811
 20
3.945249133718381
 10
2.733021174321937
 20
3.945249133718381
 10
2.733021174321937
 20
4.058484573171509
  0
LWPOLYLINE
  5
72D
330
18
100
AcDbEntity
  8
TEXT
100
AcDbPolyline
 90
        3
 70
     0
 43
0.0006660908203125
 10
2.619785734868811
 20
3.971892766530882
 10
2.706377541509436
 20
3.971892766530882
 10
2.706377541509436
 20
4.058484573171509
  0
LWPOLYLINE
  5
72E
330
18
100
AcDbEntity
  8
TEXT
100
AcDbPolyline
 90
        2
 70
     0
 43
0.0001332181640625
 10
2.706377541509436
 20
3.971892766530882
 10
2.646429367681312
 20
4.031840940359008
  0
LWPOLYLINE
  5
72F
330
18
100
AcDbEntity
  8
TEXT
100
AcDbPolyline
 90
        2
 70
     0
 43
0.0006660908203125
 10
2.619785734868811
 20
3.971892766530882
 10
2.619785734868811
 20
3.945249133718381
  0
LWPOLYLINE
  5
730
330
18
100
AcDbEntity
  8
TEXT
100
AcDbPolyline
 90
        2
 70
     0
 43
0.0001332181640625
 10
2.609794372564123
 20
4.018519123952757
 10
2.619785734868811
 20
3.945249133718381
  0
LWPOLYLINE
  5
731
330
18
100
AcDbEntity
  8
TEXT
100
AcDbPolyline
 90
        2
 70
     0
 43
0.0001332181640625
 10
2.619785734868811
 20
3.971892766530882
 10
2.609794372564123
 20
4.031840940359008
  0
LWPOLYLINE
  5
732
330
18
100
AcDbEntity
  8
TEXT
100
AcDbPolyline
 90
        2
 70
     0
 43
0.0001332181640625
 10
2.57982028565006
 20
3.945249133718381
 10
2.58981164795475
 20
4.018519123952757
  0
LWPOLYLINE
  5
733
330
18
100
AcDbEntity
  8
TEXT
100
AcDbPolyline
 90
        2
 70
     0
 43
0.0001332181640625
 10
2.57982028565006
 20
3.971892766530882
 10
2.58981164795475
 20
4.031840940359008
  0
LWPOLYLINE
  5
734
330
18
100
AcDbEntity
  8
TEXT
100
AcDbPolyline
 90
        2
 70
     0
 43
0.0006660908203125
 10
2.57982028565006
 20
3.971892766530882
 10
2.57982028565006
 20
3.945249133718381
  0
LWPOLYLINE
  5
735
330
18
100
AcDbEntity
  8
TEXT
100
AcDbPolyline
 90
        2
 70
     0
 43
0.0006660908203125
 10
2.706377541509436
 20
4.058484573171509
 10
2.733021174321937
 20
4.058484573171509
  0
LWPOLYLINE
  5
736
330
18
100
AcDbEntity
  8
TEXT
100
AcDbPolyline
 90
        2
 70
     0
 43
0.0001332181640625
 10
2.706377541509436
 20
4.185041829030883
 10
2.646429367681312
 20
4.125093655202758
  0
LWPOLYLINE
  5
737
330
18
100
AcDbEntity
  8
TEXT
100
AcDbPolyline
 90
        2
 70
     0
 43
0.0001332181640625
 10
2.706377541509436
 20
4.098450022390257
 10
2.646429367681312
 20
4.088458660085568
  0
LWPOLYLINE
  5
738
330
18
100
AcDbEntity
  8
TEXT
100
AcDbPolyline
 90
        2
 70
     0
 43
0.0001332181640625
 10
2.659751184087561
 20
4.088458660085568
 10
2.733021174321937
 20
4.098450022390257
  0
LWPOLYLINE
  5
739
330
18
100
AcDbEntity
  8
TEXT
100
AcDbPolyline
 90
        3
 70
     0
 43
0.0006660908203125
 10
2.706377541509436
 20
4.098450022390257
 10
2.706377541509436
 20
4.185041829030883
 10
2.619785734868811
 20
4.185041829030883
  0
LWPOLYLINE
  5
73A
330
18
100
AcDbEntity
  8
TEXT
100
AcDbPolyline
 90
        3
 70
     0
 43
0.0006660908203125
 10
2.733021174321937
 20
4.098450022390257
 10
2.733021174321937
 20
4.211685461843384
 10
2.619785734868811
 20
4.211685461843384
  0
LWPOLYLINE
  5
73B
330
18
100
AcDbEntity
  8
TEXT
100
AcDbPolyline
 90
        2
 70
     0
 43
0.0001332181640625
 10
2.619785734868811
 20
4.211685461843384
 10
2.609794372564123
 20
4.138415471609005
  0
LWPOLYLINE
  5
73C
330
18
100
AcDbEntity
  8
TEXT
100
AcDbPolyline
 90
        2
 70
     0
 43
0.0001332181640625
 10
2.619785734868811
 20
4.185041829030883
 10
2.609794372564123
 20
4.125093655202758
  0
LWPOLYLINE
  5
73D
330
18
100
AcDbEntity
  8
TEXT
100
AcDbPolyline
 90
        2
 70
     0
 43
0.0006660908203125
 10
2.619785734868811
 20
4.185041829030883
 10
2.619785734868811
 20
4.211685461843384
  0
LWPOLYLINE
  5
73E
330
18
100
AcDbEntity
  8
TEXT
100
AcDbPolyline
 90
        5
 70
     0
 43
0.0001332181640625
 10
2.609794372564123
 20
4.138415471609005
 10
2.609794372564123
 20
4.125093655202758
 10
2.646429367681312
 20
4.125093655202758
 10
2.646429367681312
 20
4.088458660085568
 10
2.659751184087561
 20
4.088458660085568
  0
LWPOLYLINE
  5
73F
330
18
100
AcDbEntity
  8
TEXT
100
AcDbPolyline
 90
        2
 70
     0
 43
0.0001332181640625
 10
2.57982028565006
 20
4.185041829030883
 10
2.58981164795475
 20
4.125093655202758
  0
LWPOLYLINE
  5
740
330
18
100
AcDbEntity
  8
TEXT
100
AcDbPolyline
 90
        2
 70
     0
 43
0.0001332181640625
 10
2.58981164795475
 20
4.138415471609005
 10
2.57982028565006
 20
4.211685461843384
  0
LWPOLYLINE
  5
741
330
18
100
AcDbEntity
  8
TEXT
100
AcDbPolyline
 90
        2
 70
     0
 43
0.0006660908203125
 10
2.57982028565006
 20
4.185041829030883
 10
2.57982028565006
 20
4.211685461843384
  0
LWPOLYLINE
  5
742
330
18
100
AcDbEntity
  8
TEXT
100
AcDbPolyline
 90
        2
 70
     0
 43
0.0006660908203125
 10
2.706377541509436
 20
4.098450022390257
 10
2.733021174321937
 20
4.098450022390257
  0
LWPOLYLINE
  5
743
330
18
100
AcDbEntity
  8
TEXT
100
AcDbPolyline
 90
        2
 70
     0
 43
0.0
 10
3.451801095070567
 20
3.996763771069798
 42
0.3318488747599744
 10
3.52092038763588
 20
3.94521242885487
 42
-6.868794160588311
  0
LINE
  5
744
330
18
100
AcDbEntity
  8
TEXT
100
AcDbLine
 10
3.519780814139685
 20
4.279696939582191
 30
0.0
 11
3.45297210157332
 21
4.279696939582191
 31
0.0
  0
LINE
  5
745
330
18
100
AcDbEntity
  8
TEXT
100
AcDbLine
 10
3.173629733954226
 20
4.211685461843381
 30
0.0
 11
2.997897981055714
 21
4.211685461843381
 31
0.0
  0
ARC
  5
746
330
18
100
AcDbEntity
  8
TEXT
100
AcDbCircle
 10
3.068735447414264
 20
4.028408237215427
 30
0.0
 40
0.0831958083605586
100
AcDbArc
 50
270.0
 51
90.0
  0
LINE
  5
747
330
18
100
AcDbEntity
  8
TEXT
100
AcDbLine
 10
3.003135311169963
 20
4.147408767186615
 30
0.0
 11
3.170040965198933
 21
4.147408767186615
 31
0.0
  0
LINE
  5
748
330
18
100
AcDbEntity
  8
TEXT
100
AcDbLine
 10
3.073675821320543
 20
4.013569435188309
 30
0.0
 11
2.915810521609209
 21
4.013569435188309
 31
0.0
  0
LINE
  5
749
330
18
100
AcDbEntity
  8
TEXT
100
AcDbLine
 10
2.915810521609211
 20
3.94521242885487
 30
0.0
 11
3.068735447414264
 21
3.94521242885487
 31
0.0
  0
ARC
  5
74A
330
18
100
AcDbEntity
  8
TEXT
100
AcDbCircle
 10
2.997897981055715
 20
4.129598002396879
 30
0.0
 40
0.0820874594465043
100
AcDbArc
 50
90.0
 51
270.0
  0
LINE
  5
74B
330
18
100
AcDbEntity
  8
TEXT
100
AcDbLine
 10
2.915810521609209
 20
4.013569435188309
 30
0.0
 11
2.915810521609211
 21
3.94521242885487
 31
0.0
  0
LINE
  5
74C
330
18
100
AcDbEntity
  8
TEXT
100
AcDbLine
 10
2.997897981055714
 20
4.047510542950374
 30
0.0
 11
3.073675821320543
 21
4.047510542950374
 31
0.0
  0
ARC
  5
74D
330
18
100
AcDbEntity
  8
TEXT
100
AcDbCircle
 10
3.073675821320544
 20
4.030539989069343
 30
0.0
 40
0.0169705538810321
100
AcDbArc
 50
270.0
 51
90.0
  0
LINE
  5
74E
330
18
100
AcDbEntity
  8
TEXT
100
AcDbLine
 10
3.068735447414264
 20
4.111604045575988
 30
0.0
 11
3.003135311169963
 21
4.111604045575988
 31
0.0
  0
ARC
  5
74F
330
18
100
AcDbEntity
  8
TEXT
100
AcDbCircle
 10
3.003135311169963
 20
4.129506406381303
 30
0.0
 40
0.017902360805315
100
AcDbArc
 50
90.0
 51
270.0
  0
LINE
  5
750
330
18
100
AcDbEntity
  8
TEXT
100
AcDbLine
 10
3.364101625974078
 20
4.11081346573026
 30
0.0
 11
3.30547130494214
 21
4.211685461843381
 31
0.0
  0
LINE
  5
751
330
18
100
AcDbEntity
  8
TEXT
100
AcDbLine
 10
3.223927572679039
 20
3.94521242885487
 30
0.0
 11
3.320567823754033
 21
3.945483067953152
 31
0.0
  0
LWPOLYLINE
  5
752
330
18
100
AcDbEntity
  8
TEXT
100
AcDbPolyline
 90
        6
 70
     1
 43
0.0
 10
3.266451376254189
 20
4.147408767186615
 10
3.23613478203398
 20
4.147408767186615
 10
3.23613478203398
 20
4.024297769131721
 42
0.407328721240804
 10
3.247678433195457
 20
4.012478854455335
 10
3.308300132240188
 20
4.012478854455335
 10
3.325765472647506
 20
4.045291083498814
  0
LINE
  5
753
330
18
100
AcDbEntity
  8
TEXT
100
AcDbLine
 10
3.170040965198933
 20
4.147408767186615
 30
0.0
 11
3.170040965198933
 21
4.00500482019292
 31
0.0
  0
ARC
  5
754
330
18
100
AcDbEntity
  8
TEXT
100
AcDbCircle
 10
3.230156983172685
 20
4.00500482019292
 30
0.0
 40
0.0601160179737537
100
AcDbArc
 50
180.0000000000003
 51
264.0521544866073
  0
LINE
  5
755
330
18
100
AcDbEntity
  8
TEXT
100
AcDbLine
 10
3.233672338798233
 20
4.246073379437519
 30
0.0
 11
3.173629733954226
 21
4.246073379437519
 31
0.0
  0
LINE
  5
756
330
18
100
AcDbEntity
  8
TEXT
100
AcDbLine
 10
3.173629733954226
 20
4.246073379437519
 30
0.0
 11
3.173629733954226
 21
4.211685461843381
 31
0.0
  0
LINE
  5
757
330
18
100
AcDbEntity
  8
TEXT
100
AcDbLine
 10
3.233672338798233
 20
4.211685461843381
 30
0.0
 11
3.233672338798233
 21
4.246073379437519
 31
0.0
  0
LINE
  5
758
330
18
100
AcDbEntity
  8
TEXT
100
AcDbLine
 10
3.30547130494214
 20
4.211685461843381
 30
0.0
 11
3.233672338798233
 21
4.211685461843381
 31
0.0
  0
LINE
  5
759
330
18
100
AcDbEntity
  8
TEXT
100
AcDbLine
 10
3.354501388977124
 20
3.965170934959883
 30
0.0
 11
3.451801095070568
 21
4.129521145895151
 31
0.0
  0
LINE
  5
75A
330
18
100
AcDbEntity
  8
TEXT
100
AcDbLine
 10
3.451801095070568
 20
4.129521145895151
 30
0.0
 11
3.451801095070568
 21
3.996763771069795
 31
0.0
  0
ARC
  5
75B
330
18
100
AcDbEntity
  8
TEXT
100
AcDbCircle
 10
3.32045782906491
 20
3.984760151128566
 30
0.0
 40
0.0392772371940762
100
AcDbArc
 50
270.1604552698595
 51
330.0831797321295
  0
LINE
  5
75C
330
18
100
AcDbEntity
  8
TEXT
100
AcDbLine
 10
3.422850188779944
 20
4.211685461843381
 30
0.0
 11
3.364101625974078
 21
4.11081346573026
 31
0.0
  0
LINE
  5
75D
330
18
100
AcDbEntity
  8
TEXT
100
AcDbLine
 10
3.45297210157332
 20
4.279696939582191
 30
0.0
 11
3.45297210157332
 21
4.211685461843381
 31
0.0
  0
LINE
  5
75E
330
18
100
AcDbEntity
  8
TEXT
100
AcDbLine
 10
3.45297210157332
 20
4.211685461843381
 30
0.0
 11
3.422850188779944
 21
4.211685461843381
 31
0.0
  0
LWPOLYLINE
  5
75F
330
18
100
AcDbEntity
  8
TEXT
100
AcDbPolyline
 90
        4
 70
     0
 43
0.0
 10
3.805058223193478
 20
4.139854978020506
 10
3.805058223193478
 20
3.94521242885487
 10
3.873536506481336
 20
3.94521242885487
 10
3.873536506481336
 20
3.988703373805308
 42
-1.714843617202739
  0
LWPOLYLINE
  5
760
330
18
100
AcDbEntity
  8
TEXT
100
AcDbPolyline
 90
        2
 70
     0
 43
0.0
 10
3.840192573737688
 20
4.211685461843384
 42
-0.3277054968067132
 10
3.875974264450853
 20
4.183362916073741
 42
6.667889725900311
  0
LWPOLYLINE
  5
761
330
18
100
AcDbEntity
  8
TEXT
100
AcDbPolyline
 90
        2
 70
     0
 43
0.0
 10
3.668759001158461
 20
4.147408767186615
 42
-0.4142135623731017
 10
3.676312790324574
 20
4.139854978020506
 42
-0.9999999999999998
  0
LINE
  5
762
330
18
100
AcDbEntity
  8
TEXT
100
AcDbLine
 10
3.686110724208481
 20
4.211685461843381
 30
0.0
 11
3.552092668277345
 21
4.211685461843381
 31
0.0
  0
LINE
  5
763
330
18
100
AcDbEntity
  8
TEXT
100
AcDbLine
 10
3.618923721335314
 20
3.94521242885487
 30
0.0
 11
3.618923721335314
 21
4.147408767186615
 31
0.0
  0
LINE
  5
764
330
18
100
AcDbEntity
  8
TEXT
100
AcDbLine
 10
3.552092668277345
 20
4.211685461843381
 30
0.0
 11
3.552092668277345
 21
4.010821255110973
 31
0.0
  0
LINE
  5
765
330
18
100
AcDbEntity
  8
TEXT
100
AcDbLine
 10
3.519780814139685
 20
4.027600266957869
 30
0.0
 11
3.519780814139685
 21
4.279696939582191
 31
0.0
  0
LINE
  5
766
330
18
100
AcDbEntity
  8
TEXT
100
AcDbLine
 10
3.52092038763588
 20
3.94521242885487
 30
0.0
 11
3.618923721335314
 21
3.94521242885487
 31
0.0
  0
LINE
  5
767
330
18
100
AcDbEntity
  8
TEXT
100
AcDbLine
 10
3.552092668277345
 20
4.010821255110973
 30
0.0
 11
3.535099031392744
 21
4.010821255110973
 31
0.0
  0
ARC
  5
768
330
18
100
AcDbEntity
  8
TEXT
100
AcDbCircle
 10
3.535099031392743
 20
4.026203061354398
 30
0.0
 40
0.0153818062434269
100
AcDbArc
 50
174.7883570302258
 51
270.0
  0
LINE
  5
769
330
18
100
AcDbEntity
  8
TEXT
100
AcDbLine
 10
3.618923721335314
 20
4.147408767186615
 30
0.0
 11
3.668759001158462
 21
4.147408767186615
 31
0.0
  0
LINE
  5
76A
330
18
100
AcDbEntity
  8
TEXT
100
AcDbLine
 10
3.676312790324575
 20
4.139854978020506
 30
0.0
 11
3.676312790324575
 21
3.94521242885487
 31
0.0
  0
LINE
  5
76B
330
18
100
AcDbEntity
  8
TEXT
100
AcDbLine
 10
3.743370837106415
 20
3.94521242885487
 30
0.0
 11
3.743370837106415
 21
4.147408767186615
 31
0.0
  0
LINE
  5
76C
330
18
100
AcDbEntity
  8
TEXT
100
AcDbLine
 10
3.676312790324575
 20
3.94521242885487
 30
0.0
 11
3.743370837106415
 21
3.94521242885487
 31
0.0
  0
LWPOLYLINE
  5
76D
330
18
100
AcDbEntity
  8
TEXT
100
AcDbPolyline
 90
        3
 70
     0
 43
0.0
 10
3.840192573737688
 20
4.211685461843384
 10
3.721892414921644
 20
4.211685461843384
 10
3.721892414921644
 20
4.184517965082489
 42
-1.960274751411753
  0
LINE
  5
76E
330
18
100
AcDbEntity
  8
TEXT
100
AcDbLine
 10
3.743370837106415
 20
4.147408767186615
 30
0.0
 11
3.797504434027366
 21
4.147408767186615
 31
0.0
  0
LWPOLYLINE
  5
76F
330
18
100
AcDbEntity
  8
TEXT
100
AcDbPolyline
 90
        2
 70
     0
 43
0.0
 10
3.686110724208482
 20
4.211685461843384
 42
-0.3328679258950098
 10
3.721892414921644
 20
4.184517965082489
 42
6.772930709997214
  0
LWPOLYLINE
  5
770
330
18
100
AcDbEntity
  8
TEXT
100
AcDbPolyline
 90
        2
 70
     0
 43
0.0
 10
3.797504434027365
 20
4.147408767186615
 42
-0.4142135623731017
 10
3.805058223193478
 20
4.139854978020506
 42
-0.9999999999999998
  0
ARC
  5
771
330
18
100
AcDbEntity
  8
TEXT
100
AcDbCircle
 10
4.008779233890845
 20
4.170101894722479
 30
0.0
 40
0.0416329381542859
100
AcDbArc
 50
26.56974201007528
 51
87.20939649401342
  0
LWPOLYLINE
  5
772
330
18
100
AcDbEntity
  8
TEXT
100
AcDbPolyline
 90
        2
 70
     0
 43
0.0
 10
3.916612439348972
 20
3.94521242885487
 10
4.050629856980348
 20
3.94521242885487
 42
0.9999999999999998
  0
LWPOLYLINE
  5
773
330
18
100
AcDbEntity
  8
TEXT
100
AcDbPolyline
 90
        4
 70
     1
 43
0.0
 10
4.030507391910456
 20
4.048176406838895
 10
3.941847073250597
 20
4.048176406838895
 42
0.9999999999999998
 10
3.941847073250597
 20
4.005777866335034
 10
4.030507391910456
 20
4.005777866335034
 42
1.0
  0
LWPOLYLINE
  5
774
330
18
100
AcDbEntity
  8
TEXT
100
AcDbPolyline
 90
        2
 70
     0
 43
0.0
 10
3.873536506481336
 20
3.988703373805308
 42
0.2901071551932823
 10
3.916612439348972
 20
3.94521242885487
 42
5.328517124445801
  0
LINE
  5
775
330
18
100
AcDbEntity
  8
TEXT
100
AcDbLine
 10
4.010806173667913
 20
4.211685461843381
 30
0.0
 11
3.875974264450854
 21
4.211685461843381
 31
0.0
  0
LINE
  5
776
330
18
100
AcDbEntity
  8
TEXT
100
AcDbLine
 10
3.935288360844173
 20
4.110133793724483
 30
0.0
 11
4.017576350627556
 21
4.110133793724483
 31
0.0
  0
LINE
  5
777
330
18
100
AcDbEntity
  8
TEXT
100
AcDbLine
 10
3.981775275323435
 20
4.147408767186615
 30
0.0
 11
3.874569001936145
 21
4.147408767186615
 31
0.0
  0
LINE
  5
778
330
18
100
AcDbEntity
  8
TEXT
100
AcDbLine
 10
3.875974264450854
 20
4.211685461843381
 30
0.0
 11
3.875974264450854
 21
4.183362916073737
 31
0.0
  0
ARC
  5
779
330
18
100
AcDbEntity
  8
TEXT
100
AcDbCircle
 10
3.935288360844172
 20
4.042448212580365
 30
0.0
 40
0.0676855811441166
100
AcDbArc
 50
90.0
 51
153.7768192527749
  0
LINE
  5
77A
330
18
100
AcDbEntity
  8
TEXT
100
AcDbLine
 10
3.874569001936145
 20
4.147408767186615
 30
0.0
 11
3.874569001936145
 21
4.072356361112409
 31
0.0
  0
LINE
  5
77B
330
18
100
AcDbEntity
  8
TEXT
100
AcDbLine
 10
4.017576350627556
 20
4.110133793724483
 30
0.0
 11
4.007311590213991
 21
4.131384333297178
 31
0.0
  0
ARC
  5
77C
330
18
100
AcDbEntity
  8
TEXT
100
AcDbCircle
 10
3.981775275323434
 20
4.119049392186618
 30
0.0
 40
0.028359375
100
AcDbArc
 50
25.78218179591245
 51
90.0
  0
LINE
  5
77D
330
18
100
AcDbEntity
  8
TEXT
100
AcDbLine
 10
4.152061003683328
 20
3.94521242885487
 30
0.0
 11
4.152061003683322
 21
4.122502934286338
 31
0.0
  0
LWPOLYLINE
  5
77E
330
18
100
AcDbEntity
  8
TEXT
100
AcDbPolyline
 90
        2
 70
     0
 43
0.0
 10
4.093705789847993
 20
3.94521242885487
 10
4.152061003683327
 20
3.94521242885487
  0
LWPOLYLINE
  5
77F
330
18
100
AcDbEntity
  8
TEXT
100
AcDbPolyline
 90
        2
 70
     0
 43
0.0
 10
4.093705789847993
 20
3.988703373805308
 42
-0.2901071551932486
 10
4.050629856980348
 20
3.94521242885487
 42
-5.328517124445184
  0
LWPOLYLINE
  5
780
330
18
100
AcDbEntity
  8
TEXT
100
AcDbPolyline
 90
        2
 70
     0
 43
0.0
 10
4.093705789847993
 20
3.988703373805308
 10
4.093705789847993
 20
3.94521242885487
  0
LINE
  5
781
330
18
100
AcDbEntity
  8
TEXT
100
AcDbLine
 10
4.153663018842455
 20
4.211685461843381
 30
0.0
 11
4.089766112542954
 21
4.211685461843381
 31
0.0
  0
LINE
  5
782
330
18
100
AcDbEntity
  8
TEXT
100
AcDbLine
 10
4.089766112542954
 20
4.211685461843381
 30
0.0
 11
4.089766112542954
 21
4.106473483289954
 31
0.0
  0
LINE
  5
783
330
18
100
AcDbEntity
  8
TEXT
100
AcDbLine
 10
4.089766112542954
 20
4.106473483289954
 30
0.0
 11
4.046015341361052
 21
4.188723759286099
 31
0.0
  0
ARC
  5
784
330
18
100
AcDbEntity
  8
TEXT
100
AcDbCircle
 10
4.176966878965986
 20
4.122502891903953
 30
0.0
 40
0.0249058752826653
100
AcDbArc
 50
89.99971217465335
 51
179.9999999999985
  0
ARC
  5
785
330
18
100
AcDbEntity
  8
TEXT
100
AcDbCircle
 10
4.184855835905564
 20
4.180439734561116
 30
0.0
 40
0.0314112657011332
100
AcDbArc
 50
95.88484768694724
 51
173.2388340632136
  0
LINE
  5
786
330
18
100
AcDbEntity
  8
TEXT
100
AcDbLine
 10
4.153663018842455
 20
4.184137811982506
 30
0.0
 11
4.153663018842455
 21
4.211685461843381
 31
0.0
  0
TEXT
  5
787
330
18
100
AcDbEntity
  8
TEXT
100
AcDbText
 10
4.622538538264246
 20
4.038098237500366
 30
0.0
 40
0.0522247191011236
  1
Minneapolis, MN 55432-0008
 41
1.11444212721585
 72
     5
 11
5.951471122533909
 21
4.038098237500366
 31
0.0
100
AcDbText
  0
TEXT
  5
788
330
18
100
AcDbEntity
  8
TEXT
100
AcDbText
 10
4.622538538264246
 20
4.131356664466658
 30
0.0
 40
0.0522247191011236
  1
6536 Main St. N.E. * P.O. Box 32008
 41
0.8388932496075369
 72
     5
 11
5.951471122533909
 21
4.131356664466658
 31
0.0
100
AcDbText
  0
TEXT
  5
789
330
18
100
AcDbEntity
  8
TEXT
100
AcDbText
 10
4.622538538264246
 20
4.22461509143295
 30
0.0
 40
0.0522247191011236
  1
Stylmark  Incorporated
 41
1.221428571428571
 72
     5
 11
5.951471122533909
 21
4.22461509143295
 31
0.0
100
AcDbText
  0
TEXT
  5
78A
330
18
100
AcDbEntity
  8
TEXT
100
AcDbText
 10
4.622538538264246
 20
3.944839810534074
 30
0.0
 40
0.0522247191011236
  1
Phone  1-800-328-2495
 41
1.272321428571429
 72
     5
 11
5.951471122533909
 21
3.944839810534074
 31
0.0
100
AcDbText
  0
LINE
  5
78B
330
18
100
AcDbEntity
  8
TEXT
100
AcDbLine
 10
4.37498272680123
 20
4.101792218902407
 30
0.0
 11
4.439539842766936
 21
4.211685461843381
 31
0.0
  0
LINE
  5
78C
330
18
100
AcDbEntity
  8
TEXT
100
AcDbLine
 10
4.439539842766936
 20
4.211685461843381
 30
0.0
 11
4.364548010037309
 21
4.211685461843381
 31
0.0
  0
LINE
  5
78D
330
18
100
AcDbEntity
  8
TEXT
100
AcDbLine
 10
4.393896577788635
 20
3.94521242885487
 30
0.0
 11
4.470474950164841
 21
3.94521242885487
 31
0.0
  0
LINE
  5
78E
330
18
100
AcDbEntity
  8
TEXT
100
AcDbLine
 10
4.470474950164841
 20
3.94521242885487
 30
0.0
 11
4.37498272680123
 21
4.101792218902407
 31
0.0
  0
LINE
  5
78F
330
18
100
AcDbEntity
  8
TEXT
100
AcDbLine
 10
4.31799304457717
 20
3.94521242885487
 30
0.0
 11
4.31799304457717
 21
4.07679199733105
 31
0.0
  0
LINE
  5
790
330
18
100
AcDbEntity
  8
TEXT
100
AcDbLine
 10
4.31799304457717
 20
4.07679199733105
 30
0.0
 11
4.393896577788635
 21
3.94521242885487
 31
0.0
  0
LINE
  5
791
330
18
100
AcDbEntity
  8
TEXT
100
AcDbLine
 10
4.253614860258545
 20
4.147408767186615
 30
0.0
 11
4.25361486025855
 21
3.94521242885487
 31
0.0
  0
LINE
  5
792
330
18
100
AcDbEntity
  8
TEXT
100
AcDbLine
 10
4.25361486025855
 20
3.94521242885487
 30
0.0
 11
4.31799304457717
 21
3.94521242885487
 31
0.0
  0
LINE
  5
793
330
18
100
AcDbEntity
  8
TEXT
100
AcDbLine
 10
4.317449851481323
 20
4.277149667610982
 30
0.0
 11
4.24913497293205
 21
4.277149667610982
 31
0.0
  0
LINE
  5
794
330
18
100
AcDbEntity
  8
TEXT
100
AcDbLine
 10
4.24913497293205
 20
4.277149667610982
 30
0.0
 11
4.249134972932044
 21
4.211685461843381
 31
0.0
  0
LINE
  5
795
330
18
100
AcDbEntity
  8
TEXT
100
AcDbLine
 10
4.364548010037307
 20
4.211685461843381
 30
0.0
 11
4.317449851481323
 21
4.135820135431843
 31
0.0
  0
LINE
  5
796
330
18
100
AcDbEntity
  8
TEXT
100
AcDbLine
 10
4.317449851481323
 20
4.135820135431843
 30
0.0
 11
4.317449851481323
 21
4.277149667610982
 31
0.0
  0
ENDSEC
  0
SECTION
  2
OBJECTS
  0
DICTIONARY
  5
C
330
0
100
AcDbDictionary
  3
ACAD_GROUP
350
D
  3
ACAD_LAYOUT
350
79B
  3
ACAD_MLINESTYLE
350
E
  3
ACAD_PLOTSETTINGS
350
79C
  3
ACAD_PLOTSTYLENAME
350
799
  3
ACDBHEADERROUNDTRIPXREC
350
7A6
  3
ACDBVARIABLEDICTIONARY
350
7A3
  0
DICTIONARY
  5
7C8
330
18
100
AcDbDictionary
280
     1
  3
ACAD_LAYOUTSELFREF
360
7C9
  0
DICTIONARY
  5
7C6
330
15
100
AcDbDictionary
280
     1
  3
ACAD_LAYOUTSELFREF
360
7C7
  0
DICTIONARY
  5
D
102
{ACAD_REACTORS
330
C
102
}
330
C
100
AcDbDictionary
  3
*A1
350
3C5
  3
*A2
350
57E
  3
*A3
350
65A
  0
DICTIONARY
  5
79B
102
{ACAD_REACTORS
330
C
102
}
330
C
100
AcDbDictionary
  0
DICTIONARY
  5
E
102
{ACAD_REACTORS
330
C
102
}
330
C
100
AcDbDictionary
  3
STANDARD
350
1B
  0
DICTIONARY
  5
79C
102
{ACAD_REACTORS
330
C
102
}
330
C
100
AcDbDictionary
  0
ACDBDICTIONARYWDFLT
  5
799
102
{ACAD_REACTORS
330
C
102
}
330
C
100
AcDbDictionary
281
     1
  3
Normal
350
79A
100
AcDbDictionaryWithDefault
340
79A
  0
DICTIONARY
  5
7A6
102
{ACAD_REACTORS
330
C
102
}
330
C
100
AcDbDictionary
  3
CEPSNTYPE
350
7B0
  3
FINGERPRINTGUID
350
7B1
  3
HYPERLINKBASE
350
7A9
  3
INSUNITS
350
7AF
  3
LAYOUTDICT
350
7AB
  3
LWETCUNION
350
7AE
  3
PLOTSETDICT
350
7AC
  3
PLOTSTYLNAMDICT
350
7AD
  3
PSVPSCALE
350
7B3
  3
PUCSBASE
350
7B6
  3
PUCSORGBACK
350
7BC
  3
PUCSORGBOTTOM
350
7B8
  3
PUCSORGFRONT
350
7BB
  3
PUCSORGLEFT
350
7B9
  3
PUCSORGRIGHT
350
7BA
  3
PUCSORGTOP
350
7B7
  3
PUCSORTHOREF
350
7B4
  3
PUCSORTHOVIEW
350
7B5
  3
STYLESHEET
350
7AA
  3
TSTACKALIGN
350
7A7
  3
TSTACKSIZE
350
7A8
  3
UCSBASE
350
7BF
  3
UCSORGBACK
350
7C5
  3
UCSORGBOTTOM
350
7C1
  3
UCSORGFRONT
350
7C4
  3
UCSORGLEFT
350
7C2
  3
UCSORGRIGHT
350
7C3
  3
UCSORGTOP
350
7C0
  3
UCSORTHOREF
350
7BD
  3
UCSORTHOVIEW
350
7BE
  3
VERSIONGUID
350
7B2
  0
DICTIONARY
  5
7A3
102
{ACAD_REACTORS
330
C
102
}
330
C
100
AcDbDictionary
  3
DIMASSOC
350
7A4
  0
XRECORD
  5
7C9
102
{ACAD_REACTORS
330
7C8
102
}
330
7C8
100
AcDbXrecord
340
18
  0
XRECORD
  5
7C7
102
{ACAD_REACTORS
330
7C6
102
}
330
7C6
100
AcDbXrecord
340
15
  0
GROUP
  5
3C5
102
{ACAD_REACTORS
330
D
102
}
330
D
100
AcDbGroup
300
BORDER FRAME 10-1-95
 70
     3
 71
     1
  0
GROUP
  5
57E
102
{ACAD_REACTORS
330
D
102
}
330
D
100
AcDbGroup
300

 70
     1
 71
     1
  0
GROUP
  5
65A
102
{ACAD_REACTORS
330
D
102
}
330
D
100
AcDbGroup
300

 70
     1
 71
     1
  0
MLINESTYLE
  5
1B
102
{ACAD_REACTORS
330
E
102
}
330
E
100
AcDbMlineStyle
  2
STANDARD
 70
     0
  3

 62
     0
 51
90.0
 52
90.0
 71
     2
 49
0.5
 62
   256
  6
BYLAYER
 49
-0.5
 62
   256
  6
BYLAYER
  0
ACDBPLACEHOLDER
  5
79A
102
{ACAD_REACTORS
330
799
102
}
330
799
100
AcDbPlaceHolder
280
     0
  0
XRECORD
  5
7B0
102
{ACAD_REACTORS
330
7A6
102
}
330
7A6
100
AcDbXrecord
 90
        0
  0
XRECORD
  5
7B1
102
{ACAD_REACTORS
330
7A6
102
}
330
7A6
100
AcDbXrecord
  1
{3351CA80-8DB6-11D6-88E6-0090279574E7}
  0
XRECORD
  5
7A9
102
{ACAD_REACTORS
330
7A6
102
}
330
7A6
100
AcDbXrecord
  1

  0
XRECORD
  5
7AF
102
{ACAD_REACTORS
330
7A6
102
}
330
7A6
100
AcDbXrecord
 90
        0
  0
XRECORD
  5
7AB
102
{ACAD_REACTORS
330
7A6
102
}
330
7A6
100
AcDbXrecord
340
79B
  0
XRECORD
  5
7AE
102
{ACAD_REACTORS
330
7A6
102
}
330
7A6
100
AcDbXrecord
 90
    14877
  0
XRECORD
  5
7AC
102
{ACAD_REACTORS
330
7A6
102
}
330
7A6
100
AcDbXrecord
340
79C
  0
XRECORD
  5
7AD
102
{ACAD_REACTORS
330
7A6
102
}
330
7A6
100
AcDbXrecord
340
799
  0
XRECORD
  5
7B3
102
{ACAD_REACTORS
330
7A6
102
}
330
7A6
100
AcDbXrecord
 40
0.0
  0
XRECORD
  5
7B6
102
{ACAD_REACTORS
330
7A6
102
}
330
7A6
100
AcDbXrecord
340
0
  0
XRECORD
  5
7BC
102
{ACAD_REACTORS
330
7A6
102
}
330
7A6
100
AcDbXrecord
 10
0.0
 20
0.0
 30
0.0
  0
XRECORD
  5
7B8
102
{ACAD_REACTORS
330
7A6
102
}
330
7A6
100
AcDbXrecord
 10
0.0
 20
0.0
 30
0.0
  0
XRECORD
  5
7BB
102
{ACAD_REACTORS
330
7A6
102
}
330
7A6
100
AcDbXrecord
 10
0.0
 20
0.0
 30
0.0
  0
XRECORD
  5
7B9
102
{ACAD_REACTORS
330
7A6
102
}
330
7A6
100
AcDbXrecord
 10
0.0
 20
0.0
 30
0.0
  0
XRECORD
  5
7BA
102
{ACAD_REACTORS
330
7A6
102
}
330
7A6
100
AcDbXrecord
 10
0.0
 20
0.0
 30
0.0
  0
XRECORD
  5
7B7
102
{ACAD_REACTORS
330
7A6
102
}
330
7A6
100
AcDbXrecord
 10
0.0
 20
0.0
 30
0.0
  0
XRECORD
  5
7B4
102
{ACAD_REACTORS
330
7A6
102
}
330
7A6
100
AcDbXrecord
340
0
  0
XRECORD
  5
7B5
102
{ACAD_REACTORS
330
7A6
102
}
330
7A6
100
AcDbXrecord
 70
     0
  0
XRECORD
  5
7AA
102
{ACAD_REACTORS
330
7A6
102
}
330
7A6
100
AcDbXrecord
  1

  0
XRECORD
  5
7A7
102
{ACAD_REACTORS
330
7A6
102
}
330
7A6
100
AcDbXrecord
 90
        1
  0
XRECORD
  5
7A8
102
{ACAD_REACTORS
330
7A6
102
}
330
7A6
100
AcDbXrecord
 90
       70
  0
XRECORD
  5
7BF
102
{ACAD_REACTORS
330
7A6
102
}
330
7A6
100
AcDbXrecord
340
0
  0
XRECORD
  5
7C5
102
{ACAD_REACTORS
330
7A6
102
}
330
7A6
100
AcDbXrecord
 10
0.0
 20
0.0
 30
0.0
  0
XRECORD
  5
7C1
102
{ACAD_REACTORS
330
7A6
102
}
330
7A6
100
AcDbXrecord
 10
0.0
 20
0.0
 30
0.0
  0
XRECORD
  5
7C4
102
{ACAD_REACTORS
330
7A6
102
}
330
7A6
100
AcDbXrecord
 10
0.0
 20
0.0
 30
0.0
  0
XRECORD
  5
7C2
102
{ACAD_REACTORS
330
7A6
102
}
330
7A6
100
AcDbXrecord
 10
0.0
 20
0.0
 30
0.0
  0
XRECORD
  5
7C3
102
{ACAD_REACTORS
330
7A6
102
}
330
7A6
100
AcDbXrecord
 10
0.0
 20
0.0
 30
0.0
  0
XRECORD
  5
7C0
102
{ACAD_REACTORS
330
7A6
102
}
330
7A6
100
AcDbXrecord
 10
0.0
 20
0.0
 30
0.0
  0
XRECORD
  5
7BD
102
{ACAD_REACTORS
330
7A6
102
}
330
7A6
100
AcDbXrecord
340
0
  0
XRECORD
  5
7BE
102
{ACAD_REACTORS
330
7A6
102
}
330
7A6
100
AcDbXrecord
 70
     0
  0
XRECORD
  5
7B2
102
{ACAD_REACTORS
330
7A6
102
}
330
7A6
100
AcDbXrecord
  1
{3351CA82-8DB6-11D6-88E6-0090279574E7}
  0
DICTIONARYVAR
  5
7A4
102
{ACAD_REACTORS
330
7A3
102
}
330
7A3
100
DictionaryVariables
280
     0
  1
1
  0
ENDSEC
  0
EOF
