  0
SECTION
  2
HEADER
  9
$ACADVER
  1
AC1014
  9
$ACADMAINTVER
 70
     9
  9
$DWGCODEPAGE
  3
ANSI_1252
  9
$INSBASE
 10
5.830281239840158
 20
5.862455431753643
 30
0.0
  9
$EXTMIN
 10
4.295367294422455
 20
3.897072320271932
 30
0.0
  9
$EXTMAX
 10
7.780586616169589
 20
6.663715002664812
 30
0.0
  9
$LIMMIN
 10
0.0
 20
0.0
  9
$LIMMAX
 10
18.0
 20
12.0
  9
$ORTHOMODE
 70
     1
  9
$REGENMODE
 70
     1
  9
$FILLMODE
 70
     1
  9
$QTEXTMODE
 70
     0
  9
$MIRRTEXT
 70
     0
  9
$DRAGMODE
 70
     2
  9
$LTSCALE
 40
1.0
  9
$OSMODE
 70
    39
  9
$ATTMODE
 70
     1
  9
$TEXTSIZE
 40
0.125
  9
$TRACEWID
 40
0.05
  9
$TEXTSTYLE
  7
ROMANS
  9
$CLAYER
  8
0
  9
$CELTYPE
  6
BYLAYER
  9
$CECOLOR
 62
   256
  9
$CELTSCALE
 40
1.0
  9
$DELOBJ
 70
     1
  9
$DISPSILH
 70
     1
  9
$DIMSCALE
 40
1.0
  9
$DIMASZ
 40
0.125
  9
$DIMEXO
 40
0.125
  9
$DIMDLI
 40
0.375
  9
$DIMRND
 40
0.0
  9
$DIMDLE
 40
0.0
  9
$DIMEXE
 40
0.125
  9
$DIMTP
 40
0.0
  9
$DIMTM
 40
0.0
  9
$DIMTXT
 40
0.125
  9
$DIMCEN
 40
-0.125
  9
$DIMTSZ
 40
0.0
  9
$DIMTOL
 70
     0
  9
$DIMLIM
 70
     0
  9
$DIMTIH
 70
     1
  9
$DIMTOH
 70
     1
  9
$DIMSE1
 70
     0
  9
$DIMSE2
 70
     0
  9
$DIMTAD
 70
     0
  9
$DIMZIN
 70
     4
  9
$DIMBLK
  1

  9
$DIMASO
 70
     1
  9
$DIMSHO
 70
     1
  9
$DIMPOST
  1

  9
$DIMAPOST
  1

  9
$DIMALT
 70
     0
  9
$DIMALTD
 70
     2
  9
$DIMALTF
 40
25.4
  9
$DIMLFAC
 40
1.0
  9
$DIMTOFL
 70
     0
  9
$DIMTVP
 40
0.0
  9
$DIMTIX
 70
     1
  9
$DIMSOXD
 70
     0
  9
$DIMSAH
 70
     0
  9
$DIMBLK1
  1

  9
$DIMBLK2
  1

  9
$DIMSTYLE
  2
STANDARD
  9
$DIMCLRD
 70
     0
  9
$DIMCLRE
 70
     0
  9
$DIMCLRT
 70
     0
  9
$DIMTFAC
 40
1.0
  9
$DIMGAP
 40
0.09
  9
$DIMJUST
 70
     0
  9
$DIMSD1
 70
     0
  9
$DIMSD2
 70
     0
  9
$DIMTOLJ
 70
     1
  9
$DIMTZIN
 70
     4
  9
$DIMALTZ
 70
     0
  9
$DIMALTTZ
 70
     0
  9
$DIMFIT
 70
     3
  9
$DIMUPT
 70
     0
  9
$DIMUNIT
 70
     2
  9
$DIMDEC
 70
     3
  9
$DIMTDEC
 70
     3
  9
$DIMALTU
 70
     2
  9
$DIMALTTD
 70
     2
  9
$DIMTXSTY
  7
ROMANS
  9
$DIMAUNIT
 70
     0
  9
$LUNITS
 70
     2
  9
$LUPREC
 70
     3
  9
$SKETCHINC
 40
0.1
  9
$FILLETRAD
 40
0.03125
  9
$AUNITS
 70
     0
  9
$AUPREC
 70
     0
  9
$MENU
  1
ACAD
  9
$ELEVATION
 40
0.0
  9
$PELEVATION
 40
0.0
  9
$THICKNESS
 40
0.0
  9
$LIMCHECK
 70
     0
  9
$BLIPMODE
 70
     0
  9
$CHAMFERA
 40
0.0
  9
$CHAMFERB
 40
0.0
  9
$CHAMFERC
 40
0.0
  9
$CHAMFERD
 40
0.0
  9
$SKPOLY
 70
     0
  9
$TDCREATE
 40
2448994.566799884
  9
$TDUPDATE
 40
2452458.306364687
  9
$TDINDWG
 40
0.0007174306
  9
$TDUSRTIMER
 40
0.0007174306
  9
$USRTIMER
 70
     1
  9
$ANGBASE
 50
0.0
  9
$ANGDIR
 70
     0
  9
$PDMODE
 70
     0
  9
$PDSIZE
 40
0.0
  9
$PLINEWID
 40
0.0
  9
$COORDS
 70
     2
  9
$SPLFRAME
 70
     0
  9
$SPLINETYPE
 70
     6
  9
$SPLINESEGS
 70
     8
  9
$ATTDIA
 70
     0
  9
$ATTREQ
 70
     1
  9
$HANDLING
 70
 22529
  9
$HANDSEED
  5
7DE1B343D9E1A21
  9
$SURFTAB1
 70
     6
  9
$SURFTAB2
 70
     6
  9
$SURFTYPE
 70
     6
  9
$SURFU
 70
     6
  9
$SURFV
 70
     6
  9
$UCSNAME
  2

  9
$UCSORG
 10
0.0
 20
0.0
 30
0.0
  9
$UCSXDIR
 10
1.0
 20
0.0
 30
0.0
  9
$UCSYDIR
 10
0.0
 20
1.0
 30
0.0
  9
$PUCSNAME
  2

  9
$PUCSORG
 10
0.0
 20
0.0
 30
0.0
  9
$PUCSXDIR
 10
1.0
 20
0.0
 30
0.0
  9
$PUCSYDIR
 10
0.0
 20
1.0
 30
0.0
  9
$USERI1
 70
     0
  9
$USERI2
 70
     0
  9
$USERI3
 70
     0
  9
$USERI4
 70
     0
  9
$USERI5
 70
     0
  9
$USERR1
 40
0.0
  9
$USERR2
 40
0.0
  9
$USERR3
 40
0.0
  9
$USERR4
 40
0.0
  9
$USERR5
 40
0.0
  9
$WORLDVIEW
 70
     1
  9
$SHADEDGE
 70
     3
  9
$SHADEDIF
 70
    70
  9
$TILEMODE
 70
     1
  9
$MAXACTVP
 70
    16
  9
$PINSBASE
 10
3.636922518946285
 20
50.00000000000001
 30
5.040552518100373
  9
$PLIMCHECK
 70
     0
  9
$PEXTMIN
 10
1.000000000000000E+20
 20
1.000000000000000E+20
 30
1.000000000000000E+20
  9
$PEXTMAX
 10
-1.000000000000000E+20
 20
-1.000000000000000E+20
 30
-1.000000000000000E+20
  9
$PLIMMIN
 10
0.0
 20
0.0
  9
$PLIMMAX
 10
12.0
 20
9.0
  9
$UNITMODE
 70
     0
  9
$VISRETAIN
 70
     0
  9
$PLINEGEN
 70
     1
  9
$PSLTSCALE
 70
     0
  9
$TREEDEPTH
 70
  3020
  9
$PICKSTYLE
 70
     1
  9
$CMLSTYLE
  2
STANDARD
  9
$CMLJUST
 70
     0
  9
$CMLSCALE
 40
1.0
  9
$PROXYGRAPHICS
 70
     1
  9
$MEASUREMENT
 70
     0
  0
ENDSEC
  0
SECTION
  2
CLASSES
  0
CLASS
  1
LWPOLYLINE
  2
AcDbPolyline
  3
AutoCAD 2000
 90
        0
280
     0
281
     1
  0
CLASS
  1
ACDBDICTIONARYWDFLT
  2
AcDbDictionaryWithDefault
  3
AutoCAD 2000
 90
        0
280
     0
281
     0
  0
CLASS
  1
ACDBPLACEHOLDER
  2
AcDbPlaceHolder
  3
AutoCAD 2000
 90
        0
280
     0
281
     0
  0
CLASS
  1
LAYOUT
  2
AcDbLayout
  3
AutoCAD 2000
 90
        0
280
     0
281
     0
  0
CLASS
  1
DICTIONARYVAR
  2
AcDbDictionaryVar
  3
AutoCAD 2000
 90
        0
280
     0
281
     0
  0
CLASS
  1
LONG_TRANSACTION
  2
AcDbLongTransaction
  3
AutoCAD 2000
 90
        0
280
     0
281
     0
  0
CLASS
  1
LWPOLYLINE
  2
AcDbPolyline
  3
AutoCAD 2000
 90
        0
280
     0
281
     1
  0
CLASS
  1
HATCH
  2
AcDbHatch
  3
AutoCAD 2000
 90
        0
280
     0
281
     1
  0
CLASS
  1
XRECORD
  2
AcDbXrecord
  3
AutoCAD 2000
 90
        0
280
     0
281
     0
  0
ENDSEC
  0
SECTION
  2
TABLES
  0
TABLE
  2
VPORT
  5
7DE1B343D9E19AD
330
0
100
AcDbSymbolTable
 70
     2
  0
VPORT
  5
7DE1B343D9E19FC
330
7DE1B343D9E19AD
100
AcDbSymbolTableRecord
100
AcDbViewportTableRecord
  2
*ACTIVE
 70
     0
 10
0.0
 20
0.0
 11
1.0
 21
1.0
 12
10.11116088233096
 22
5.280395534914447
 13
0.0
 23
0.0
 14
0.015625
 24
0.015625
 15
0.0
 25
0.0
 16
0.0
 26
0.0
 36
1.0
 17
0.0
 27
0.0
 37
0.0
 40
3.123455069471626
 41
4.320930232558139
 42
50.0
 43
0.0
 44
0.0
 50
0.0
 51
0.0
 71
     0
 72
  2000
 73
     1
 74
     0
 75
     0
 76
     0
 77
     0
 78
     0
  0
ENDTAB
  0
TABLE
  2
LTYPE
  5
7DE1B343D9E19AA
330
0
100
AcDbSymbolTable
 70
     1
  0
LTYPE
  5
7DE1B343D9E19B7
330
7DE1B343D9E19AA
100
AcDbSymbolTableRecord
100
AcDbLinetypeTableRecord
  2
BYBLOCK
 70
     0
  3

 72
    65
 73
     0
 40
0.0
  0
LTYPE
  5
7DE1B343D9E19B8
330
7DE1B343D9E19AA
100
AcDbSymbolTableRecord
100
AcDbLinetypeTableRecord
  2
BYLAYER
 70
     0
  3

 72
    65
 73
     0
 40
0.0
  0
LTYPE
  5
7DE1B343D9E19B9
330
7DE1B343D9E19AA
100
AcDbSymbolTableRecord
100
AcDbLinetypeTableRecord
  2
CONTINUOUS
 70
     0
  3
Solid line
 72
    65
 73
     0
 40
0.0
  0
ENDTAB
  0
TABLE
  2
LAYER
  5
7DE1B343D9E19A7
330
0
100
AcDbSymbolTable
 70
     3
  0
LAYER
  5
7DE1B343D9E19B4
330
7DE1B343D9E19A7
100
AcDbSymbolTableRecord
100
AcDbLayerTableRecord
  2
0
 70
     0
 62
     7
  6
CONTINUOUS
  0
LAYER
  5
7DE1B343D9E19C4
330
7DE1B343D9E19A7
100
AcDbSymbolTableRecord
100
AcDbLayerTableRecord
  2
TEXT
 70
     0
 62
     3
  6
CONTINUOUS
  0
LAYER
  5
7DE1B343D9E19D4
330
7DE1B343D9E19A7
100
AcDbSymbolTableRecord
100
AcDbLayerTableRecord
  2
ASHADE
 70
     4
 62
     7
  6
CONTINUOUS
  0
ENDTAB
  0
TABLE
  2
STYLE
  5
7DE1B343D9E19A8
330
0
100
AcDbSymbolTable
 70
     4
  0
STYLE
  5
7DE1B343D9E19B5
330
7DE1B343D9E19A8
100
AcDbSymbolTableRecord
100
AcDbTextStyleTableRecord
  2
STANDARD
 70
     0
 40
0.0
 41
1.0
 50
0.0
 71
     0
 42
0.3125
  3
txt
  4

  0
STYLE
  5
7DE1B343D9E19C1
330
7DE1B343D9E19A8
100
AcDbSymbolTableRecord
100
AcDbTextStyleTableRecord
  2
ITALICC
 70
     0
 40
0.0
 41
1.0
 50
0.0
 71
     0
 42
0.125
  3
italicc
  4

  0
STYLE
  5
7DE1B343D9E19D1
330
7DE1B343D9E19A8
100
AcDbSymbolTableRecord
100
AcDbTextStyleTableRecord
  2
ASHADE
 70
     0
 40
0.2
 41
1.0
 50
0.0
 71
     0
 42
0.3125
  3
simplex
  4

  0
STYLE
  5
7DE1B343D9E19EC
330
7DE1B343D9E19A8
100
AcDbSymbolTableRecord
100
AcDbTextStyleTableRecord
  2
ROMANS
 70
     0
 40
0.0
 41
1.0
 50
0.0
 71
     0
 42
0.125
  3
romans.shx
  4

  0
ENDTAB
  0
TABLE
  2
VIEW
  5
7DE1B343D9E19AB
330
0
100
AcDbSymbolTable
 70
     0
  0
ENDTAB
  0
TABLE
  2
UCS
  5
7DE1B343D9E19AC
330
0
100
AcDbSymbolTable
 70
     0
  0
ENDTAB
  0
TABLE
  2
APPID
  5
7DE1B343D9E19AE
330
0
100
AcDbSymbolTable
 70
     6
  0
APPID
  5
7DE1B343D9E19B6
330
7DE1B343D9E19AE
100
AcDbSymbolTableRecord
100
AcDbRegAppTableRecord
  2
ACAD
 70
     0
  0
APPID
  5
7DE1B343D9E19D2
330
7DE1B343D9E19AE
100
AcDbSymbolTableRecord
100
AcDbRegAppTableRecord
  2
AVE_RENDER
 70
     0
  0
APPID
  5
7DE1B343D9E19D3
330
7DE1B343D9E19AE
100
AcDbSymbolTableRecord
100
AcDbRegAppTableRecord
  2
AVE_ENTITY_MATERIAL
 70
     0
  0
APPID
  5
7DE1B343D9E19E0
330
7DE1B343D9E19AE
100
AcDbSymbolTableRecord
100
AcDbRegAppTableRecord
  2
AVE_FINISH
 70
     0
  0
APPID
  5
7DE1B343D9E19E1
330
7DE1B343D9E19AE
100
AcDbSymbolTableRecord
100
AcDbRegAppTableRecord
  2
AVE_MATERIAL
 70
     0
  0
APPID
  5
7DE1B343D9E19E2
330
7DE1B343D9E19AE
100
AcDbSymbolTableRecord
100
AcDbRegAppTableRecord
  2
AVE_GLOBAL
 70
     0
  0
ENDTAB
  0
TABLE
  2
DIMSTYLE
  5
7DE1B343D9E19AF
330
0
100
AcDbSymbolTable
 70
     1
  0
DIMSTYLE
105
7DE1B343D9E19C9
330
7DE1B343D9E19AF
100
AcDbSymbolTableRecord
100
AcDbDimStyleTableRecord
  2
STANDARD
 70
     0
  3

  4

  5

  6

  7

 40
1.0
 41
0.125
 42
0.125
 43
0.375
 44
0.125
 45
0.0
 46
0.0
 47
0.0
 48
0.0
140
0.125
141
-0.125
142
0.0
143
25.4
144
1.0
145
0.0
146
1.0
147
0.09
 71
     0
 72
     0
 73
     1
 74
     1
 75
     0
 76
     0
 77
     0
 78
     4
170
     0
171
     2
172
     0
173
     0
174
     1
175
     0
176
     0
177
     0
178
     0
270
     2
271
     3
272
     3
273
     2
274
     2
340
7DE1B343D9E19EC
275
     0
280
     0
281
     0
282
     0
283
     1
284
     4
285
     0
286
     0
287
     3
288
     0
  0
ENDTAB
  0
TABLE
  2
BLOCK_RECORD
  5
7DE1B343D9E19A6
330
0
100
AcDbSymbolTable
 70
     2
  0
BLOCK_RECORD
  5
7DE1B343D9E19BD
102
{ACAD_XDICTIONARY
360
7DE1B343D9E1A1F
102
}
330
7DE1B343D9E19A6
100
AcDbSymbolTableRecord
100
AcDbBlockTableRecord
  2
*MODEL_SPACE
  0
BLOCK_RECORD
  5
7DE1B343D9E19BA
102
{ACAD_XDICTIONARY
360
7DE1B343D9E1A1D
102
}
330
7DE1B343D9E19A6
100
AcDbSymbolTableRecord
100
AcDbBlockTableRecord
  2
*PAPER_SPACE
  0
BLOCK_RECORD
  5
7DE1B343D9E19D5
330
7DE1B343D9E19A6
100
AcDbSymbolTableRecord
100
AcDbBlockTableRecord
  2
AVE_RENDER
  0
BLOCK_RECORD
  5
7DE1B343D9E19E3
330
7DE1B343D9E19A6
100
AcDbSymbolTableRecord
100
AcDbBlockTableRecord
  2
AVE_GLOBAL
  0
ENDTAB
  0
ENDSEC
  0
SECTION
  2
BLOCKS
  0
BLOCK
  5
7DE1B343D9E19C7
330
7DE1B343D9E19BD
100
AcDbEntity
  8
0
100
AcDbBlockBegin
  2
*MODEL_SPACE
 70
     0
 10
0.0
 20
0.0
 30
0.0
  3
*MODEL_SPACE
  1

  0
ENDBLK
  5
7DE1B343D9E19C8
330
7DE1B343D9E19BD
100
AcDbEntity
  8
0
100
AcDbBlockEnd
  0
BLOCK
  5
7DE1B343D9E19C5
330
7DE1B343D9E19BA
100
AcDbEntity
 67
     1
  8
0
100
AcDbBlockBegin
  2
*PAPER_SPACE
 70
     0
 10
0.0
 20
0.0
 30
0.0
  3
*PAPER_SPACE
  1

  0
ENDBLK
  5
7DE1B343D9E19C6
330
7DE1B343D9E19BA
100
AcDbEntity
 67
     1
  8
0
100
AcDbBlockEnd
  0
BLOCK
  5
7DE1B343D9E19D6
330
7DE1B343D9E19D5
100
AcDbEntity
  8
0
100
AcDbBlockBegin
  2
AVE_RENDER
 70
     0
 10
0.0
 20
0.0
 30
0.0
  3
AVE_RENDER
  1
AVE_RENDER
  0
ENDBLK
  5
7DE1B343D9E19D7
330
7DE1B343D9E19D5
100
AcDbEntity
  8
0
100
AcDbBlockEnd
  0
BLOCK
  5
7DE1B343D9E19E4
330
7DE1B343D9E19E3
100
AcDbEntity
  8
0
100
AcDbBlockBegin
  2
AVE_GLOBAL
 70
     0
 10
0.0
 20
0.0
 30
0.0
  3
AVE_GLOBAL
  1
AVE_GLOBAL
  0
ENDBLK
  5
7DE1B343D9E19E5
330
7DE1B343D9E19E3
100
AcDbEntity
  8
0
100
AcDbBlockEnd
  0
ENDSEC
  0
SECTION
  2
ENTITIES
  0
LWPOLYLINE
  5
7DE1B343D9E0426
330
7DE1B343D9E19BD
100
AcDbEntity
  8
0
100
AcDbPolyline
 90
       17
 70
     1
 43
0.0
 10
6.961762132671169
 20
6.597043463150172
 42
-0.3860221761777776
 10
5.157774379988431
 20
4.733595644542409
 10
5.157774379988431
 20
5.159543463150172
 10
5.110899379988431
 20
5.132480169281908
 42
0.2679491924311233
 10
5.095274379988431
 20
5.105416875413644
 10
5.095274379988431
 20
4.723051790046463
 42
-0.0040975177263068
 10
5.0635283482424
 20
4.722287557639329
 42
1.0
 10
5.064520411734462
 20
4.659795431655109
 42
0.4066260029939179
 10
7.032672346980687
 20
6.639341442948151
 42
0.4171752342858705
 10
7.012673367310764
 20
6.659543463150172
 10
5.064024379988431
 20
6.659543463150172
 42
1.0
 10
5.064024379988431
 20
6.597043463150172
 10
5.095274379988431
 20
6.597043463150172
 10
5.095274379988431
 20
6.2136700508867
 42
0.2679491924311233
 10
5.110899379988431
 20
6.186606757018436
 10
5.157774379988431
 20
6.159543463150172
 10
5.157774379988431
 20
6.597043463150172
  0
TEXT
  5
7DE1B343D9E1868
330
7DE1B343D9E19BD
100
AcDbEntity
  8
TEXT
100
AcDbText
 10
5.285372683173407
 20
4.355090924354513
 30
0.0
 40
0.125
  1
PART #110308
  7
ITALICC
 72
     1
 11
6.038348873649598
 21
4.355090924354513
 31
0.0
100
AcDbText
  0
TEXT
  5
7DE1B343D9E1869
330
7DE1B343D9E19BD
100
AcDbEntity
  8
TEXT
100
AcDbText
 10
6.451654031899918
 20
3.908168281682138
 30
0.0
 40
0.0522247191011236
  1
Phone  1-800-328-2495
 41
1.272321428571429
 72
     5
 11
7.780586616169582
 21
3.908168281682138
 31
0.0
100
AcDbText
  0
TEXT
  5
7DE1B343D9E186A
330
7DE1B343D9E19BD
100
AcDbEntity
  8
TEXT
100
AcDbText
 10
6.451654031899918
 20
4.187943562581015
 30
0.0
 40
0.0522247191011236
  1
Stylmark  Incorporated
 41
1.221428571428573
 72
     5
 11
7.780586616169582
 21
4.187943562581015
 31
0.0
100
AcDbText
  0
TEXT
  5
7DE1B343D9E186B
330
7DE1B343D9E19BD
100
AcDbEntity
  8
TEXT
100
AcDbText
 10
6.451654031899918
 20
4.094685135614723
 30
0.0
 40
0.0522247191011236
  1
6536 Main St. N.E. * P.O. Box 32008
 41
0.8388932496075366
 72
     5
 11
7.780586616169582
 21
4.094685135614723
 31
0.0
100
AcDbText
  0
TEXT
  5
7DE1B343D9E186C
330
7DE1B343D9E19BD
100
AcDbEntity
  8
TEXT
100
AcDbText
 10
6.451654031899918
 20
4.00142670864843
 30
0.0
 40
0.0522247191011236
  1
Minneapolis, MN 55432-0008
 41
1.11444212721585
 72
     5
 11
7.780586616169582
 21
4.00142670864843
 31
0.0
100
AcDbText
  0
LWPOLYLINE
  5
7DE1B343D9E186D
330
7DE1B343D9E19BD
100
AcDbEntity
  8
TEXT
100
AcDbPolyline
 90
        3
 70
     0
 43
0.0006660908203125
 10
4.295700339832611
 20
4.021813044319573
 10
4.295700339832611
 20
3.908577604866445
 10
4.408935779285733
 20
3.908577604866445
  0
LWPOLYLINE
  5
7DE1B343D9E1872
330
7DE1B343D9E19BD
100
AcDbEntity
  8
TEXT
100
AcDbPolyline
 90
        3
 70
     0
 43
0.0006660908203125
 10
4.322343972645108
 20
4.021813044319573
 10
4.322343972645108
 20
3.935221237678946
 10
4.408935779285733
 20
3.935221237678946
  0
LWPOLYLINE
  5
7DE1B343D9E1877
330
7DE1B343D9E19BD
100
AcDbEntity
  8
TEXT
100
AcDbPolyline
 90
        2
 70
     0
 43
0.0001332181640625
 10
4.368970330066985
 20
4.031804406624258
 10
4.295700339832611
 20
4.021813044319573
  0
LWPOLYLINE
  5
7DE1B343D9E187B
330
7DE1B343D9E19BD
100
AcDbEntity
  8
TEXT
100
AcDbPolyline
 90
        2
 70
     0
 43
0.0001332181640625
 10
4.322343972645108
 20
4.021813044319573
 10
4.382292146473235
 20
4.031804406624258
  0
LWPOLYLINE
  5
7DE1B343D9E187F
330
7DE1B343D9E19BD
100
AcDbEntity
  8
TEXT
100
AcDbPolyline
 90
        2
 70
     0
 43
0.0001332181640625
 10
4.322343972645108
 20
3.935221237678946
 10
4.382292146473235
 20
3.995169411507072
  0
LWPOLYLINE
  5
7DE1B343D9E1883
330
7DE1B343D9E19BD
100
AcDbEntity
  8
TEXT
100
AcDbPolyline
 90
        3
 70
     0
 43
0.0006660908203125
 10
4.408935779285733
 20
4.175013932991449
 10
4.295700339832611
 20
4.175013932991449
 10
4.295700339832611
 20
4.061778493538321
  0
LWPOLYLINE
  5
7DE1B343D9E1888
330
7DE1B343D9E19BD
100
AcDbEntity
  8
TEXT
100
AcDbPolyline
 90
        3
 70
     0
 43
0.0006660908203125
 10
4.408935779285733
 20
4.148370300178948
 10
4.322343972645108
 20
4.148370300178948
 10
4.322343972645108
 20
4.061778493538321
  0
LWPOLYLINE
  5
7DE1B343D9E188D
330
7DE1B343D9E19BD
100
AcDbEntity
  8
TEXT
100
AcDbPolyline
 90
        2
 70
     0
 43
0.0001332181640625
 10
4.322343972645108
 20
4.148370300178948
 10
4.382292146473234
 20
4.088422126350822
  0
LWPOLYLINE
  5
7DE1B343D9E1891
330
7DE1B343D9E19BD
100
AcDbEntity
  8
TEXT
100
AcDbPolyline
 90
        2
 70
     0
 43
0.0001332181640625
 10
4.322343972645108
 20
4.061778493538321
 10
4.382292146473234
 20
4.051787131233632
  0
LWPOLYLINE
  5
7DE1B343D9E1895
330
7DE1B343D9E19BD
100
AcDbEntity
  8
TEXT
100
AcDbPolyline
 90
        2
 70
     0
 43
0.0001332181640625
 10
4.295700339832611
 20
4.061778493538321
 10
4.368970330066985
 20
4.051787131233632
  0
LWPOLYLINE
  5
7DE1B343D9E1899
330
7DE1B343D9E19BD
100
AcDbEntity
  8
TEXT
100
AcDbPolyline
 90
        2
 70
     0
 43
0.0006660908203125
 10
4.322343972645108
 20
4.021813044319573
 10
4.295700339832611
 20
4.021813044319573
  0
LWPOLYLINE
  5
7DE1B343D9E189D
330
7DE1B343D9E19BD
100
AcDbEntity
  8
TEXT
100
AcDbPolyline
 90
        2
 70
     0
 43
0.0006660908203125
 10
4.322343972645108
 20
4.061778493538321
 10
4.295700339832611
 20
4.061778493538321
  0
LINE
  5
7DE1B343D9E18A1
330
7DE1B343D9E19BD
100
AcDbEntity
  8
TEXT
100
AcDbLine
 10
5.810890768959108
 20
4.11073723833468
 30
0.0
 11
5.703684495571819
 21
4.11073723833468
 31
0.0
  0
LINE
  5
7DE1B343D9E18A2
330
7DE1B343D9E19BD
100
AcDbEntity
  8
TEXT
100
AcDbLine
 10
5.839921667303586
 20
4.175013932991445
 30
0.0
 11
5.705089758086527
 21
4.175013932991445
 31
0.0
  0
ARC
  5
7DE1B343D9E18A3
330
7DE1B343D9E19BD
100
AcDbEntity
  8
TEXT
100
AcDbCircle
 10
5.764403854479844
 20
4.005776683728429
 30
0.0
 40
0.0676855811441166
100
AcDbArc
 50
90.0
 51
153.7768192527749
  0
LWPOLYLINE
  5
7DE1B343D9E18A4
330
7DE1B343D9E19BD
100
AcDbEntity
  8
TEXT
100
AcDbPolyline
 90
        2
 70
     0
 43
0.0
 10
5.702652000117009
 20
3.952031844953372
 42
0.2901071551932823
 10
5.745727932984644
 20
3.908540900002934
 42
5.328517124445801
  0
ARC
  5
7DE1B343D9E18A8
330
7DE1B343D9E19BD
100
AcDbEntity
  8
TEXT
100
AcDbCircle
 10
5.059272476808359
 20
3.968333291340984
 30
0.0
 40
0.0601160179737537
100
AcDbArc
 50
180.0000000000003
 51
264.0521544866073
  0
LINE
  5
7DE1B343D9E18A9
330
7DE1B343D9E19BD
100
AcDbEntity
  8
TEXT
100
AcDbLine
 10
5.062787832433906
 20
4.209401850585583
 30
0.0
 11
5.002745227589899
 21
4.209401850585583
 31
0.0
  0
ARC
  5
7DE1B343D9E18AA
330
7DE1B343D9E19BD
100
AcDbEntity
  8
TEXT
100
AcDbCircle
 10
4.827013474691388
 20
4.092926473544943
 30
0.0
 40
0.0820874594465043
100
AcDbArc
 50
90.0
 51
270.0
  0
LWPOLYLINE
  5
7DE1B343D9E18AB
330
7DE1B343D9E19BD
100
AcDbEntity
  8
TEXT
100
AcDbPolyline
 90
        2
 70
     0
 43
0.0001332181640625
 10
4.418927141590423
 20
4.101743942757069
 10
4.408935779285733
 20
4.175013932991449
  0
LWPOLYLINE
  5
7DE1B343D9E18AF
330
7DE1B343D9E19BD
100
AcDbEntity
  8
TEXT
100
AcDbPolyline
 90
        2
 70
     0
 43
0.0001332181640625
 10
4.408935779285733
 20
4.148370300178948
 10
4.418927141590423
 20
4.088422126350822
  0
LWPOLYLINE
  5
7DE1B343D9E18B3
330
7DE1B343D9E19BD
100
AcDbEntity
  8
TEXT
100
AcDbPolyline
 90
        3
 70
     0
 43
0.0006660908203125
 10
4.56213666795761
 20
4.061778493538321
 10
4.56213666795761
 20
4.175013932991449
 10
4.448901228504484
 20
4.175013932991449
  0
LWPOLYLINE
  5
7DE1B343D9E18B8
330
7DE1B343D9E19BD
100
AcDbEntity
  8
TEXT
100
AcDbPolyline
 90
        3
 70
     0
 43
0.0006660908203125
 10
4.535493035145109
 20
4.061778493538321
 10
4.535493035145109
 20
4.148370300178948
 10
4.448901228504484
 20
4.148370300178948
  0
LWPOLYLINE
  5
7DE1B343D9E18BD
330
7DE1B343D9E19BD
100
AcDbEntity
  8
TEXT
100
AcDbPolyline
 90
        2
 70
     0
 43
0.0001332181640625
 10
4.535493035145109
 20
4.148370300178948
 10
4.475544861316985
 20
4.088422126350822
  0
LWPOLYLINE
  5
7DE1B343D9E18C1
330
7DE1B343D9E19BD
100
AcDbEntity
  8
TEXT
100
AcDbPolyline
 90
        2
 70
     0
 43
0.0001332181640625
 10
4.448901228504484
 20
4.148370300178948
 10
4.438909866199796
 20
4.088422126350822
  0
LWPOLYLINE
  5
7DE1B343D9E18C5
330
7DE1B343D9E19BD
100
AcDbEntity
  8
TEXT
100
AcDbPolyline
 90
        2
 70
     0
 43
0.0001332181640625
 10
4.448901228504484
 20
4.175013932991449
 10
4.438909866199796
 20
4.101743942757069
  0
LWPOLYLINE
  5
7DE1B343D9E18C9
330
7DE1B343D9E19BD
100
AcDbEntity
  8
TEXT
100
AcDbPolyline
 90
        2
 70
     0
 43
0.0001332181640625
 10
4.488866677723234
 20
4.051787131233632
 10
4.56213666795761
 20
4.061778493538321
  0
LWPOLYLINE
  5
7DE1B343D9E18CD
330
7DE1B343D9E19BD
100
AcDbEntity
  8
TEXT
100
AcDbPolyline
 90
        2
 70
     0
 43
0.0001332181640625
 10
4.535493035145109
 20
4.061778493538321
 10
4.475544861316985
 20
4.051787131233632
  0
LWPOLYLINE
  5
7DE1B343D9E18D1
330
7DE1B343D9E19BD
100
AcDbEntity
  8
TEXT
100
AcDbPolyline
 90
        2
 70
     0
 43
0.0001332181640625
 10
4.56213666795761
 20
4.021813044319573
 10
4.488866677723234
 20
4.031804406624258
  0
LWPOLYLINE
  5
7DE1B343D9E18D5
330
7DE1B343D9E19BD
100
AcDbEntity
  8
TEXT
100
AcDbPolyline
 90
        2
 70
     0
 43
0.0001332181640625
 10
4.535493035145109
 20
4.021813044319573
 10
4.475544861316985
 20
4.031804406624258
  0
LWPOLYLINE
  5
7DE1B343D9E18D9
330
7DE1B343D9E19BD
100
AcDbEntity
  8
TEXT
100
AcDbPolyline
 90
        2
 70
     0
 43
0.0001332181640625
 10
4.535493035145109
 20
3.935221237678946
 10
4.475544861316985
 20
3.995169411507072
  0
LWPOLYLINE
  5
7DE1B343D9E18DD
330
7DE1B343D9E19BD
100
AcDbEntity
  8
TEXT
100
AcDbPolyline
 90
        3
 70
     0
 43
0.0006660908203125
 10
4.448901228504484
 20
3.935221237678946
 10
4.535493035145109
 20
3.935221237678946
 10
4.535493035145109
 20
4.021813044319573
  0
LWPOLYLINE
  5
7DE1B343D9E18E2
330
7DE1B343D9E19BD
100
AcDbEntity
  8
TEXT
100
AcDbPolyline
 90
        3
 70
     0
 43
0.0006660908203125
 10
4.448901228504484
 20
3.908577604866445
 10
4.56213666795761
 20
3.908577604866445
 10
4.56213666795761
 20
4.021813044319573
  0
LWPOLYLINE
  5
7DE1B343D9E18E7
330
7DE1B343D9E19BD
100
AcDbEntity
  8
TEXT
100
AcDbPolyline
 90
        5
 70
     0
 43
0.0001332181640625
 10
4.418927141590423
 20
3.981847595100821
 10
4.418927141590423
 20
3.995169411507072
 10
4.382292146473235
 20
3.995169411507072
 10
4.382292146473235
 20
4.031804406624258
 10
4.368970330066985
 20
4.031804406624258
  0
LWPOLYLINE
  5
7DE1B343D9E18EE
330
7DE1B343D9E19BD
100
AcDbEntity
  8
TEXT
100
AcDbPolyline
 90
        2
 70
     0
 43
0.0006660908203125
 10
4.408935779285733
 20
3.935221237678946
 10
4.408935779285733
 20
3.908577604866445
  0
LWPOLYLINE
  5
7DE1B343D9E18F2
330
7DE1B343D9E19BD
100
AcDbEntity
  8
TEXT
100
AcDbPolyline
 90
        2
 70
     0
 43
0.0001332181640625
 10
4.408935779285733
 20
3.935221237678946
 10
4.418927141590423
 20
3.995169411507072
  0
LWPOLYLINE
  5
7DE1B343D9E18F6
330
7DE1B343D9E19BD
100
AcDbEntity
  8
TEXT
100
AcDbPolyline
 90
        2
 70
     0
 43
0.0001332181640625
 10
4.408935779285733
 20
3.908577604866445
 10
4.418927141590423
 20
3.981847595100821
  0
LWPOLYLINE
  5
7DE1B343D9E18FA
330
7DE1B343D9E19BD
100
AcDbEntity
  8
TEXT
100
AcDbPolyline
 90
        5
 70
     0
 43
0.0001332181640625
 10
4.368970330066985
 20
4.051787131233632
 10
4.382292146473234
 20
4.051787131233632
 10
4.382292146473234
 20
4.088422126350822
 10
4.418927141590423
 20
4.088422126350822
 10
4.418927141590423
 20
4.101743942757069
  0
LWPOLYLINE
  5
7DE1B343D9E1901
330
7DE1B343D9E19BD
100
AcDbEntity
  8
TEXT
100
AcDbPolyline
 90
        5
 70
     0
 43
0.0001332181640625
 10
4.438909866199796
 20
4.101743942757069
 10
4.438909866199796
 20
4.088422126350822
 10
4.475544861316985
 20
4.088422126350822
 10
4.475544861316985
 20
4.051787131233632
 10
4.488866677723234
 20
4.051787131233632
  0
LWPOLYLINE
  5
7DE1B343D9E1908
330
7DE1B343D9E19BD
100
AcDbEntity
  8
TEXT
100
AcDbPolyline
 90
        2
 70
     0
 43
0.0001332181640625
 10
4.448901228504484
 20
3.935221237678946
 10
4.438909866199796
 20
3.995169411507072
  0
LWPOLYLINE
  5
7DE1B343D9E190C
330
7DE1B343D9E19BD
100
AcDbEntity
  8
TEXT
100
AcDbPolyline
 90
        2
 70
     0
 43
0.0001332181640625
 10
4.438909866199796
 20
3.981847595100821
 10
4.448901228504484
 20
3.908577604866445
  0
LWPOLYLINE
  5
7DE1B343D9E1910
330
7DE1B343D9E19BD
100
AcDbEntity
  8
TEXT
100
AcDbPolyline
 90
        2
 70
     0
 43
0.0006660908203125
 10
4.448901228504484
 20
3.935221237678946
 10
4.448901228504484
 20
3.908577604866445
  0
LWPOLYLINE
  5
7DE1B343D9E1914
330
7DE1B343D9E19BD
100
AcDbEntity
  8
TEXT
100
AcDbPolyline
 90
        5
 70
     0
 43
0.0001332181640625
 10
4.488866677723234
 20
4.031804406624258
 10
4.475544861316985
 20
4.031804406624258
 10
4.475544861316985
 20
3.995169411507072
 10
4.438909866199796
 20
3.995169411507072
 10
4.438909866199796
 20
3.981847595100821
  0
LWPOLYLINE
  5
7DE1B343D9E191B
330
7DE1B343D9E19BD
100
AcDbEntity
  8
TEXT
100
AcDbPolyline
 90
        2
 70
     0
 43
0.0006660908203125
 10
4.535493035145109
 20
4.061778493538321
 10
4.56213666795761
 20
4.061778493538321
  0
LWPOLYLINE
  5
7DE1B343D9E191F
330
7DE1B343D9E19BD
100
AcDbEntity
  8
TEXT
100
AcDbPolyline
 90
        2
 70
     0
 43
0.0006660908203125
 10
4.535493035145109
 20
4.021813044319573
 10
4.56213666795761
 20
4.021813044319573
  0
LINE
  5
7DE1B343D9E1923
330
7DE1B343D9E19BD
100
AcDbEntity
  8
TEXT
100
AcDbLine
 10
4.832250804805635
 20
4.11073723833468
 30
0.0
 11
4.999156458834606
 21
4.11073723833468
 31
0.0
  0
LINE
  5
7DE1B343D9E1924
330
7DE1B343D9E19BD
100
AcDbEntity
  8
TEXT
100
AcDbLine
 10
4.897850941049936
 20
4.074932516724052
 30
0.0
 11
4.832250804805635
 21
4.074932516724052
 31
0.0
  0
LINE
  5
7DE1B343D9E1925
330
7DE1B343D9E19BD
100
AcDbEntity
  8
TEXT
100
AcDbLine
 10
4.744926015244883
 20
3.908540900002934
 30
0.0
 11
4.897850941049936
 21
3.908540900002934
 31
0.0
  0
LINE
  5
7DE1B343D9E1926
330
7DE1B343D9E19BD
100
AcDbEntity
  8
TEXT
100
AcDbLine
 10
4.902791314956216
 20
3.976897906336373
 30
0.0
 11
4.744926015244882
 21
3.976897906336373
 31
0.0
  0
LINE
  5
7DE1B343D9E1927
330
7DE1B343D9E19BD
100
AcDbEntity
  8
TEXT
100
AcDbLine
 10
4.827013474691387
 20
4.010839014098438
 30
0.0
 11
4.902791314956216
 21
4.010839014098438
 31
0.0
  0
ARC
  5
7DE1B343D9E1928
330
7DE1B343D9E19BD
100
AcDbEntity
  8
TEXT
100
AcDbCircle
 10
4.832250804805636
 20
4.092834877529368
 30
0.0
 40
0.017902360805315
100
AcDbArc
 50
90.0
 51
270.0
  0
LINE
  5
7DE1B343D9E1929
330
7DE1B343D9E19BD
100
AcDbEntity
  8
TEXT
100
AcDbLine
 10
4.744926015244882
 20
3.976897906336373
 30
0.0
 11
4.744926015244883
 21
3.908540900002934
 31
0.0
  0
LINE
  5
7DE1B343D9E192A
330
7DE1B343D9E19BD
100
AcDbEntity
  8
TEXT
100
AcDbLine
 10
4.999156458834606
 20
4.11073723833468
 30
0.0
 11
4.999156458834606
 21
3.968333291340984
 31
0.0
  0
ARC
  5
7DE1B343D9E192B
330
7DE1B343D9E19BD
100
AcDbEntity
  8
TEXT
100
AcDbCircle
 10
4.897850941049937
 20
3.991736708363491
 30
0.0
 40
0.0831958083605586
100
AcDbArc
 50
270.0
 51
90.0
  0
ARC
  5
7DE1B343D9E192C
330
7DE1B343D9E19BD
100
AcDbEntity
  8
TEXT
100
AcDbCircle
 10
4.902791314956217
 20
3.993868460217407
 30
0.0
 40
0.0169705538810321
100
AcDbArc
 50
270.0
 51
90.0
  0
LWPOLYLINE
  5
7DE1B343D9E192D
330
7DE1B343D9E19BD
100
AcDbEntity
  8
TEXT
100
AcDbPolyline
 90
        2
 70
     0
 43
0.0006660908203125
 10
4.408935779285733
 20
4.148370300178948
 10
4.408935779285733
 20
4.175013932991449
  0
LWPOLYLINE
  5
7DE1B343D9E1931
330
7DE1B343D9E19BD
100
AcDbEntity
  8
TEXT
100
AcDbPolyline
 90
        2
 70
     0
 43
0.0006660908203125
 10
4.448901228504484
 20
4.148370300178948
 10
4.448901228504484
 20
4.175013932991449
  0
LINE
  5
7DE1B343D9E1935
330
7DE1B343D9E19BD
100
AcDbEntity
  8
TEXT
100
AcDbLine
 10
5.002745227589899
 20
4.175013932991445
 30
0.0
 11
4.827013474691387
 21
4.175013932991445
 31
0.0
  0
LINE
  5
7DE1B343D9E1936
330
7DE1B343D9E19BD
100
AcDbEntity
  8
TEXT
100
AcDbLine
 10
5.002745227589899
 20
4.209401850585583
 30
0.0
 11
5.002745227589899
 21
4.175013932991445
 31
0.0
  0
LINE
  5
7DE1B343D9E1937
330
7DE1B343D9E19BD
100
AcDbEntity
  8
TEXT
100
AcDbLine
 10
5.193217119609752
 20
4.074141936878325
 30
0.0
 11
5.134586798577814
 21
4.175013932991445
 31
0.0
  0
LINE
  5
7DE1B343D9E1938
330
7DE1B343D9E19BD
100
AcDbEntity
  8
TEXT
100
AcDbLine
 10
5.251965682415617
 20
4.175013932991445
 30
0.0
 11
5.193217119609752
 21
4.074141936878325
 31
0.0
  0
LINE
  5
7DE1B343D9E1939
330
7DE1B343D9E19BD
100
AcDbEntity
  8
TEXT
100
AcDbLine
 10
5.348896307775358
 20
3.990928738105933
 30
0.0
 11
5.348896307775358
 21
4.243025410730256
 31
0.0
  0
LINE
  5
7DE1B343D9E193A
330
7DE1B343D9E19BD
100
AcDbEntity
  8
TEXT
100
AcDbLine
 10
5.381208161913018
 20
4.175013932991445
 30
0.0
 11
5.381208161913018
 21
3.974149726259037
 31
0.0
  0
LINE
  5
7DE1B343D9E193B
330
7DE1B343D9E19BD
100
AcDbEntity
  8
TEXT
100
AcDbLine
 10
5.381208161913018
 20
3.974149726259037
 30
0.0
 11
5.364214525028417
 21
3.974149726259037
 31
0.0
  0
LINE
  5
7DE1B343D9E193C
330
7DE1B343D9E19BD
100
AcDbEntity
  8
TEXT
100
AcDbLine
 10
5.350035881271553
 20
3.908540900002934
 30
0.0
 11
5.448039214970988
 21
3.908540900002934
 31
0.0
  0
LINE
  5
7DE1B343D9E193D
330
7DE1B343D9E19BD
100
AcDbEntity
  8
TEXT
100
AcDbLine
 10
5.183616882612797
 20
3.928499406107947
 30
0.0
 11
5.280916588706242
 21
4.092849617043215
 31
0.0
  0
ARC
  5
7DE1B343D9E193E
330
7DE1B343D9E19BD
100
AcDbEntity
  8
TEXT
100
AcDbCircle
 10
5.149573322700583
 20
3.94808862227663
 30
0.0
 40
0.0392772371940762
100
AcDbArc
 50
270.1604552698595
 51
330.0831797321295
  0
LINE
  5
7DE1B343D9E193F
330
7DE1B343D9E19BD
100
AcDbEntity
  8
TEXT
100
AcDbLine
 10
5.053043066314712
 20
3.908540900002934
 30
0.0
 11
5.149683317389706
 21
3.908811539101216
 31
0.0
  0
LWPOLYLINE
  5
7DE1B343D9E1940
330
7DE1B343D9E19BD
100
AcDbEntity
  8
TEXT
100
AcDbPolyline
 90
        6
 70
     1
 43
0.0
 10
5.095566869889862
 20
4.11073723833468
 10
5.065250275669654
 20
4.11073723833468
 10
5.065250275669654
 20
3.987626240279785
 42
0.407328721240804
 10
5.07679392683113
 20
3.975807325603399
 10
5.137415625875861
 20
3.975807325603399
 10
5.154880966283179
 20
4.008619554646879
  0
LINE
  5
7DE1B343D9E1948
330
7DE1B343D9E19BD
100
AcDbEntity
  8
TEXT
100
AcDbLine
 10
5.280916588706242
 20
4.092849617043215
 30
0.0
 11
5.280916588706242
 21
3.960092242217859
 31
0.0
  0
ARC
  5
7DE1B343D9E1949
330
7DE1B343D9E19BD
100
AcDbEntity
  8
TEXT
100
AcDbCircle
 10
5.364214525028415
 20
3.989531532502462
 30
0.0
 40
0.0153818062434269
100
AcDbArc
 50
174.7883570302258
 51
270.0
  0
LWPOLYLINE
  5
7DE1B343D9E194A
330
7DE1B343D9E19BD
100
AcDbEntity
  8
TEXT
100
AcDbPolyline
 90
        2
 70
     0
 43
0.0
 10
5.28091658870624
 20
3.960092242217862
 42
0.3318488747599744
 10
5.350035881271553
 20
3.908540900002934
 42
-6.868794160588311
  0
LINE
  5
7DE1B343D9E194E
330
7DE1B343D9E19BD
100
AcDbEntity
  8
TEXT
100
AcDbLine
 10
5.505428283960249
 20
3.908540900002934
 30
0.0
 11
5.572486330742089
 21
3.908540900002934
 31
0.0
  0
LINE
  5
7DE1B343D9E194F
330
7DE1B343D9E19BD
100
AcDbEntity
  8
TEXT
100
AcDbLine
 10
5.505428283960249
 20
4.10318344916857
 30
0.0
 11
5.505428283960249
 21
3.908540900002934
 31
0.0
  0
LINE
  5
7DE1B343D9E1950
330
7DE1B343D9E19BD
100
AcDbEntity
  8
TEXT
100
AcDbLine
 10
5.448039214970988
 20
4.11073723833468
 30
0.0
 11
5.497874494794135
 21
4.11073723833468
 31
0.0
  0
LINE
  5
7DE1B343D9E1951
330
7DE1B343D9E19BD
100
AcDbEntity
  8
TEXT
100
AcDbLine
 10
5.448039214970988
 20
3.908540900002934
 30
0.0
 11
5.448039214970988
 21
4.11073723833468
 31
0.0
  0
LWPOLYLINE
  5
7DE1B343D9E1952
330
7DE1B343D9E19BD
100
AcDbEntity
  8
TEXT
100
AcDbPolyline
 90
        2
 70
     0
 43
0.0
 10
5.497874494794134
 20
4.11073723833468
 42
-0.4142135623731017
 10
5.505428283960247
 20
4.10318344916857
 42
-0.9999999999999998
  0
LINE
  5
7DE1B343D9E1956
330
7DE1B343D9E19BD
100
AcDbEntity
  8
TEXT
100
AcDbLine
 10
5.703684495571819
 20
4.11073723833468
 30
0.0
 11
5.703684495571819
 21
4.035684832260473
 31
0.0
  0
LINE
  5
7DE1B343D9E1957
330
7DE1B343D9E19BD
100
AcDbEntity
  8
TEXT
100
AcDbLine
 10
5.572486330742089
 20
4.11073723833468
 30
0.0
 11
5.626619927663039
 21
4.11073723833468
 31
0.0
  0
LINE
  5
7DE1B343D9E1958
330
7DE1B343D9E19BD
100
AcDbEntity
  8
TEXT
100
AcDbLine
 10
5.572486330742089
 20
3.908540900002934
 30
0.0
 11
5.572486330742089
 21
4.11073723833468
 31
0.0
  0
LWPOLYLINE
  5
7DE1B343D9E1959
330
7DE1B343D9E19BD
100
AcDbEntity
  8
TEXT
100
AcDbPolyline
 90
        2
 70
     0
 43
0.0
 10
5.626619927663037
 20
4.11073723833468
 42
-0.4142135623731017
 10
5.634173716829151
 20
4.10318344916857
 42
-0.9999999999999998
  0
LWPOLYLINE
  5
7DE1B343D9E195D
330
7DE1B343D9E19BD
100
AcDbEntity
  8
TEXT
100
AcDbPolyline
 90
        4
 70
     0
 43
0.0
 10
5.634173716829151
 20
4.10318344916857
 10
5.634173716829151
 20
3.908540900002934
 10
5.702652000117009
 20
3.908540900002934
 10
5.702652000117009
 20
3.952031844953372
 42
-1.714843617202739
  0
LINE
  5
7DE1B343D9E1963
330
7DE1B343D9E19BD
100
AcDbEntity
  8
TEXT
100
AcDbLine
 10
5.062787832433906
 20
4.175013932991445
 30
0.0
 11
5.062787832433906
 21
4.209401850585583
 31
0.0
  0
LINE
  5
7DE1B343D9E1964
330
7DE1B343D9E19BD
100
AcDbEntity
  8
TEXT
100
AcDbLine
 10
5.134586798577814
 20
4.175013932991445
 30
0.0
 11
5.062787832433906
 21
4.175013932991445
 31
0.0
  0
LINE
  5
7DE1B343D9E1965
330
7DE1B343D9E19BD
100
AcDbEntity
  8
TEXT
100
AcDbLine
 10
5.282087595208993
 20
4.175013932991445
 30
0.0
 11
5.251965682415617
 21
4.175013932991445
 31
0.0
  0
LINE
  5
7DE1B343D9E1966
330
7DE1B343D9E19BD
100
AcDbEntity
  8
TEXT
100
AcDbLine
 10
5.282087595208993
 20
4.243025410730256
 30
0.0
 11
5.282087595208993
 21
4.175013932991445
 31
0.0
  0
LINE
  5
7DE1B343D9E1967
330
7DE1B343D9E19BD
100
AcDbEntity
  8
TEXT
100
AcDbLine
 10
5.348896307775358
 20
4.243025410730256
 30
0.0
 11
5.282087595208993
 21
4.243025410730256
 31
0.0
  0
LWPOLYLINE
  5
7DE1B343D9E1968
330
7DE1B343D9E19BD
100
AcDbEntity
  8
TEXT
100
AcDbPolyline
 90
        3
 70
     0
 43
0.0
 10
5.669308067373361
 20
4.175013932991449
 10
5.551007908557316
 20
4.175013932991449
 10
5.551007908557316
 20
4.147846436230553
 42
-1.960274751411753
  0
LINE
  5
7DE1B343D9E196D
330
7DE1B343D9E19BD
100
AcDbEntity
  8
TEXT
100
AcDbLine
 10
5.515226217844155
 20
4.175013932991445
 30
0.0
 11
5.381208161913018
 21
4.175013932991445
 31
0.0
  0
LWPOLYLINE
  5
7DE1B343D9E196E
330
7DE1B343D9E19BD
100
AcDbEntity
  8
TEXT
100
AcDbPolyline
 90
        2
 70
     0
 43
0.0
 10
5.515226217844155
 20
4.175013932991449
 42
-0.3328679258950098
 10
5.551007908557316
 20
4.147846436230553
 42
6.772930709997214
  0
LINE
  5
7DE1B343D9E1972
330
7DE1B343D9E19BD
100
AcDbEntity
  8
TEXT
100
AcDbLine
 10
5.705089758086527
 20
4.175013932991445
 30
0.0
 11
5.705089758086527
 21
4.146691387221801
 31
0.0
  0
LWPOLYLINE
  5
7DE1B343D9E1973
330
7DE1B343D9E19BD
100
AcDbEntity
  8
TEXT
100
AcDbPolyline
 90
        2
 70
     0
 43
0.0
 10
5.669308067373361
 20
4.175013932991449
 42
-0.3277054968067132
 10
5.705089758086526
 20
4.146691387221805
 42
6.667889725900311
  0
LINE
  5
7DE1B343D9E1977
330
7DE1B343D9E19BD
100
AcDbEntity
  8
TEXT
100
AcDbLine
 10
5.918881606178628
 20
4.069801954438018
 30
0.0
 11
5.875130834996726
 21
4.152052230434163
 31
0.0
  0
LINE
  5
7DE1B343D9E1978
330
7DE1B343D9E19BD
100
AcDbEntity
  8
TEXT
100
AcDbLine
 10
5.918881606178628
 20
4.175013932991445
 30
0.0
 11
5.918881606178628
 21
4.069801954438018
 31
0.0
  0
LINE
  5
7DE1B343D9E1979
330
7DE1B343D9E19BD
100
AcDbEntity
  8
TEXT
100
AcDbLine
 10
6.146565345116997
 20
4.099148606579907
 30
0.0
 11
6.146565345116997
 21
4.240478138759046
 31
0.0
  0
LINE
  5
7DE1B343D9E197A
330
7DE1B343D9E19BD
100
AcDbEntity
  8
TEXT
100
AcDbLine
 10
6.193663503672981
 20
4.175013932991445
 30
0.0
 11
6.146565345116997
 21
4.099148606579907
 31
0.0
  0
LINE
  5
7DE1B343D9E197B
330
7DE1B343D9E19BD
100
AcDbEntity
  8
TEXT
100
AcDbLine
 10
6.204098220436904
 20
4.065120690050472
 30
0.0
 11
6.268655336402609
 21
4.175013932991445
 31
0.0
  0
LINE
  5
7DE1B343D9E197C
330
7DE1B343D9E19BD
100
AcDbEntity
  8
TEXT
100
AcDbLine
 10
6.082730353894223
 20
3.908540900002934
 30
0.0
 11
6.147108538212844
 21
3.908540900002934
 31
0.0
  0
LWPOLYLINE
  5
7DE1B343D9E197D
330
7DE1B343D9E19BD
100
AcDbEntity
  8
TEXT
100
AcDbPolyline
 90
        2
 70
     0
 43
0.0
 10
5.922821283483665
 20
3.952031844953372
 42
-0.2901071551932486
 10
5.879745350616021
 20
3.908540900002934
 42
-5.328517124445184
  0
ARC
  5
7DE1B343D9E1981
330
7DE1B343D9E19BD
100
AcDbEntity
  8
TEXT
100
AcDbCircle
 10
5.810890768959106
 20
4.082377863334682
 30
0.0
 40
0.028359375
100
AcDbArc
 50
25.78218179591245
 51
90.0
  0
LINE
  5
7DE1B343D9E1982
330
7DE1B343D9E19BD
100
AcDbEntity
  8
TEXT
100
AcDbLine
 10
5.846691844263229
 20
4.073462264872548
 30
0.0
 11
5.836427083849665
 21
4.094712804445242
 31
0.0
  0
LINE
  5
7DE1B343D9E1983
330
7DE1B343D9E19BD
100
AcDbEntity
  8
TEXT
100
AcDbLine
 10
5.764403854479846
 20
4.073462264872548
 30
0.0
 11
5.846691844263229
 21
4.073462264872548
 31
0.0
  0
LWPOLYLINE
  5
7DE1B343D9E1984
330
7DE1B343D9E19BD
100
AcDbEntity
  8
TEXT
100
AcDbPolyline
 90
        4
 70
     1
 43
0.0
 10
5.859622885546128
 20
4.011504877986959
 10
5.77096256688627
 20
4.011504877986959
 42
0.9999999999999998
 10
5.77096256688627
 20
3.969106337483098
 10
5.859622885546128
 20
3.969106337483098
 42
1.0
  0
LWPOLYLINE
  5
7DE1B343D9E198A
330
7DE1B343D9E19BD
100
AcDbEntity
  8
TEXT
100
AcDbPolyline
 90
        2
 70
     0
 43
0.0
 10
5.745727932984644
 20
3.908540900002934
 10
5.879745350616021
 20
3.908540900002934
 42
0.9999999999999998
  0
LINE
  5
7DE1B343D9E198E
330
7DE1B343D9E19BD
100
AcDbEntity
  8
TEXT
100
AcDbLine
 10
6.00608237260166
 20
4.11073723833468
 30
0.0
 11
6.082730353894218
 21
4.11073723833468
 31
0.0
  0
LINE
  5
7DE1B343D9E198F
330
7DE1B343D9E19BD
100
AcDbEntity
  8
TEXT
100
AcDbLine
 10
6.082730353894218
 20
4.11073723833468
 30
0.0
 11
6.082730353894223
 21
3.908540900002934
 31
0.0
  0
ARC
  5
7DE1B343D9E1990
330
7DE1B343D9E19BD
100
AcDbEntity
  8
TEXT
100
AcDbCircle
 10
6.006082372601659
 20
4.085831363052017
 30
0.0
 40
0.0249058752826653
100
AcDbArc
 50
89.99971217465335
 51
179.9999999999985
  0
LINE
  5
7DE1B343D9E1991
330
7DE1B343D9E19BD
100
AcDbEntity
  8
TEXT
100
AcDbLine
 10
5.981176497319001
 20
3.908540900002934
 30
0.0
 11
5.981176497318996
 21
4.085831405434403
 31
0.0
  0
LWPOLYLINE
  5
7DE1B343D9E1992
330
7DE1B343D9E19BD
100
AcDbEntity
  8
TEXT
100
AcDbPolyline
 90
        2
 70
     0
 43
0.0
 10
5.922821283483665
 20
3.908540900002934
 10
5.981176497318999
 20
3.908540900002934
  0
LWPOLYLINE
  5
7DE1B343D9E1996
330
7DE1B343D9E19BD
100
AcDbEntity
  8
TEXT
100
AcDbPolyline
 90
        2
 70
     0
 43
0.0
 10
5.922821283483665
 20
3.952031844953372
 10
5.922821283483665
 20
3.908540900002934
  0
LINE
  5
7DE1B343D9E199A
330
7DE1B343D9E19BD
100
AcDbEntity
  8
TEXT
100
AcDbLine
 10
6.299590443800514
 20
3.908540900002934
 30
0.0
 11
6.204098220436904
 21
4.065120690050472
 31
0.0
  0
LINE
  5
7DE1B343D9E199B
330
7DE1B343D9E19BD
100
AcDbEntity
  8
TEXT
100
AcDbLine
 10
6.223012071424308
 20
3.908540900002934
 30
0.0
 11
6.299590443800514
 21
3.908540900002934
 31
0.0
  0
LINE
  5
7DE1B343D9E199C
330
7DE1B343D9E19BD
100
AcDbEntity
  8
TEXT
100
AcDbLine
 10
6.147108538212844
 20
4.040120468479114
 30
0.0
 11
6.223012071424308
 21
3.908540900002934
 31
0.0
  0
LINE
  5
7DE1B343D9E199D
330
7DE1B343D9E19BD
100
AcDbEntity
  8
TEXT
100
AcDbLine
 10
6.147108538212844
 20
3.908540900002934
 30
0.0
 11
6.147108538212844
 21
4.040120468479114
 31
0.0
  0
LINE
  5
7DE1B343D9E199E
330
7DE1B343D9E19BD
100
AcDbEntity
  8
TEXT
100
AcDbLine
 10
6.146565345116997
 20
4.240478138759046
 30
0.0
 11
6.078250466567723
 21
4.240478138759046
 31
0.0
  0
ARC
  5
7DE1B343D9E199F
330
7DE1B343D9E19BD
100
AcDbEntity
  8
TEXT
100
AcDbCircle
 10
5.837894727526517
 20
4.133430365870543
 30
0.0
 40
0.0416329381542859
100
AcDbArc
 50
26.56974201007528
 51
87.20939649401342
  0
LINE
  5
7DE1B343D9E19A0
330
7DE1B343D9E19BD
100
AcDbEntity
  8
TEXT
100
AcDbLine
 10
5.982778512478128
 20
4.175013932991445
 30
0.0
 11
5.918881606178628
 21
4.175013932991445
 31
0.0
  0
LINE
  5
7DE1B343D9E19A1
330
7DE1B343D9E19BD
100
AcDbEntity
  8
TEXT
100
AcDbLine
 10
5.982778512478128
 20
4.147466283130571
 30
0.0
 11
5.982778512478128
 21
4.175013932991445
 31
0.0
  0
ARC
  5
7DE1B343D9E19A2
330
7DE1B343D9E19BD
100
AcDbEntity
  8
TEXT
100
AcDbCircle
 10
6.013971329541236
 20
4.14376820570918
 30
0.0
 40
0.0314112657011332
100
AcDbArc
 50
95.88484768694724
 51
173.2388340632136
  0
LINE
  5
7DE1B343D9E19A3
330
7DE1B343D9E19BD
100
AcDbEntity
  8
TEXT
100
AcDbLine
 10
6.078250466567718
 20
4.175013932991445
 30
0.0
 11
6.010750748918201
 21
4.175013932991445
 31
0.0
  0
LINE
  5
7DE1B343D9E19A4
330
7DE1B343D9E19BD
100
AcDbEntity
  8
TEXT
100
AcDbLine
 10
6.078250466567723
 20
4.240478138759046
 30
0.0
 11
6.078250466567718
 21
4.175013932991445
 31
0.0
  0
LINE
  5
7DE1B343D9E19A5
330
7DE1B343D9E19BD
100
AcDbEntity
  8
TEXT
100
AcDbLine
 10
6.268655336402609
 20
4.175013932991445
 30
0.0
 11
6.193663503672983
 21
4.175013932991445
 31
0.0
  0
INSERT
  5
7DE1B343D9E19D8
330
7DE1B343D9E19BD
100
AcDbEntity
  8
ASHADE
 62
     1
100
AcDbBlockReference
  2
AVE_RENDER
 10
0.0
 20
0.0
 30
0.0
1001
AVE_RENDER
1002
{
1070
     6
1000
Pref
1070
    30
1070
    20
1070
     1
1070
     0
1000

1070
    10
1070
     1
1070
    30
1040
1.0
1070
     1
1040
0.3
1040
0.7
1040
0.0
1040
10.0
1010
-1.0
1020
-1.0
1030
-1.0
1040
0.3
1070
    49
1070
     0
1070
     0
1010
1.0
1020
1.0
1030
1.0
1040
45.0
1070
     1
1070
     0
1000
WCS
1040
0.0
1002
}
  0
INSERT
  5
7DE1B343D9E19D9
330
7DE1B343D9E19BD
100
AcDbEntity
  8
ASHADE
 62
     3
100
AcDbBlockReference
  2
AVE_RENDER
 10
0.0
 20
0.0
 30
0.0
1001
AVE_RENDER
1002
{
1070
     0
1000
Full Opt
1070
     0
1070
     1
1070
     1
1070
     1
1070
     0
1070
     0
1070
     0
1070
     1
1070
     1
1040
0.0001
1040
0.0001
1002
}
  0
INSERT
  5
7DE1B343D9E19DA
330
7DE1B343D9E19BD
100
AcDbEntity
  8
ASHADE
 62
     4
100
AcDbBlockReference
  2
AVE_RENDER
 10
0.0
 20
0.0
 30
0.0
1001
AVE_RENDER
1002
{
1070
     0
1000
Quick Opt
1070
     0
1070
     1
1070
     1
1070
     1
1070
     0
1070
     0
1070
     1
1002
}
  0
INSERT
  5
7DE1B343D9E19DB
330
7DE1B343D9E19BD
100
AcDbEntity
  8
ASHADE
 62
     5
100
AcDbBlockReference
  2
AVE_RENDER
 10
0.0
 20
0.0
 30
0.0
1001
AVE_RENDER
1002
{
1070
     1
1000
Scanl Opt
1070
     2
1070
     0
1070
     2
1040
2.0
1040
4.0
1070
     0
1070
     1
1070
     0
1040
0.03
1002
}
  0
INSERT
  5
7DE1B343D9E19DC
330
7DE1B343D9E19BD
100
AcDbEntity
  8
ASHADE
 62
     6
100
AcDbBlockReference
  2
AVE_RENDER
 10
0.0
 20
0.0
 30
0.0
1001
AVE_RENDER
1002
{
1070
     2
1000
Raytr Opt
1070
     2
1070
     0
1070
     2
1040
2.0
1040
4.0
1070
     0
1070
     1
1070
     1
1040
0.03
1070
     3
1040
0.03
1002
}
  0
INSERT
  5
7DE1B343D9E19DD
330
7DE1B343D9E19BD
100
AcDbEntity
  8
ASHADE
 62
     7
100
AcDbBlockReference
  2
AVE_RENDER
 10
0.0
 20
0.0
 30
0.0
1001
AVE_RENDER
1002
{
1070
     0
1000
RFile Opt
1070
     5
1070
   640
1070
   480
1070
 10000
1070
     3
1070
    32
1070
    24
1070
     0
1070
     0
1070
     0
1070
     1
1070
     0
1070
     0
1070
     0
1002
}
  0
INSERT
  5
7DE1B343D9E19DE
330
7DE1B343D9E19BD
100
AcDbEntity
  8
ASHADE
 62
     8
100
AcDbBlockReference
  2
AVE_RENDER
 10
0.0
 20
0.0
 30
0.0
1001
AVE_RENDER
1002
{
1070
     0
1000
Fog Opt
1070
     0
1070
     0
1040
0.0
1040
1.0
1040
0.0
1040
1.0
1010
0.5
1020
0.5
1030
0.5
1002
}
  0
INSERT
  5
7DE1B343D9E19DF
330
7DE1B343D9E19BD
100
AcDbEntity
  8
ASHADE
 62
     9
100
AcDbBlockReference
  2
AVE_RENDER
 10
0.0
 20
0.0
 30
0.0
1001
AVE_RENDER
1002
{
1070
     0
1000
BG Opt
1070
     0
1070
     1
1010
0.0
1020
0.0
1030
0.0
1010
1.0
1020
0.0
1030
0.0
1010
0.0
1020
1.0
1030
0.0
1010
0.0
1020
0.0
1030
1.0
1040
0.5
1040
0.33
1040
0.0
1000

1070
     1
1000

1070
     1
1070
     1
1040
1.0
1040
1.0
1040
0.0
1040
0.0
1070
     0
1002
}
  0
INSERT
  5
7DE1B343D9E19E6
330
7DE1B343D9E19BD
100
AcDbEntity
  8
ASHADE
 62
     1
100
AcDbBlockReference
  2
AVE_GLOBAL
 10
0.0
 20
0.0
 30
0.0
1001
AVE_MATERIAL
1002
{
1000
*GLOBAL*
1000
1
1000
Global finish.
1002
{
1002
}
1002
{
1070
    63
1002
{
1002
{
1010
-1.0
1020
-1.0
1030
-1.0
1002
}
1040
0.1000000014901161
1000

1040
0.0
1002
{
1002
}
1040
0.0
1002
{
1002
}
1040
0.0
1002
}
1002
{
1002
{
1010
-1.0
1020
-1.0
1030
-1.0
1002
}
1040
0.6999999880790711
1000

1040
0.0
1002
{
1002
}
1040
0.0
1002
{
1002
}
1040
0.0
1002
}
1002
{
1002
{
1010
-1.0
1020
-1.0
1030
-1.0
1002
}
1040
0.2000000029802322
1000

1040
0.0
1002
{
1002
}
1040
0.0
1002
{
1002
}
1040
0.0
1002
}
1002
{
1070
     0
1002
{
1070
     1
1002
{
1040
1.0
1040
1.0
1000

1040
0.0
1002
{
1002
}
1040
0.0
1002
{
1002
}
1040
0.0
1002
}
1002
}
1040
1.0
1040
0.0
1040
0.0
1002
}
1002
{
1040
1.0
1040
1.0
1000

1040
0.0
1002
{
1002
}
1040
0.0
1002
{
1002
}
1040
0.0
1002
}
1002
{
1040
0.5
1040
1.0
1000

1040
0.0
1002
{
1002
}
1040
0.0
1002
{
1002
}
1040
0.0
1002
}
1002
{
1070
     0
1040
0.0
1002
{
1002
}
1040
1.0
1002
{
1002
}
1040
0.0
1002
}
1002
{
1040
0.0
1002
{
1002
{
1010
0.0
1020
0.0
1030
0.0
1002
}
1040
1.0
1000

1040
0.0
1002
{
1002
}
1040
0.0
1002
{
1002
}
1040
0.0
1002
}
1002
}
1002
{
1002
{
1070
     1
1002
{
1040
0.0
1040
1.0
1000

1040
0.0
1002
{
1002
}
1040
0.0
1002
{
1002
}
1040
0.0
1002
}
1002
}
1040
0.0
1002
{
1002
}
1010
1.0
1020
0.0
1030
0.0
1010
0.0
1020
1.0
1030
0.0
1010
0.0
1020
0.0
1030
1.0
1070
     0
1002
}
1002
{
1002
{
1040
1.0
1040
1.0
1002
{
1070
     1
1002
{
1040
1.0
1040
1.0
1000

1040
0.0
1002
{
1002
}
1040
0.0
1002
{
1002
}
1040
0.0
1002
}
1002
}
1002
}
1070
     0
1040
0.0
1002
{
1002
}
1002
}
1002
{
1002
}
1002
}
1002
{
1071
        3
1070
     3
1070
     0
1002
{
1070
     2
1070
     0
1070
     0
1040
0.0
1002
}
1070
     0
1070
     2
1002
{
1002
}
1002
}
1002
{
1040
8030.0
1040
190.3000030517578
1040
0.3050000071525574
1040
228.0
1040
545.0
1040
14.0
1040
17.39999961853027
1040
0.4560000002384186
1002
}
1002
}
  0
ENDSEC
  0
SECTION
  2
OBJECTS
  0
DICTIONARY
  5
7DE1B343D9E19B1
330
0
100
AcDbDictionary
  3
ACAD_GROUP
350
7DE1B343D9E19B2
  3
ACAD_LAYOUT
350
7DE1B343D9E19F2
  3
ACAD_MLINESTYLE
350
7DE1B343D9E19B3
  3
ACAD_PLOTSETTINGS
350
7DE1B343D9E19F3
  3
ACAD_PLOTSTYLENAME
350
7DE1B343D9E19F0
  3
ACDBHEADERROUNDTRIPXREC
350
7DE1B343D9E19FD
  3
ACDBVARIABLEDICTIONARY
350
7DE1B343D9E19FA
  0
DICTIONARY
  5
7DE1B343D9E1A1F
330
7DE1B343D9E19BD
100
AcDbDictionary
280
     1
  3
ACAD_LAYOUTSELFREF
360
7DE1B343D9E1A20
  0
DICTIONARY
  5
7DE1B343D9E1A1D
330
7DE1B343D9E19BA
100
AcDbDictionary
280
     1
  3
ACAD_LAYOUTSELFREF
360
7DE1B343D9E1A1E
  0
DICTIONARY
  5
7DE1B343D9E19B2
102
{ACAD_REACTORS
330
7DE1B343D9E19B1
102
}
330
7DE1B343D9E19B1
100
AcDbDictionary
  0
DICTIONARY
  5
7DE1B343D9E19F2
102
{ACAD_REACTORS
330
7DE1B343D9E19B1
102
}
330
7DE1B343D9E19B1
100
AcDbDictionary
  0
DICTIONARY
  5
7DE1B343D9E19B3
102
{ACAD_REACTORS
330
7DE1B343D9E19B1
102
}
330
7DE1B343D9E19B1
100
AcDbDictionary
  3
STANDARD
350
7DE1B343D9E19C0
  0
DICTIONARY
  5
7DE1B343D9E19F3
102
{ACAD_REACTORS
330
7DE1B343D9E19B1
102
}
330
7DE1B343D9E19B1
100
AcDbDictionary
  0
ACDBDICTIONARYWDFLT
  5
7DE1B343D9E19F0
102
{ACAD_REACTORS
330
7DE1B343D9E19B1
102
}
330
7DE1B343D9E19B1
100
AcDbDictionary
281
     1
  3
Normal
350
7DE1B343D9E19F1
100
AcDbDictionaryWithDefault
340
7DE1B343D9E19F1
  0
DICTIONARY
  5
7DE1B343D9E19FD
102
{ACAD_REACTORS
330
7DE1B343D9E19B1
102
}
330
7DE1B343D9E19B1
100
AcDbDictionary
  3
CEPSNTYPE
350
7DE1B343D9E1A07
  3
FINGERPRINTGUID
350
7DE1B343D9E1A08
  3
HYPERLINKBASE
350
7DE1B343D9E1A00
  3
INSUNITS
350
7DE1B343D9E1A06
  3
LAYOUTDICT
350
7DE1B343D9E1A02
  3
LWETCUNION
350
7DE1B343D9E1A05
  3
PLOTSETDICT
350
7DE1B343D9E1A03
  3
PLOTSTYLNAMDICT
350
7DE1B343D9E1A04
  3
PSVPSCALE
350
7DE1B343D9E1A0A
  3
PUCSBASE
350
7DE1B343D9E1A0D
  3
PUCSORGBACK
350
7DE1B343D9E1A13
  3
PUCSORGBOTTOM
350
7DE1B343D9E1A0F
  3
PUCSORGFRONT
350
7DE1B343D9E1A12
  3
PUCSORGLEFT
350
7DE1B343D9E1A10
  3
PUCSORGRIGHT
350
7DE1B343D9E1A11
  3
PUCSORGTOP
350
7DE1B343D9E1A0E
  3
PUCSORTHOREF
350
7DE1B343D9E1A0B
  3
PUCSORTHOVIEW
350
7DE1B343D9E1A0C
  3
STYLESHEET
350
7DE1B343D9E1A01
  3
TSTACKALIGN
350
7DE1B343D9E19FE
  3
TSTACKSIZE
350
7DE1B343D9E19FF
  3
UCSBASE
350
7DE1B343D9E1A16
  3
UCSORGBACK
350
7DE1B343D9E1A1C
  3
UCSORGBOTTOM
350
7DE1B343D9E1A18
  3
UCSORGFRONT
350
7DE1B343D9E1A1B
  3
UCSORGLEFT
350
7DE1B343D9E1A19
  3
UCSORGRIGHT
350
7DE1B343D9E1A1A
  3
UCSORGTOP
350
7DE1B343D9E1A17
  3
UCSORTHOREF
350
7DE1B343D9E1A14
  3
UCSORTHOVIEW
350
7DE1B343D9E1A15
  3
VERSIONGUID
350
7DE1B343D9E1A09
  0
DICTIONARY
  5
7DE1B343D9E19FA
102
{ACAD_REACTORS
330
7DE1B343D9E19B1
102
}
330
7DE1B343D9E19B1
100
AcDbDictionary
  3
DIMASSOC
350
7DE1B343D9E19FB
  0
XRECORD
  5
7DE1B343D9E1A20
102
{ACAD_REACTORS
330
7DE1B343D9E1A1F
102
}
330
7DE1B343D9E1A1F
100
AcDbXrecord
340
7DE1B343D9E19BD
  0
XRECORD
  5
7DE1B343D9E1A1E
102
{ACAD_REACTORS
330
7DE1B343D9E1A1D
102
}
330
7DE1B343D9E1A1D
100
AcDbXrecord
340
7DE1B343D9E19BA
  0
MLINESTYLE
  5
7DE1B343D9E19C0
102
{ACAD_REACTORS
330
7DE1B343D9E19B3
102
}
330
7DE1B343D9E19B3
100
AcDbMlineStyle
  2
STANDARD
 70
     0
  3

 62
     0
 51
90.0
 52
90.0
 71
     2
 49
0.5
 62
   256
  6
BYLAYER
 49
-0.5
 62
   256
  6
BYLAYER
  0
ACDBPLACEHOLDER
  5
7DE1B343D9E19F1
102
{ACAD_REACTORS
330
7DE1B343D9E19F0
102
}
330
7DE1B343D9E19F0
100
AcDbPlaceHolder
280
     0
  0
XRECORD
  5
7DE1B343D9E1A07
102
{ACAD_REACTORS
330
7DE1B343D9E19FD
102
}
330
7DE1B343D9E19FD
100
AcDbXrecord
 90
        0
  0
XRECORD
  5
7DE1B343D9E1A08
102
{ACAD_REACTORS
330
7DE1B343D9E19FD
102
}
330
7DE1B343D9E19FD
100
AcDbXrecord
  1
{2F6142C0-8DB6-11D6-88E6-0090279574E7}
  0
XRECORD
  5
7DE1B343D9E1A00
102
{ACAD_REACTORS
330
7DE1B343D9E19FD
102
}
330
7DE1B343D9E19FD
100
AcDbXrecord
  1

  0
XRECORD
  5
7DE1B343D9E1A06
102
{ACAD_REACTORS
330
7DE1B343D9E19FD
102
}
330
7DE1B343D9E19FD
100
AcDbXrecord
 90
        0
  0
XRECORD
  5
7DE1B343D9E1A02
102
{ACAD_REACTORS
330
7DE1B343D9E19FD
102
}
330
7DE1B343D9E19FD
100
AcDbXrecord
340
7DE1B343D9E19F2
  0
XRECORD
  5
7DE1B343D9E1A05
102
{ACAD_REACTORS
330
7DE1B343D9E19FD
102
}
330
7DE1B343D9E19FD
100
AcDbXrecord
 90
    14877
  0
XRECORD
  5
7DE1B343D9E1A03
102
{ACAD_REACTORS
330
7DE1B343D9E19FD
102
}
330
7DE1B343D9E19FD
100
AcDbXrecord
340
7DE1B343D9E19F3
  0
XRECORD
  5
7DE1B343D9E1A04
102
{ACAD_REACTORS
330
7DE1B343D9E19FD
102
}
330
7DE1B343D9E19FD
100
AcDbXrecord
340
7DE1B343D9E19F0
  0
XRECORD
  5
7DE1B343D9E1A0A
102
{ACAD_REACTORS
330
7DE1B343D9E19FD
102
}
330
7DE1B343D9E19FD
100
AcDbXrecord
 40
0.0
  0
XRECORD
  5
7DE1B343D9E1A0D
102
{ACAD_REACTORS
330
7DE1B343D9E19FD
102
}
330
7DE1B343D9E19FD
100
AcDbXrecord
340
0
  0
XRECORD
  5
7DE1B343D9E1A13
102
{ACAD_REACTORS
330
7DE1B343D9E19FD
102
}
330
7DE1B343D9E19FD
100
AcDbXrecord
 10
0.0
 20
0.0
 30
0.0
  0
XRECORD
  5
7DE1B343D9E1A0F
102
{ACAD_REACTORS
330
7DE1B343D9E19FD
102
}
330
7DE1B343D9E19FD
100
AcDbXrecord
 10
0.0
 20
0.0
 30
0.0
  0
XRECORD
  5
7DE1B343D9E1A12
102
{ACAD_REACTORS
330
7DE1B343D9E19FD
102
}
330
7DE1B343D9E19FD
100
AcDbXrecord
 10
0.0
 20
0.0
 30
0.0
  0
XRECORD
  5
7DE1B343D9E1A10
102
{ACAD_REACTORS
330
7DE1B343D9E19FD
102
}
330
7DE1B343D9E19FD
100
AcDbXrecord
 10
0.0
 20
0.0
 30
0.0
  0
XRECORD
  5
7DE1B343D9E1A11
102
{ACAD_REACTORS
330
7DE1B343D9E19FD
102
}
330
7DE1B343D9E19FD
100
AcDbXrecord
 10
0.0
 20
0.0
 30
0.0
  0
XRECORD
  5
7DE1B343D9E1A0E
102
{ACAD_REACTORS
330
7DE1B343D9E19FD
102
}
330
7DE1B343D9E19FD
100
AcDbXrecord
 10
0.0
 20
0.0
 30
0.0
  0
XRECORD
  5
7DE1B343D9E1A0B
102
{ACAD_REACTORS
330
7DE1B343D9E19FD
102
}
330
7DE1B343D9E19FD
100
AcDbXrecord
340
0
  0
XRECORD
  5
7DE1B343D9E1A0C
102
{ACAD_REACTORS
330
7DE1B343D9E19FD
102
}
330
7DE1B343D9E19FD
100
AcDbXrecord
 70
     0
  0
XRECORD
  5
7DE1B343D9E1A01
102
{ACAD_REACTORS
330
7DE1B343D9E19FD
102
}
330
7DE1B343D9E19FD
100
AcDbXrecord
  1

  0
XRECORD
  5
7DE1B343D9E19FE
102
{ACAD_REACTORS
330
7DE1B343D9E19FD
102
}
330
7DE1B343D9E19FD
100
AcDbXrecord
 90
        1
  0
XRECORD
  5
7DE1B343D9E19FF
102
{ACAD_REACTORS
330
7DE1B343D9E19FD
102
}
330
7DE1B343D9E19FD
100
AcDbXrecord
 90
       70
  0
XRECORD
  5
7DE1B343D9E1A16
102
{ACAD_REACTORS
330
7DE1B343D9E19FD
102
}
330
7DE1B343D9E19FD
100
AcDbXrecord
340
0
  0
XRECORD
  5
7DE1B343D9E1A1C
102
{ACAD_REACTORS
330
7DE1B343D9E19FD
102
}
330
7DE1B343D9E19FD
100
AcDbXrecord
 10
0.0
 20
0.0
 30
0.0
  0
XRECORD
  5
7DE1B343D9E1A18
102
{ACAD_REACTORS
330
7DE1B343D9E19FD
102
}
330
7DE1B343D9E19FD
100
AcDbXrecord
 10
0.0
 20
0.0
 30
0.0
  0
XRECORD
  5
7DE1B343D9E1A1B
102
{ACAD_REACTORS
330
7DE1B343D9E19FD
102
}
330
7DE1B343D9E19FD
100
AcDbXrecord
 10
0.0
 20
0.0
 30
0.0
  0
XRECORD
  5
7DE1B343D9E1A19
102
{ACAD_REACTORS
330
7DE1B343D9E19FD
102
}
330
7DE1B343D9E19FD
100
AcDbXrecord
 10
0.0
 20
0.0
 30
0.0
  0
XRECORD
  5
7DE1B343D9E1A1A
102
{ACAD_REACTORS
330
7DE1B343D9E19FD
102
}
330
7DE1B343D9E19FD
100
AcDbXrecord
 10
0.0
 20
0.0
 30
0.0
  0
XRECORD
  5
7DE1B343D9E1A17
102
{ACAD_REACTORS
330
7DE1B343D9E19FD
102
}
330
7DE1B343D9E19FD
100
AcDbXrecord
 10
0.0
 20
0.0
 30
0.0
  0
XRECORD
  5
7DE1B343D9E1A14
102
{ACAD_REACTORS
330
7DE1B343D9E19FD
102
}
330
7DE1B343D9E19FD
100
AcDbXrecord
340
0
  0
XRECORD
  5
7DE1B343D9E1A15
102
{ACAD_REACTORS
330
7DE1B343D9E19FD
102
}
330
7DE1B343D9E19FD
100
AcDbXrecord
 70
     0
  0
XRECORD
  5
7DE1B343D9E1A09
102
{ACAD_REACTORS
330
7DE1B343D9E19FD
102
}
330
7DE1B343D9E19FD
100
AcDbXrecord
  1
{2F6142C2-8DB6-11D6-88E6-0090279574E7}
  0
DICTIONARYVAR
  5
7DE1B343D9E19FB
102
{ACAD_REACTORS
330
7DE1B343D9E19FA
102
}
330
7DE1B343D9E19FA
100
DictionaryVariables
280
     0
  1
1
  0
ENDSEC
  0
EOF
