  0
SECTION
  2
HEADER
  9
$ACADVER
  1
AC1014
  9
$ACADMAINTVER
 70
     9
  9
$DWGCODEPAGE
  3
ANSI_1252
  9
$INSBASE
 10
5.524340506429418
 20
5.440034306932791
 30
0.0
  9
$EXTMIN
 10
3.790554997935181
 20
4.342532410810724
 30
0.0
  9
$EXTMAX
 10
7.275774319682316
 20
5.749638184765798
 30
0.0
  9
$LIMMIN
 10
0.0
 20
0.0
  9
$LIMMAX
 10
18.0
 20
12.0
  9
$ORTHOMODE
 70
     1
  9
$REGENMODE
 70
     1
  9
$FILLMODE
 70
     1
  9
$QTEXTMODE
 70
     0
  9
$MIRRTEXT
 70
     0
  9
$DRAGMODE
 70
     2
  9
$LTSCALE
 40
1.0
  9
$OSMODE
 70
    39
  9
$ATTMODE
 70
     1
  9
$TEXTSIZE
 40
0.125
  9
$TRACEWID
 40
0.05
  9
$TEXTSTYLE
  7
ROMANS
  9
$CLAYER
  8
0
  9
$CELTYPE
  6
BYLAYER
  9
$CECOLOR
 62
   256
  9
$CELTSCALE
 40
1.0
  9
$DELOBJ
 70
     1
  9
$DISPSILH
 70
     1
  9
$DIMSCALE
 40
1.0
  9
$DIMASZ
 40
0.125
  9
$DIMEXO
 40
0.125
  9
$DIMDLI
 40
0.375
  9
$DIMRND
 40
0.0
  9
$DIMDLE
 40
0.0
  9
$DIMEXE
 40
0.125
  9
$DIMTP
 40
0.0
  9
$DIMTM
 40
0.0
  9
$DIMTXT
 40
0.125
  9
$DIMCEN
 40
-0.125
  9
$DIMTSZ
 40
0.0
  9
$DIMTOL
 70
     0
  9
$DIMLIM
 70
     0
  9
$DIMTIH
 70
     1
  9
$DIMTOH
 70
     1
  9
$DIMSE1
 70
     0
  9
$DIMSE2
 70
     0
  9
$DIMTAD
 70
     0
  9
$DIMZIN
 70
     4
  9
$DIMBLK
  1

  9
$DIMASO
 70
     1
  9
$DIMSHO
 70
     1
  9
$DIMPOST
  1

  9
$DIMAPOST
  1

  9
$DIMALT
 70
     0
  9
$DIMALTD
 70
     2
  9
$DIMALTF
 40
25.4
  9
$DIMLFAC
 40
1.0
  9
$DIMTOFL
 70
     0
  9
$DIMTVP
 40
0.0
  9
$DIMTIX
 70
     1
  9
$DIMSOXD
 70
     0
  9
$DIMSAH
 70
     0
  9
$DIMBLK1
  1

  9
$DIMBLK2
  1

  9
$DIMSTYLE
  2
STANDARD
  9
$DIMCLRD
 70
     0
  9
$DIMCLRE
 70
     0
  9
$DIMCLRT
 70
     0
  9
$DIMTFAC
 40
1.0
  9
$DIMGAP
 40
0.09
  9
$DIMJUST
 70
     0
  9
$DIMSD1
 70
     0
  9
$DIMSD2
 70
     0
  9
$DIMTOLJ
 70
     1
  9
$DIMTZIN
 70
     4
  9
$DIMALTZ
 70
     0
  9
$DIMALTTZ
 70
     0
  9
$DIMFIT
 70
     3
  9
$DIMUPT
 70
     0
  9
$DIMUNIT
 70
     2
  9
$DIMDEC
 70
     3
  9
$DIMTDEC
 70
     3
  9
$DIMALTU
 70
     2
  9
$DIMALTTD
 70
     2
  9
$DIMTXSTY
  7
ROMANS
  9
$DIMAUNIT
 70
     0
  9
$LUNITS
 70
     2
  9
$LUPREC
 70
     3
  9
$SKETCHINC
 40
0.1
  9
$FILLETRAD
 40
0.03125
  9
$AUNITS
 70
     0
  9
$AUPREC
 70
     0
  9
$MENU
  1
ACAD
  9
$ELEVATION
 40
0.0
  9
$PELEVATION
 40
0.0
  9
$THICKNESS
 40
0.0
  9
$LIMCHECK
 70
     0
  9
$BLIPMODE
 70
     0
  9
$CHAMFERA
 40
0.0
  9
$CHAMFERB
 40
0.0
  9
$CHAMFERC
 40
0.0
  9
$CHAMFERD
 40
0.0
  9
$SKPOLY
 70
     0
  9
$TDCREATE
 40
2448994.566014814
  9
$TDUPDATE
 40
2452458.306280081
  9
$TDINDWG
 40
0.0011568866
  9
$TDUSRTIMER
 40
0.0011568866
  9
$USRTIMER
 70
     1
  9
$ANGBASE
 50
0.0
  9
$ANGDIR
 70
     0
  9
$PDMODE
 70
     0
  9
$PDSIZE
 40
0.0
  9
$PLINEWID
 40
0.0
  9
$COORDS
 70
     2
  9
$SPLFRAME
 70
     0
  9
$SPLINETYPE
 70
     6
  9
$SPLINESEGS
 70
     8
  9
$ATTDIA
 70
     0
  9
$ATTREQ
 70
     1
  9
$HANDLING
 70
 22529
  9
$HANDSEED
  5
7DE1B343D9E164A
  9
$SURFTAB1
 70
     6
  9
$SURFTAB2
 70
     6
  9
$SURFTYPE
 70
     6
  9
$SURFU
 70
     6
  9
$SURFV
 70
     6
  9
$UCSNAME
  2

  9
$UCSORG
 10
0.0
 20
0.0
 30
0.0
  9
$UCSXDIR
 10
1.0
 20
0.0
 30
0.0
  9
$UCSYDIR
 10
0.0
 20
1.0
 30
0.0
  9
$PUCSNAME
  2

  9
$PUCSORG
 10
0.0
 20
0.0
 30
0.0
  9
$PUCSXDIR
 10
1.0
 20
0.0
 30
0.0
  9
$PUCSYDIR
 10
0.0
 20
1.0
 30
0.0
  9
$USERI1
 70
     0
  9
$USERI2
 70
     0
  9
$USERI3
 70
     0
  9
$USERI4
 70
     0
  9
$USERI5
 70
     0
  9
$USERR1
 40
0.0
  9
$USERR2
 40
0.0
  9
$USERR3
 40
0.0
  9
$USERR4
 40
0.0
  9
$USERR5
 40
0.0
  9
$WORLDVIEW
 70
     1
  9
$SHADEDGE
 70
     3
  9
$SHADEDIF
 70
    70
  9
$TILEMODE
 70
     1
  9
$MAXACTVP
 70
    16
  9
$PINSBASE
 10
2.480449422646588
 20
50.00000000000001
 30
4.396765557662376
  9
$PLIMCHECK
 70
     0
  9
$PEXTMIN
 10
1.000000000000000E+20
 20
1.000000000000000E+20
 30
1.000000000000000E+20
  9
$PEXTMAX
 10
-1.000000000000000E+20
 20
-1.000000000000000E+20
 30
-1.000000000000000E+20
  9
$PLIMMIN
 10
0.0
 20
0.0
  9
$PLIMMAX
 10
12.0
 20
9.0
  9
$UNITMODE
 70
     0
  9
$VISRETAIN
 70
     0
  9
$PLINEGEN
 70
     1
  9
$PSLTSCALE
 70
     0
  9
$TREEDEPTH
 70
  3020
  9
$PICKSTYLE
 70
     1
  9
$CMLSTYLE
  2
STANDARD
  9
$CMLJUST
 70
     0
  9
$CMLSCALE
 40
1.0
  9
$PROXYGRAPHICS
 70
     1
  9
$MEASUREMENT
 70
     0
  0
ENDSEC
  0
SECTION
  2
CLASSES
  0
CLASS
  1
LWPOLYLINE
  2
AcDbPolyline
  3
AutoCAD 2000
 90
        0
280
     0
281
     1
  0
CLASS
  1
ACDBDICTIONARYWDFLT
  2
AcDbDictionaryWithDefault
  3
AutoCAD 2000
 90
        0
280
     0
281
     0
  0
CLASS
  1
ACDBPLACEHOLDER
  2
AcDbPlaceHolder
  3
AutoCAD 2000
 90
        0
280
     0
281
     0
  0
CLASS
  1
LAYOUT
  2
AcDbLayout
  3
AutoCAD 2000
 90
        0
280
     0
281
     0
  0
CLASS
  1
DICTIONARYVAR
  2
AcDbDictionaryVar
  3
AutoCAD 2000
 90
        0
280
     0
281
     0
  0
CLASS
  1
LONG_TRANSACTION
  2
AcDbLongTransaction
  3
AutoCAD 2000
 90
        0
280
     0
281
     0
  0
CLASS
  1
LWPOLYLINE
  2
AcDbPolyline
  3
AutoCAD 2000
 90
        0
280
     0
281
     1
  0
CLASS
  1
HATCH
  2
AcDbHatch
  3
AutoCAD 2000
 90
        0
280
     0
281
     1
  0
CLASS
  1
XRECORD
  2
AcDbXrecord
  3
AutoCAD 2000
 90
        0
280
     0
281
     0
  0
ENDSEC
  0
SECTION
  2
TABLES
  0
TABLE
  2
VPORT
  5
7DE1B343D9E15D6
330
0
100
AcDbSymbolTable
 70
     2
  0
VPORT
  5
7DE1B343D9E1625
330
7DE1B343D9E15D6
100
AcDbSymbolTableRecord
100
AcDbViewportTableRecord
  2
*ACTIVE
 70
     0
 10
0.0
 20
0.0
 11
1.0
 21
1.0
 12
8.509463157966838
 22
5.046020534641598
 13
0.0
 23
0.0
 14
0.015625
 24
0.015625
 15
0.0
 25
0.0
 16
0.0
 26
0.0
 36
1.0
 17
0.0
 27
0.0
 37
0.0
 40
2.282647215150728
 41
4.320930232558139
 42
50.0
 43
0.0
 44
0.0
 50
0.0
 51
0.0
 71
     0
 72
  2000
 73
     1
 74
     0
 75
     0
 76
     0
 77
     0
 78
     0
  0
ENDTAB
  0
TABLE
  2
LTYPE
  5
7DE1B343D9E15D3
330
0
100
AcDbSymbolTable
 70
     1
  0
LTYPE
  5
7DE1B343D9E15E0
330
7DE1B343D9E15D3
100
AcDbSymbolTableRecord
100
AcDbLinetypeTableRecord
  2
BYBLOCK
 70
     0
  3

 72
    65
 73
     0
 40
0.0
  0
LTYPE
  5
7DE1B343D9E15E1
330
7DE1B343D9E15D3
100
AcDbSymbolTableRecord
100
AcDbLinetypeTableRecord
  2
BYLAYER
 70
     0
  3

 72
    65
 73
     0
 40
0.0
  0
LTYPE
  5
7DE1B343D9E15E2
330
7DE1B343D9E15D3
100
AcDbSymbolTableRecord
100
AcDbLinetypeTableRecord
  2
CONTINUOUS
 70
     0
  3
Solid line
 72
    65
 73
     0
 40
0.0
  0
ENDTAB
  0
TABLE
  2
LAYER
  5
7DE1B343D9E15D0
330
0
100
AcDbSymbolTable
 70
     3
  0
LAYER
  5
7DE1B343D9E15DD
330
7DE1B343D9E15D0
100
AcDbSymbolTableRecord
100
AcDbLayerTableRecord
  2
0
 70
     0
 62
     7
  6
CONTINUOUS
  0
LAYER
  5
7DE1B343D9E15ED
330
7DE1B343D9E15D0
100
AcDbSymbolTableRecord
100
AcDbLayerTableRecord
  2
TEXT
 70
     0
 62
     3
  6
CONTINUOUS
  0
LAYER
  5
7DE1B343D9E15FD
330
7DE1B343D9E15D0
100
AcDbSymbolTableRecord
100
AcDbLayerTableRecord
  2
ASHADE
 70
     4
 62
     7
  6
CONTINUOUS
  0
ENDTAB
  0
TABLE
  2
STYLE
  5
7DE1B343D9E15D1
330
0
100
AcDbSymbolTable
 70
     4
  0
STYLE
  5
7DE1B343D9E15DE
330
7DE1B343D9E15D1
100
AcDbSymbolTableRecord
100
AcDbTextStyleTableRecord
  2
STANDARD
 70
     0
 40
0.0
 41
1.0
 50
0.0
 71
     0
 42
0.3125
  3
txt
  4

  0
STYLE
  5
7DE1B343D9E15EA
330
7DE1B343D9E15D1
100
AcDbSymbolTableRecord
100
AcDbTextStyleTableRecord
  2
ITALICC
 70
     0
 40
0.0
 41
1.0
 50
0.0
 71
     0
 42
0.125
  3
italicc
  4

  0
STYLE
  5
7DE1B343D9E15FA
330
7DE1B343D9E15D1
100
AcDbSymbolTableRecord
100
AcDbTextStyleTableRecord
  2
ASHADE
 70
     0
 40
0.2
 41
1.0
 50
0.0
 71
     0
 42
0.3125
  3
simplex
  4

  0
STYLE
  5
7DE1B343D9E1615
330
7DE1B343D9E15D1
100
AcDbSymbolTableRecord
100
AcDbTextStyleTableRecord
  2
ROMANS
 70
     0
 40
0.0
 41
1.0
 50
0.0
 71
     0
 42
0.125
  3
romans.shx
  4

  0
ENDTAB
  0
TABLE
  2
VIEW
  5
7DE1B343D9E15D4
330
0
100
AcDbSymbolTable
 70
     0
  0
ENDTAB
  0
TABLE
  2
UCS
  5
7DE1B343D9E15D5
330
0
100
AcDbSymbolTable
 70
     0
  0
ENDTAB
  0
TABLE
  2
APPID
  5
7DE1B343D9E15D7
330
0
100
AcDbSymbolTable
 70
     6
  0
APPID
  5
7DE1B343D9E15DF
330
7DE1B343D9E15D7
100
AcDbSymbolTableRecord
100
AcDbRegAppTableRecord
  2
ACAD
 70
     0
  0
APPID
  5
7DE1B343D9E15FB
330
7DE1B343D9E15D7
100
AcDbSymbolTableRecord
100
AcDbRegAppTableRecord
  2
AVE_RENDER
 70
     0
  0
APPID
  5
7DE1B343D9E15FC
330
7DE1B343D9E15D7
100
AcDbSymbolTableRecord
100
AcDbRegAppTableRecord
  2
AVE_ENTITY_MATERIAL
 70
     0
  0
APPID
  5
7DE1B343D9E1609
330
7DE1B343D9E15D7
100
AcDbSymbolTableRecord
100
AcDbRegAppTableRecord
  2
AVE_FINISH
 70
     0
  0
APPID
  5
7DE1B343D9E160A
330
7DE1B343D9E15D7
100
AcDbSymbolTableRecord
100
AcDbRegAppTableRecord
  2
AVE_MATERIAL
 70
     0
  0
APPID
  5
7DE1B343D9E160B
330
7DE1B343D9E15D7
100
AcDbSymbolTableRecord
100
AcDbRegAppTableRecord
  2
AVE_GLOBAL
 70
     0
  0
ENDTAB
  0
TABLE
  2
DIMSTYLE
  5
7DE1B343D9E15D8
330
0
100
AcDbSymbolTable
 70
     1
  0
DIMSTYLE
105
7DE1B343D9E15F2
330
7DE1B343D9E15D8
100
AcDbSymbolTableRecord
100
AcDbDimStyleTableRecord
  2
STANDARD
 70
     0
  3

  4

  5

  6

  7

 40
1.0
 41
0.125
 42
0.125
 43
0.375
 44
0.125
 45
0.0
 46
0.0
 47
0.0
 48
0.0
140
0.125
141
-0.125
142
0.0
143
25.4
144
1.0
145
0.0
146
1.0
147
0.09
 71
     0
 72
     0
 73
     1
 74
     1
 75
     0
 76
     0
 77
     0
 78
     4
170
     0
171
     2
172
     0
173
     0
174
     1
175
     0
176
     0
177
     0
178
     0
270
     2
271
     3
272
     3
273
     2
274
     2
340
7DE1B343D9E1615
275
     0
280
     0
281
     0
282
     0
283
     1
284
     4
285
     0
286
     0
287
     3
288
     0
  0
ENDTAB
  0
TABLE
  2
BLOCK_RECORD
  5
7DE1B343D9E15CF
330
0
100
AcDbSymbolTable
 70
     2
  0
BLOCK_RECORD
  5
7DE1B343D9E15E6
102
{ACAD_XDICTIONARY
360
7DE1B343D9E1648
102
}
330
7DE1B343D9E15CF
100
AcDbSymbolTableRecord
100
AcDbBlockTableRecord
  2
*MODEL_SPACE
  0
BLOCK_RECORD
  5
7DE1B343D9E15E3
102
{ACAD_XDICTIONARY
360
7DE1B343D9E1646
102
}
330
7DE1B343D9E15CF
100
AcDbSymbolTableRecord
100
AcDbBlockTableRecord
  2
*PAPER_SPACE
  0
BLOCK_RECORD
  5
7DE1B343D9E15FE
330
7DE1B343D9E15CF
100
AcDbSymbolTableRecord
100
AcDbBlockTableRecord
  2
AVE_RENDER
  0
BLOCK_RECORD
  5
7DE1B343D9E160C
330
7DE1B343D9E15CF
100
AcDbSymbolTableRecord
100
AcDbBlockTableRecord
  2
AVE_GLOBAL
  0
ENDTAB
  0
ENDSEC
  0
SECTION
  2
BLOCKS
  0
BLOCK
  5
7DE1B343D9E15F0
330
7DE1B343D9E15E6
100
AcDbEntity
  8
0
100
AcDbBlockBegin
  2
*MODEL_SPACE
 70
     0
 10
0.0
 20
0.0
 30
0.0
  3
*MODEL_SPACE
  1

  0
ENDBLK
  5
7DE1B343D9E15F1
330
7DE1B343D9E15E6
100
AcDbEntity
  8
0
100
AcDbBlockEnd
  0
BLOCK
  5
7DE1B343D9E15EE
330
7DE1B343D9E15E3
100
AcDbEntity
 67
     1
  8
0
100
AcDbBlockBegin
  2
*PAPER_SPACE
 70
     0
 10
0.0
 20
0.0
 30
0.0
  3
*PAPER_SPACE
  1

  0
ENDBLK
  5
7DE1B343D9E15EF
330
7DE1B343D9E15E3
100
AcDbEntity
 67
     1
  8
0
100
AcDbBlockEnd
  0
BLOCK
  5
7DE1B343D9E15FF
330
7DE1B343D9E15FE
100
AcDbEntity
  8
0
100
AcDbBlockBegin
  2
AVE_RENDER
 70
     0
 10
0.0
 20
0.0
 30
0.0
  3
AVE_RENDER
  1
AVE_RENDER
  0
ENDBLK
  5
7DE1B343D9E1600
330
7DE1B343D9E15FE
100
AcDbEntity
  8
0
100
AcDbBlockEnd
  0
BLOCK
  5
7DE1B343D9E160D
330
7DE1B343D9E160C
100
AcDbEntity
  8
0
100
AcDbBlockBegin
  2
AVE_GLOBAL
 70
     0
 10
0.0
 20
0.0
 30
0.0
  3
AVE_GLOBAL
  1
AVE_GLOBAL
  0
ENDBLK
  5
7DE1B343D9E160E
330
7DE1B343D9E160C
100
AcDbEntity
  8
0
100
AcDbBlockEnd
  0
ENDSEC
  0
SECTION
  2
ENTITIES
  0
LWPOLYLINE
  5
7DE1B343D9E0039
330
7DE1B343D9E15E6
100
AcDbEntity
  8
0
100
AcDbPolyline
 90
       24
 70
     1
 43
0.0
 10
4.596036577162324
 20
5.682996049142066
 10
4.939786577162324
 20
5.682996049142066
 10
4.939786577162324
 20
5.182996049142066
 10
4.979409989425797
 20
5.182996049142066
 42
0.2679491924311214
 10
5.00647328329406
 20
5.198621049142066
 10
5.033536577162324
 20
5.245496049142066
 10
4.986661577162324
 20
5.245496049142066
 10
4.986661577162324
 20
5.682996049142066
 10
6.080411577162324
 20
5.682996049142066
 10
6.080411577162324
 20
5.245496049142066
 10
6.033536577162324
 20
5.245496049142066
 10
6.060599871030587
 20
5.198621049142066
 42
0.2679491924311214
 10
6.087663164898851
 20
5.182996049142066
 10
6.127286577162324
 20
5.182996049142066
 10
6.127286577162324
 20
5.682996049142066
 10
6.471036577162324
 20
5.682996049142066
 10
6.471036577162324
 20
5.151746049142066
 42
1.0
 10
6.533536577162324
 20
5.151746049142066
 10
6.533536577162324
 20
5.725496049142067
 42
0.4142135623730951
 10
6.513536577162325
 20
5.745496049142066
 10
4.553536577162325
 20
5.745496049142066
 42
0.4142135623730951
 10
4.533536577162324
 20
5.725496049142067
 10
4.533536577162324
 20
5.151746049142066
 42
1.0
 10
4.596036577162324
 20
5.151746049142066
  0
TEXT
  5
7DE1B343D9E1491
330
7DE1B343D9E15E6
100
AcDbEntity
  8
TEXT
100
AcDbText
 10
4.777584196209943
 20
4.800551014893304
 30
0.0
 40
0.125
  1
PART #110307
  7
ITALICC
 72
     1
 11
5.533536577162324
 21
4.800551014893304
 31
0.0
100
AcDbText
  0
TEXT
  5
7DE1B343D9E1492
330
7DE1B343D9E15E6
100
AcDbEntity
  8
TEXT
100
AcDbText
 10
5.946841735412645
 20
4.35362837222093
 30
0.0
 40
0.0522247191011236
  1
Phone  1-800-328-2495
 41
1.272321428571429
 72
     5
 11
7.275774319682309
 21
4.35362837222093
 31
0.0
100
AcDbText
  0
TEXT
  5
7DE1B343D9E1493
330
7DE1B343D9E15E6
100
AcDbEntity
  8
TEXT
100
AcDbText
 10
5.946841735412645
 20
4.633403653119806
 30
0.0
 40
0.0522247191011236
  1
Stylmark  Incorporated
 41
1.221428571428573
 72
     5
 11
7.275774319682309
 21
4.633403653119806
 31
0.0
100
AcDbText
  0
TEXT
  5
7DE1B343D9E1494
330
7DE1B343D9E15E6
100
AcDbEntity
  8
TEXT
100
AcDbText
 10
5.946841735412645
 20
4.540145226153514
 30
0.0
 40
0.0522247191011236
  1
6536 Main St. N.E. * P.O. Box 32008
 41
0.8388932496075366
 72
     5
 11
7.275774319682309
 21
4.540145226153514
 31
0.0
100
AcDbText
  0
TEXT
  5
7DE1B343D9E1495
330
7DE1B343D9E15E6
100
AcDbEntity
  8
TEXT
100
AcDbText
 10
5.946841735412645
 20
4.446886799187222
 30
0.0
 40
0.0522247191011236
  1
Minneapolis, MN 55432-0008
 41
1.11444212721585
 72
     5
 11
7.275774319682309
 21
4.446886799187222
 31
0.0
100
AcDbText
  0
LWPOLYLINE
  5
7DE1B343D9E1496
330
7DE1B343D9E15E6
100
AcDbEntity
  8
TEXT
100
AcDbPolyline
 90
        3
 70
     0
 43
0.0006660908203125
 10
3.790888043345337
 20
4.467273134858364
 10
3.790888043345337
 20
4.354037695405237
 10
3.90412348279846
 20
4.354037695405237
  0
LWPOLYLINE
  5
7DE1B343D9E149B
330
7DE1B343D9E15E6
100
AcDbEntity
  8
TEXT
100
AcDbPolyline
 90
        3
 70
     0
 43
0.0006660908203125
 10
3.817531676157835
 20
4.467273134858364
 10
3.817531676157835
 20
4.380681328217738
 10
3.90412348279846
 20
4.380681328217738
  0
LWPOLYLINE
  5
7DE1B343D9E14A0
330
7DE1B343D9E15E6
100
AcDbEntity
  8
TEXT
100
AcDbPolyline
 90
        2
 70
     0
 43
0.0001332181640625
 10
3.864158033579712
 20
4.47726449716305
 10
3.790888043345337
 20
4.467273134858364
  0
LWPOLYLINE
  5
7DE1B343D9E14A4
330
7DE1B343D9E15E6
100
AcDbEntity
  8
TEXT
100
AcDbPolyline
 90
        2
 70
     0
 43
0.0001332181640625
 10
3.817531676157835
 20
4.467273134858364
 10
3.877479849985962
 20
4.47726449716305
  0
LWPOLYLINE
  5
7DE1B343D9E14A8
330
7DE1B343D9E15E6
100
AcDbEntity
  8
TEXT
100
AcDbPolyline
 90
        2
 70
     0
 43
0.0001332181640625
 10
3.817531676157835
 20
4.380681328217738
 10
3.877479849985962
 20
4.440629502045863
  0
LWPOLYLINE
  5
7DE1B343D9E14AC
330
7DE1B343D9E15E6
100
AcDbEntity
  8
TEXT
100
AcDbPolyline
 90
        3
 70
     0
 43
0.0006660908203125
 10
3.90412348279846
 20
4.62047402353024
 10
3.790888043345337
 20
4.62047402353024
 10
3.790888043345337
 20
4.507238584077112
  0
LWPOLYLINE
  5
7DE1B343D9E14B1
330
7DE1B343D9E15E6
100
AcDbEntity
  8
TEXT
100
AcDbPolyline
 90
        3
 70
     0
 43
0.0006660908203125
 10
3.90412348279846
 20
4.593830390717739
 10
3.817531676157835
 20
4.593830390717739
 10
3.817531676157835
 20
4.507238584077112
  0
LWPOLYLINE
  5
7DE1B343D9E14B6
330
7DE1B343D9E15E6
100
AcDbEntity
  8
TEXT
100
AcDbPolyline
 90
        2
 70
     0
 43
0.0001332181640625
 10
3.817531676157835
 20
4.593830390717739
 10
3.87747984998596
 20
4.533882216889614
  0
LWPOLYLINE
  5
7DE1B343D9E14BA
330
7DE1B343D9E15E6
100
AcDbEntity
  8
TEXT
100
AcDbPolyline
 90
        2
 70
     0
 43
0.0001332181640625
 10
3.817531676157835
 20
4.507238584077112
 10
3.87747984998596
 20
4.497247221772424
  0
LWPOLYLINE
  5
7DE1B343D9E14BE
330
7DE1B343D9E15E6
100
AcDbEntity
  8
TEXT
100
AcDbPolyline
 90
        2
 70
     0
 43
0.0001332181640625
 10
3.790888043345337
 20
4.507238584077112
 10
3.864158033579712
 20
4.497247221772424
  0
LWPOLYLINE
  5
7DE1B343D9E14C2
330
7DE1B343D9E15E6
100
AcDbEntity
  8
TEXT
100
AcDbPolyline
 90
        2
 70
     0
 43
0.0006660908203125
 10
3.817531676157835
 20
4.467273134858364
 10
3.790888043345337
 20
4.467273134858364
  0
LWPOLYLINE
  5
7DE1B343D9E14C6
330
7DE1B343D9E15E6
100
AcDbEntity
  8
TEXT
100
AcDbPolyline
 90
        2
 70
     0
 43
0.0006660908203125
 10
3.817531676157835
 20
4.507238584077112
 10
3.790888043345337
 20
4.507238584077112
  0
LINE
  5
7DE1B343D9E14CA
330
7DE1B343D9E15E6
100
AcDbEntity
  8
TEXT
100
AcDbLine
 10
5.306078472471835
 20
4.556197328873471
 30
0.0
 11
5.198872199084545
 21
4.556197328873471
 31
0.0
  0
LINE
  5
7DE1B343D9E14CB
330
7DE1B343D9E15E6
100
AcDbEntity
  8
TEXT
100
AcDbLine
 10
5.335109370816313
 20
4.620474023530237
 30
0.0
 11
5.200277461599254
 21
4.620474023530237
 31
0.0
  0
ARC
  5
7DE1B343D9E14CC
330
7DE1B343D9E15E6
100
AcDbEntity
  8
TEXT
100
AcDbCircle
 10
5.259591557992571
 20
4.45123677426722
 30
0.0
 40
0.0676855811441166
100
AcDbArc
 50
90.0
 51
153.7768192527749
  0
LWPOLYLINE
  5
7DE1B343D9E14CD
330
7DE1B343D9E15E6
100
AcDbEntity
  8
TEXT
100
AcDbPolyline
 90
        2
 70
     0
 43
0.0
 10
5.197839703629735
 20
4.397491935492164
 42
0.2901071551932823
 10
5.240915636497371
 20
4.354000990541726
 42
5.328517124445801
  0
ARC
  5
7DE1B343D9E14D1
330
7DE1B343D9E15E6
100
AcDbEntity
  8
TEXT
100
AcDbCircle
 10
4.554460180321085
 20
4.413793381879775
 30
0.0
 40
0.0601160179737537
100
AcDbArc
 50
180.0000000000003
 51
264.0521544866073
  0
LINE
  5
7DE1B343D9E14D2
330
7DE1B343D9E15E6
100
AcDbEntity
  8
TEXT
100
AcDbLine
 10
4.557975535946633
 20
4.654861941124375
 30
0.0
 11
4.497932931102626
 21
4.654861941124375
 31
0.0
  0
ARC
  5
7DE1B343D9E14D3
330
7DE1B343D9E15E6
100
AcDbEntity
  8
TEXT
100
AcDbCircle
 10
4.322201178204115
 20
4.538386564083735
 30
0.0
 40
0.0820874594465043
100
AcDbArc
 50
90.0
 51
270.0
  0
LWPOLYLINE
  5
7DE1B343D9E14D4
330
7DE1B343D9E15E6
100
AcDbEntity
  8
TEXT
100
AcDbPolyline
 90
        2
 70
     0
 43
0.0001332181640625
 10
3.91411484510315
 20
4.54720403329586
 10
3.90412348279846
 20
4.62047402353024
  0
LWPOLYLINE
  5
7DE1B343D9E14D8
330
7DE1B343D9E15E6
100
AcDbEntity
  8
TEXT
100
AcDbPolyline
 90
        2
 70
     0
 43
0.0001332181640625
 10
3.90412348279846
 20
4.593830390717739
 10
3.91411484510315
 20
4.533882216889614
  0
LWPOLYLINE
  5
7DE1B343D9E14DC
330
7DE1B343D9E15E6
100
AcDbEntity
  8
TEXT
100
AcDbPolyline
 90
        3
 70
     0
 43
0.0006660908203125
 10
4.057324371470337
 20
4.507238584077112
 10
4.057324371470337
 20
4.62047402353024
 10
3.944088932017211
 20
4.62047402353024
  0
LWPOLYLINE
  5
7DE1B343D9E14E1
330
7DE1B343D9E15E6
100
AcDbEntity
  8
TEXT
100
AcDbPolyline
 90
        3
 70
     0
 43
0.0006660908203125
 10
4.030680738657836
 20
4.507238584077112
 10
4.030680738657836
 20
4.593830390717739
 10
3.944088932017211
 20
4.593830390717739
  0
LWPOLYLINE
  5
7DE1B343D9E14E6
330
7DE1B343D9E15E6
100
AcDbEntity
  8
TEXT
100
AcDbPolyline
 90
        2
 70
     0
 43
0.0001332181640625
 10
4.030680738657836
 20
4.593830390717739
 10
3.970732564829712
 20
4.533882216889614
  0
LWPOLYLINE
  5
7DE1B343D9E14EA
330
7DE1B343D9E15E6
100
AcDbEntity
  8
TEXT
100
AcDbPolyline
 90
        2
 70
     0
 43
0.0001332181640625
 10
3.944088932017211
 20
4.593830390717739
 10
3.934097569712522
 20
4.533882216889614
  0
LWPOLYLINE
  5
7DE1B343D9E14EE
330
7DE1B343D9E15E6
100
AcDbEntity
  8
TEXT
100
AcDbPolyline
 90
        2
 70
     0
 43
0.0001332181640625
 10
3.944088932017211
 20
4.62047402353024
 10
3.934097569712522
 20
4.54720403329586
  0
LWPOLYLINE
  5
7DE1B343D9E14F2
330
7DE1B343D9E15E6
100
AcDbEntity
  8
TEXT
100
AcDbPolyline
 90
        2
 70
     0
 43
0.0001332181640625
 10
3.984054381235961
 20
4.497247221772424
 10
4.057324371470337
 20
4.507238584077112
  0
LWPOLYLINE
  5
7DE1B343D9E14F6
330
7DE1B343D9E15E6
100
AcDbEntity
  8
TEXT
100
AcDbPolyline
 90
        2
 70
     0
 43
0.0001332181640625
 10
4.030680738657836
 20
4.507238584077112
 10
3.970732564829712
 20
4.497247221772424
  0
LWPOLYLINE
  5
7DE1B343D9E14FA
330
7DE1B343D9E15E6
100
AcDbEntity
  8
TEXT
100
AcDbPolyline
 90
        2
 70
     0
 43
0.0001332181640625
 10
4.057324371470337
 20
4.467273134858364
 10
3.984054381235961
 20
4.47726449716305
  0
LWPOLYLINE
  5
7DE1B343D9E14FE
330
7DE1B343D9E15E6
100
AcDbEntity
  8
TEXT
100
AcDbPolyline
 90
        2
 70
     0
 43
0.0001332181640625
 10
4.030680738657836
 20
4.467273134858364
 10
3.970732564829712
 20
4.47726449716305
  0
LWPOLYLINE
  5
7DE1B343D9E1502
330
7DE1B343D9E15E6
100
AcDbEntity
  8
TEXT
100
AcDbPolyline
 90
        2
 70
     0
 43
0.0001332181640625
 10
4.030680738657836
 20
4.380681328217738
 10
3.970732564829712
 20
4.440629502045863
  0
LWPOLYLINE
  5
7DE1B343D9E1506
330
7DE1B343D9E15E6
100
AcDbEntity
  8
TEXT
100
AcDbPolyline
 90
        3
 70
     0
 43
0.0006660908203125
 10
3.944088932017211
 20
4.380681328217738
 10
4.030680738657836
 20
4.380681328217738
 10
4.030680738657836
 20
4.467273134858364
  0
LWPOLYLINE
  5
7DE1B343D9E150B
330
7DE1B343D9E15E6
100
AcDbEntity
  8
TEXT
100
AcDbPolyline
 90
        3
 70
     0
 43
0.0006660908203125
 10
3.944088932017211
 20
4.354037695405237
 10
4.057324371470337
 20
4.354037695405237
 10
4.057324371470337
 20
4.467273134858364
  0
LWPOLYLINE
  5
7DE1B343D9E1510
330
7DE1B343D9E15E6
100
AcDbEntity
  8
TEXT
100
AcDbPolyline
 90
        5
 70
     0
 43
0.0001332181640625
 10
3.91411484510315
 20
4.427307685639613
 10
3.91411484510315
 20
4.440629502045863
 10
3.877479849985962
 20
4.440629502045863
 10
3.877479849985962
 20
4.47726449716305
 10
3.864158033579712
 20
4.47726449716305
  0
LWPOLYLINE
  5
7DE1B343D9E1517
330
7DE1B343D9E15E6
100
AcDbEntity
  8
TEXT
100
AcDbPolyline
 90
        2
 70
     0
 43
0.0006660908203125
 10
3.90412348279846
 20
4.380681328217738
 10
3.90412348279846
 20
4.354037695405237
  0
LWPOLYLINE
  5
7DE1B343D9E151B
330
7DE1B343D9E15E6
100
AcDbEntity
  8
TEXT
100
AcDbPolyline
 90
        2
 70
     0
 43
0.0001332181640625
 10
3.90412348279846
 20
4.380681328217738
 10
3.91411484510315
 20
4.440629502045863
  0
LWPOLYLINE
  5
7DE1B343D9E151F
330
7DE1B343D9E15E6
100
AcDbEntity
  8
TEXT
100
AcDbPolyline
 90
        2
 70
     0
 43
0.0001332181640625
 10
3.90412348279846
 20
4.354037695405237
 10
3.91411484510315
 20
4.427307685639613
  0
LWPOLYLINE
  5
7DE1B343D9E1523
330
7DE1B343D9E15E6
100
AcDbEntity
  8
TEXT
100
AcDbPolyline
 90
        5
 70
     0
 43
0.0001332181640625
 10
3.864158033579712
 20
4.497247221772424
 10
3.87747984998596
 20
4.497247221772424
 10
3.87747984998596
 20
4.533882216889614
 10
3.91411484510315
 20
4.533882216889614
 10
3.91411484510315
 20
4.54720403329586
  0
LWPOLYLINE
  5
7DE1B343D9E152A
330
7DE1B343D9E15E6
100
AcDbEntity
  8
TEXT
100
AcDbPolyline
 90
        5
 70
     0
 43
0.0001332181640625
 10
3.934097569712522
 20
4.54720403329586
 10
3.934097569712522
 20
4.533882216889614
 10
3.970732564829712
 20
4.533882216889614
 10
3.970732564829712
 20
4.497247221772424
 10
3.984054381235961
 20
4.497247221772424
  0
LWPOLYLINE
  5
7DE1B343D9E1531
330
7DE1B343D9E15E6
100
AcDbEntity
  8
TEXT
100
AcDbPolyline
 90
        2
 70
     0
 43
0.0001332181640625
 10
3.944088932017211
 20
4.380681328217738
 10
3.934097569712522
 20
4.440629502045863
  0
LWPOLYLINE
  5
7DE1B343D9E1535
330
7DE1B343D9E15E6
100
AcDbEntity
  8
TEXT
100
AcDbPolyline
 90
        2
 70
     0
 43
0.0001332181640625
 10
3.934097569712522
 20
4.427307685639613
 10
3.944088932017211
 20
4.354037695405237
  0
LWPOLYLINE
  5
7DE1B343D9E1539
330
7DE1B343D9E15E6
100
AcDbEntity
  8
TEXT
100
AcDbPolyline
 90
        2
 70
     0
 43
0.0006660908203125
 10
3.944088932017211
 20
4.380681328217738
 10
3.944088932017211
 20
4.354037695405237
  0
LWPOLYLINE
  5
7DE1B343D9E153D
330
7DE1B343D9E15E6
100
AcDbEntity
  8
TEXT
100
AcDbPolyline
 90
        5
 70
     0
 43
0.0001332181640625
 10
3.984054381235961
 20
4.47726449716305
 10
3.970732564829712
 20
4.47726449716305
 10
3.970732564829712
 20
4.440629502045863
 10
3.934097569712522
 20
4.440629502045863
 10
3.934097569712522
 20
4.427307685639613
  0
LWPOLYLINE
  5
7DE1B343D9E1544
330
7DE1B343D9E15E6
100
AcDbEntity
  8
TEXT
100
AcDbPolyline
 90
        2
 70
     0
 43
0.0006660908203125
 10
4.030680738657836
 20
4.507238584077112
 10
4.057324371470337
 20
4.507238584077112
  0
LWPOLYLINE
  5
7DE1B343D9E1548
330
7DE1B343D9E15E6
100
AcDbEntity
  8
TEXT
100
AcDbPolyline
 90
        2
 70
     0
 43
0.0006660908203125
 10
4.030680738657836
 20
4.467273134858364
 10
4.057324371470337
 20
4.467273134858364
  0
LINE
  5
7DE1B343D9E154C
330
7DE1B343D9E15E6
100
AcDbEntity
  8
TEXT
100
AcDbLine
 10
4.327438508318362
 20
4.556197328873471
 30
0.0
 11
4.494344162347333
 21
4.556197328873471
 31
0.0
  0
LINE
  5
7DE1B343D9E154D
330
7DE1B343D9E15E6
100
AcDbEntity
  8
TEXT
100
AcDbLine
 10
4.393038644562663
 20
4.520392607262843
 30
0.0
 11
4.327438508318362
 21
4.520392607262843
 31
0.0
  0
LINE
  5
7DE1B343D9E154E
330
7DE1B343D9E15E6
100
AcDbEntity
  8
TEXT
100
AcDbLine
 10
4.24011371875761
 20
4.354000990541726
 30
0.0
 11
4.393038644562663
 21
4.354000990541726
 31
0.0
  0
LINE
  5
7DE1B343D9E154F
330
7DE1B343D9E15E6
100
AcDbEntity
  8
TEXT
100
AcDbLine
 10
4.397979018468943
 20
4.422357996875165
 30
0.0
 11
4.240113718757609
 21
4.422357996875165
 31
0.0
  0
LINE
  5
7DE1B343D9E1550
330
7DE1B343D9E15E6
100
AcDbEntity
  8
TEXT
100
AcDbLine
 10
4.322201178204114
 20
4.45629910463723
 30
0.0
 11
4.397979018468943
 21
4.45629910463723
 31
0.0
  0
ARC
  5
7DE1B343D9E1551
330
7DE1B343D9E15E6
100
AcDbEntity
  8
TEXT
100
AcDbCircle
 10
4.327438508318363
 20
4.538294968068159
 30
0.0
 40
0.017902360805315
100
AcDbArc
 50
90.0
 51
270.0
  0
LINE
  5
7DE1B343D9E1552
330
7DE1B343D9E15E6
100
AcDbEntity
  8
TEXT
100
AcDbLine
 10
4.240113718757609
 20
4.422357996875165
 30
0.0
 11
4.24011371875761
 21
4.354000990541726
 31
0.0
  0
LINE
  5
7DE1B343D9E1553
330
7DE1B343D9E15E6
100
AcDbEntity
  8
TEXT
100
AcDbLine
 10
4.494344162347333
 20
4.556197328873471
 30
0.0
 11
4.494344162347333
 21
4.413793381879775
 31
0.0
  0
ARC
  5
7DE1B343D9E1554
330
7DE1B343D9E15E6
100
AcDbEntity
  8
TEXT
100
AcDbCircle
 10
4.393038644562664
 20
4.437196798902283
 30
0.0
 40
0.0831958083605586
100
AcDbArc
 50
270.0
 51
90.0
  0
ARC
  5
7DE1B343D9E1555
330
7DE1B343D9E15E6
100
AcDbEntity
  8
TEXT
100
AcDbCircle
 10
4.397979018468944
 20
4.439328550756199
 30
0.0
 40
0.0169705538810321
100
AcDbArc
 50
270.0
 51
90.0
  0
LWPOLYLINE
  5
7DE1B343D9E1556
330
7DE1B343D9E15E6
100
AcDbEntity
  8
TEXT
100
AcDbPolyline
 90
        2
 70
     0
 43
0.0006660908203125
 10
3.90412348279846
 20
4.593830390717739
 10
3.90412348279846
 20
4.62047402353024
  0
LWPOLYLINE
  5
7DE1B343D9E155A
330
7DE1B343D9E15E6
100
AcDbEntity
  8
TEXT
100
AcDbPolyline
 90
        2
 70
     0
 43
0.0006660908203125
 10
3.944088932017211
 20
4.593830390717739
 10
3.944088932017211
 20
4.62047402353024
  0
LINE
  5
7DE1B343D9E155E
330
7DE1B343D9E15E6
100
AcDbEntity
  8
TEXT
100
AcDbLine
 10
4.497932931102626
 20
4.620474023530237
 30
0.0
 11
4.322201178204114
 21
4.620474023530237
 31
0.0
  0
LINE
  5
7DE1B343D9E155F
330
7DE1B343D9E15E6
100
AcDbEntity
  8
TEXT
100
AcDbLine
 10
4.497932931102626
 20
4.654861941124375
 30
0.0
 11
4.497932931102626
 21
4.620474023530237
 31
0.0
  0
LINE
  5
7DE1B343D9E1560
330
7DE1B343D9E15E6
100
AcDbEntity
  8
TEXT
100
AcDbLine
 10
4.688404823122478
 20
4.519602027417116
 30
0.0
 11
4.62977450209054
 21
4.620474023530237
 31
0.0
  0
LINE
  5
7DE1B343D9E1561
330
7DE1B343D9E15E6
100
AcDbEntity
  8
TEXT
100
AcDbLine
 10
4.747153385928344
 20
4.620474023530237
 30
0.0
 11
4.688404823122478
 21
4.519602027417116
 31
0.0
  0
LINE
  5
7DE1B343D9E1562
330
7DE1B343D9E15E6
100
AcDbEntity
  8
TEXT
100
AcDbLine
 10
4.844084011288085
 20
4.436388828644725
 30
0.0
 11
4.844084011288085
 21
4.688485501269047
 31
0.0
  0
LINE
  5
7DE1B343D9E1563
330
7DE1B343D9E15E6
100
AcDbEntity
  8
TEXT
100
AcDbLine
 10
4.876395865425745
 20
4.620474023530237
 30
0.0
 11
4.876395865425745
 21
4.419609816797828
 31
0.0
  0
LINE
  5
7DE1B343D9E1564
330
7DE1B343D9E15E6
100
AcDbEntity
  8
TEXT
100
AcDbLine
 10
4.876395865425745
 20
4.419609816797828
 30
0.0
 11
4.859402228541144
 21
4.419609816797828
 31
0.0
  0
LINE
  5
7DE1B343D9E1565
330
7DE1B343D9E15E6
100
AcDbEntity
  8
TEXT
100
AcDbLine
 10
4.84522358478428
 20
4.354000990541726
 30
0.0
 11
4.943226918483714
 21
4.354000990541726
 31
0.0
  0
LINE
  5
7DE1B343D9E1566
330
7DE1B343D9E15E6
100
AcDbEntity
  8
TEXT
100
AcDbLine
 10
4.678804586125524
 20
4.373959496646738
 30
0.0
 11
4.776104292218969
 21
4.538309707582007
 31
0.0
  0
ARC
  5
7DE1B343D9E1567
330
7DE1B343D9E15E6
100
AcDbEntity
  8
TEXT
100
AcDbCircle
 10
4.64476102621331
 20
4.393548712815421
 30
0.0
 40
0.0392772371940762
100
AcDbArc
 50
270.1604552698595
 51
330.0831797321295
  0
LINE
  5
7DE1B343D9E1568
330
7DE1B343D9E15E6
100
AcDbEntity
  8
TEXT
100
AcDbLine
 10
4.548230769827439
 20
4.354000990541726
 30
0.0
 11
4.644871020902433
 21
4.354271629640008
 31
0.0
  0
LWPOLYLINE
  5
7DE1B343D9E1569
330
7DE1B343D9E15E6
100
AcDbEntity
  8
TEXT
100
AcDbPolyline
 90
        6
 70
     1
 43
0.0
 10
4.590754573402588
 20
4.556197328873471
 10
4.56043797918238
 20
4.556197328873471
 10
4.56043797918238
 20
4.433086330818577
 42
0.407328721240804
 10
4.571981630343857
 20
4.421267416142191
 10
4.632603329388587
 20
4.421267416142191
 10
4.650068669795905
 20
4.45407964518567
  0
LINE
  5
7DE1B343D9E1571
330
7DE1B343D9E15E6
100
AcDbEntity
  8
TEXT
100
AcDbLine
 10
4.776104292218969
 20
4.538309707582007
 30
0.0
 11
4.776104292218969
 21
4.40555233275665
 31
0.0
  0
ARC
  5
7DE1B343D9E1572
330
7DE1B343D9E15E6
100
AcDbEntity
  8
TEXT
100
AcDbCircle
 10
4.859402228541142
 20
4.434991623041254
 30
0.0
 40
0.0153818062434269
100
AcDbArc
 50
174.7883570302258
 51
270.0
  0
LWPOLYLINE
  5
7DE1B343D9E1573
330
7DE1B343D9E15E6
100
AcDbEntity
  8
TEXT
100
AcDbPolyline
 90
        2
 70
     0
 43
0.0
 10
4.776104292218967
 20
4.405552332756654
 42
0.3318488747599744
 10
4.84522358478428
 20
4.354000990541726
 42
-6.868794160588311
  0
LINE
  5
7DE1B343D9E1577
330
7DE1B343D9E15E6
100
AcDbEntity
  8
TEXT
100
AcDbLine
 10
5.000615987472976
 20
4.354000990541726
 30
0.0
 11
5.067674034254816
 21
4.354000990541726
 31
0.0
  0
LINE
  5
7DE1B343D9E1578
330
7DE1B343D9E15E6
100
AcDbEntity
  8
TEXT
100
AcDbLine
 10
5.000615987472976
 20
4.548643539707361
 30
0.0
 11
5.000615987472976
 21
4.354000990541726
 31
0.0
  0
LINE
  5
7DE1B343D9E1579
330
7DE1B343D9E15E6
100
AcDbEntity
  8
TEXT
100
AcDbLine
 10
4.943226918483714
 20
4.556197328873471
 30
0.0
 11
4.993062198306862
 21
4.556197328873471
 31
0.0
  0
LINE
  5
7DE1B343D9E157A
330
7DE1B343D9E15E6
100
AcDbEntity
  8
TEXT
100
AcDbLine
 10
4.943226918483714
 20
4.354000990541726
 30
0.0
 11
4.943226918483714
 21
4.556197328873471
 31
0.0
  0
LWPOLYLINE
  5
7DE1B343D9E157B
330
7DE1B343D9E15E6
100
AcDbEntity
  8
TEXT
100
AcDbPolyline
 90
        2
 70
     0
 43
0.0
 10
4.99306219830686
 20
4.556197328873471
 42
-0.4142135623731017
 10
5.000615987472974
 20
4.548643539707361
 42
-0.9999999999999998
  0
LINE
  5
7DE1B343D9E157F
330
7DE1B343D9E15E6
100
AcDbEntity
  8
TEXT
100
AcDbLine
 10
5.198872199084545
 20
4.556197328873471
 30
0.0
 11
5.198872199084545
 21
4.481144922799265
 31
0.0
  0
LINE
  5
7DE1B343D9E1580
330
7DE1B343D9E15E6
100
AcDbEntity
  8
TEXT
100
AcDbLine
 10
5.067674034254816
 20
4.556197328873471
 30
0.0
 11
5.121807631175766
 21
4.556197328873471
 31
0.0
  0
LINE
  5
7DE1B343D9E1581
330
7DE1B343D9E15E6
100
AcDbEntity
  8
TEXT
100
AcDbLine
 10
5.067674034254816
 20
4.354000990541726
 30
0.0
 11
5.067674034254816
 21
4.556197328873471
 31
0.0
  0
LWPOLYLINE
  5
7DE1B343D9E1582
330
7DE1B343D9E15E6
100
AcDbEntity
  8
TEXT
100
AcDbPolyline
 90
        2
 70
     0
 43
0.0
 10
5.121807631175764
 20
4.556197328873471
 42
-0.4142135623731017
 10
5.129361420341878
 20
4.548643539707361
 42
-0.9999999999999998
  0
LWPOLYLINE
  5
7DE1B343D9E1586
330
7DE1B343D9E15E6
100
AcDbEntity
  8
TEXT
100
AcDbPolyline
 90
        4
 70
     0
 43
0.0
 10
5.129361420341878
 20
4.548643539707361
 10
5.129361420341878
 20
4.354000990541726
 10
5.197839703629735
 20
4.354000990541726
 10
5.197839703629735
 20
4.397491935492164
 42
-1.714843617202739
  0
LINE
  5
7DE1B343D9E158C
330
7DE1B343D9E15E6
100
AcDbEntity
  8
TEXT
100
AcDbLine
 10
4.557975535946633
 20
4.620474023530237
 30
0.0
 11
4.557975535946633
 21
4.654861941124375
 31
0.0
  0
LINE
  5
7DE1B343D9E158D
330
7DE1B343D9E15E6
100
AcDbEntity
  8
TEXT
100
AcDbLine
 10
4.62977450209054
 20
4.620474023530237
 30
0.0
 11
4.557975535946633
 21
4.620474023530237
 31
0.0
  0
LINE
  5
7DE1B343D9E158E
330
7DE1B343D9E15E6
100
AcDbEntity
  8
TEXT
100
AcDbLine
 10
4.77727529872172
 20
4.620474023530237
 30
0.0
 11
4.747153385928344
 21
4.620474023530237
 31
0.0
  0
LINE
  5
7DE1B343D9E158F
330
7DE1B343D9E15E6
100
AcDbEntity
  8
TEXT
100
AcDbLine
 10
4.77727529872172
 20
4.688485501269047
 30
0.0
 11
4.77727529872172
 21
4.620474023530237
 31
0.0
  0
LINE
  5
7DE1B343D9E1590
330
7DE1B343D9E15E6
100
AcDbEntity
  8
TEXT
100
AcDbLine
 10
4.844084011288085
 20
4.688485501269047
 30
0.0
 11
4.77727529872172
 21
4.688485501269047
 31
0.0
  0
LWPOLYLINE
  5
7DE1B343D9E1591
330
7DE1B343D9E15E6
100
AcDbEntity
  8
TEXT
100
AcDbPolyline
 90
        3
 70
     0
 43
0.0
 10
5.164495770886087
 20
4.62047402353024
 10
5.046195612070043
 20
4.62047402353024
 10
5.046195612070043
 20
4.593306526769344
 42
-1.960274751411753
  0
LINE
  5
7DE1B343D9E1596
330
7DE1B343D9E15E6
100
AcDbEntity
  8
TEXT
100
AcDbLine
 10
5.010413921356882
 20
4.620474023530237
 30
0.0
 11
4.876395865425745
 21
4.620474023530237
 31
0.0
  0
LWPOLYLINE
  5
7DE1B343D9E1597
330
7DE1B343D9E15E6
100
AcDbEntity
  8
TEXT
100
AcDbPolyline
 90
        2
 70
     0
 43
0.0
 10
5.010413921356882
 20
4.62047402353024
 42
-0.3328679258950098
 10
5.046195612070043
 20
4.593306526769344
 42
6.772930709997214
  0
LINE
  5
7DE1B343D9E159B
330
7DE1B343D9E15E6
100
AcDbEntity
  8
TEXT
100
AcDbLine
 10
5.200277461599254
 20
4.620474023530237
 30
0.0
 11
5.200277461599254
 21
4.592151477760593
 31
0.0
  0
LWPOLYLINE
  5
7DE1B343D9E159C
330
7DE1B343D9E15E6
100
AcDbEntity
  8
TEXT
100
AcDbPolyline
 90
        2
 70
     0
 43
0.0
 10
5.164495770886087
 20
4.62047402353024
 42
-0.3277054968067132
 10
5.200277461599252
 20
4.592151477760596
 42
6.667889725900311
  0
LINE
  5
7DE1B343D9E15A0
330
7DE1B343D9E15E6
100
AcDbEntity
  8
TEXT
100
AcDbLine
 10
5.414069309691354
 20
4.515262044976809
 30
0.0
 11
5.370318538509453
 21
4.597512320972954
 31
0.0
  0
LINE
  5
7DE1B343D9E15A1
330
7DE1B343D9E15E6
100
AcDbEntity
  8
TEXT
100
AcDbLine
 10
5.414069309691354
 20
4.620474023530237
 30
0.0
 11
5.414069309691354
 21
4.515262044976809
 31
0.0
  0
LINE
  5
7DE1B343D9E15A2
330
7DE1B343D9E15E6
100
AcDbEntity
  8
TEXT
100
AcDbLine
 10
5.641753048629723
 20
4.544608697118698
 30
0.0
 11
5.641753048629723
 21
4.685938229297837
 31
0.0
  0
LINE
  5
7DE1B343D9E15A3
330
7DE1B343D9E15E6
100
AcDbEntity
  8
TEXT
100
AcDbLine
 10
5.688851207185708
 20
4.620474023530237
 30
0.0
 11
5.641753048629723
 21
4.544608697118698
 31
0.0
  0
LINE
  5
7DE1B343D9E15A4
330
7DE1B343D9E15E6
100
AcDbEntity
  8
TEXT
100
AcDbLine
 10
5.699285923949631
 20
4.510580780589263
 30
0.0
 11
5.763843039915336
 21
4.620474023530237
 31
0.0
  0
LINE
  5
7DE1B343D9E15A5
330
7DE1B343D9E15E6
100
AcDbEntity
  8
TEXT
100
AcDbLine
 10
5.57791805740695
 20
4.354000990541726
 30
0.0
 11
5.642296241725571
 21
4.354000990541726
 31
0.0
  0
LWPOLYLINE
  5
7DE1B343D9E15A6
330
7DE1B343D9E15E6
100
AcDbEntity
  8
TEXT
100
AcDbPolyline
 90
        2
 70
     0
 43
0.0
 10
5.418008986996392
 20
4.397491935492164
 42
-0.2901071551932486
 10
5.374933054128748
 20
4.354000990541726
 42
-5.328517124445184
  0
ARC
  5
7DE1B343D9E15AA
330
7DE1B343D9E15E6
100
AcDbEntity
  8
TEXT
100
AcDbCircle
 10
5.306078472471833
 20
4.527837953873474
 30
0.0
 40
0.028359375
100
AcDbArc
 50
25.78218179591245
 51
90.0
  0
LINE
  5
7DE1B343D9E15AB
330
7DE1B343D9E15E6
100
AcDbEntity
  8
TEXT
100
AcDbLine
 10
5.341879547775956
 20
4.518922355411339
 30
0.0
 11
5.331614787362392
 21
4.540172894984033
 31
0.0
  0
LINE
  5
7DE1B343D9E15AC
330
7DE1B343D9E15E6
100
AcDbEntity
  8
TEXT
100
AcDbLine
 10
5.259591557992573
 20
4.518922355411339
 30
0.0
 11
5.341879547775956
 21
4.518922355411339
 31
0.0
  0
LWPOLYLINE
  5
7DE1B343D9E15AD
330
7DE1B343D9E15E6
100
AcDbEntity
  8
TEXT
100
AcDbPolyline
 90
        4
 70
     1
 43
0.0
 10
5.354810589058855
 20
4.456964968525751
 10
5.266150270398997
 20
4.456964968525751
 42
0.9999999999999998
 10
5.266150270398997
 20
4.41456642802189
 10
5.354810589058855
 20
4.41456642802189
 42
1.0
  0
LWPOLYLINE
  5
7DE1B343D9E15B3
330
7DE1B343D9E15E6
100
AcDbEntity
  8
TEXT
100
AcDbPolyline
 90
        2
 70
     0
 43
0.0
 10
5.240915636497371
 20
4.354000990541726
 10
5.374933054128748
 20
4.354000990541726
 42
0.9999999999999998
  0
LINE
  5
7DE1B343D9E15B7
330
7DE1B343D9E15E6
100
AcDbEntity
  8
TEXT
100
AcDbLine
 10
5.501270076114387
 20
4.556197328873471
 30
0.0
 11
5.577918057406945
 21
4.556197328873471
 31
0.0
  0
LINE
  5
7DE1B343D9E15B8
330
7DE1B343D9E15E6
100
AcDbEntity
  8
TEXT
100
AcDbLine
 10
5.577918057406945
 20
4.556197328873471
 30
0.0
 11
5.57791805740695
 21
4.354000990541726
 31
0.0
  0
ARC
  5
7DE1B343D9E15B9
330
7DE1B343D9E15E6
100
AcDbEntity
  8
TEXT
100
AcDbCircle
 10
5.501270076114385
 20
4.531291453590808
 30
0.0
 40
0.0249058752826653
100
AcDbArc
 50
89.99971217465335
 51
179.9999999999985
  0
LINE
  5
7DE1B343D9E15BA
330
7DE1B343D9E15E6
100
AcDbEntity
  8
TEXT
100
AcDbLine
 10
5.476364200831728
 20
4.354000990541726
 30
0.0
 11
5.476364200831723
 21
4.531291495973194
 31
0.0
  0
LWPOLYLINE
  5
7DE1B343D9E15BB
330
7DE1B343D9E15E6
100
AcDbEntity
  8
TEXT
100
AcDbPolyline
 90
        2
 70
     0
 43
0.0
 10
5.418008986996392
 20
4.354000990541726
 10
5.476364200831726
 20
4.354000990541726
  0
LWPOLYLINE
  5
7DE1B343D9E15BF
330
7DE1B343D9E15E6
100
AcDbEntity
  8
TEXT
100
AcDbPolyline
 90
        2
 70
     0
 43
0.0
 10
5.418008986996392
 20
4.397491935492164
 10
5.418008986996392
 20
4.354000990541726
  0
LINE
  5
7DE1B343D9E15C3
330
7DE1B343D9E15E6
100
AcDbEntity
  8
TEXT
100
AcDbLine
 10
5.794778147313241
 20
4.354000990541726
 30
0.0
 11
5.699285923949631
 21
4.510580780589263
 31
0.0
  0
LINE
  5
7DE1B343D9E15C4
330
7DE1B343D9E15E6
100
AcDbEntity
  8
TEXT
100
AcDbLine
 10
5.718199774937035
 20
4.354000990541726
 30
0.0
 11
5.794778147313241
 21
4.354000990541726
 31
0.0
  0
LINE
  5
7DE1B343D9E15C5
330
7DE1B343D9E15E6
100
AcDbEntity
  8
TEXT
100
AcDbLine
 10
5.642296241725571
 20
4.485580559017906
 30
0.0
 11
5.718199774937035
 21
4.354000990541726
 31
0.0
  0
LINE
  5
7DE1B343D9E15C6
330
7DE1B343D9E15E6
100
AcDbEntity
  8
TEXT
100
AcDbLine
 10
5.642296241725571
 20
4.354000990541726
 30
0.0
 11
5.642296241725571
 21
4.485580559017906
 31
0.0
  0
LINE
  5
7DE1B343D9E15C7
330
7DE1B343D9E15E6
100
AcDbEntity
  8
TEXT
100
AcDbLine
 10
5.641753048629723
 20
4.685938229297837
 30
0.0
 11
5.57343817008045
 21
4.685938229297837
 31
0.0
  0
ARC
  5
7DE1B343D9E15C8
330
7DE1B343D9E15E6
100
AcDbEntity
  8
TEXT
100
AcDbCircle
 10
5.333082431039244
 20
4.578890456409334
 30
0.0
 40
0.0416329381542859
100
AcDbArc
 50
26.56974201007528
 51
87.20939649401342
  0
LINE
  5
7DE1B343D9E15C9
330
7DE1B343D9E15E6
100
AcDbEntity
  8
TEXT
100
AcDbLine
 10
5.477966215990855
 20
4.620474023530237
 30
0.0
 11
5.414069309691354
 21
4.620474023530237
 31
0.0
  0
LINE
  5
7DE1B343D9E15CA
330
7DE1B343D9E15E6
100
AcDbEntity
  8
TEXT
100
AcDbLine
 10
5.477966215990855
 20
4.592926373669362
 30
0.0
 11
5.477966215990855
 21
4.620474023530237
 31
0.0
  0
ARC
  5
7DE1B343D9E15CB
330
7DE1B343D9E15E6
100
AcDbEntity
  8
TEXT
100
AcDbCircle
 10
5.509159033053963
 20
4.589228296247972
 30
0.0
 40
0.0314112657011332
100
AcDbArc
 50
95.88484768694724
 51
173.2388340632136
  0
LINE
  5
7DE1B343D9E15CC
330
7DE1B343D9E15E6
100
AcDbEntity
  8
TEXT
100
AcDbLine
 10
5.573438170080445
 20
4.620474023530237
 30
0.0
 11
5.505938452430928
 21
4.620474023530237
 31
0.0
  0
LINE
  5
7DE1B343D9E15CD
330
7DE1B343D9E15E6
100
AcDbEntity
  8
TEXT
100
AcDbLine
 10
5.57343817008045
 20
4.685938229297837
 30
0.0
 11
5.573438170080445
 21
4.620474023530237
 31
0.0
  0
LINE
  5
7DE1B343D9E15CE
330
7DE1B343D9E15E6
100
AcDbEntity
  8
TEXT
100
AcDbLine
 10
5.763843039915336
 20
4.620474023530237
 30
0.0
 11
5.68885120718571
 21
4.620474023530237
 31
0.0
  0
INSERT
  5
7DE1B343D9E1601
330
7DE1B343D9E15E6
100
AcDbEntity
  8
ASHADE
 62
     1
100
AcDbBlockReference
  2
AVE_RENDER
 10
0.0
 20
0.0
 30
0.0
1001
AVE_RENDER
1002
{
1070
     6
1000
Pref
1070
    30
1070
    20
1070
     1
1070
     0
1000

1070
    10
1070
     1
1070
    30
1040
1.0
1070
     1
1040
0.3
1040
0.7
1040
0.0
1040
10.0
1010
-1.0
1020
-1.0
1030
-1.0
1040
0.3
1070
    49
1070
     0
1070
     0
1010
1.0
1020
1.0
1030
1.0
1040
45.0
1070
     1
1070
     0
1000
WCS
1040
0.0
1002
}
  0
INSERT
  5
7DE1B343D9E1602
330
7DE1B343D9E15E6
100
AcDbEntity
  8
ASHADE
 62
     3
100
AcDbBlockReference
  2
AVE_RENDER
 10
0.0
 20
0.0
 30
0.0
1001
AVE_RENDER
1002
{
1070
     0
1000
Full Opt
1070
     0
1070
     1
1070
     1
1070
     1
1070
     0
1070
     0
1070
     0
1070
     1
1070
     1
1040
0.0001
1040
0.0001
1002
}
  0
INSERT
  5
7DE1B343D9E1603
330
7DE1B343D9E15E6
100
AcDbEntity
  8
ASHADE
 62
     4
100
AcDbBlockReference
  2
AVE_RENDER
 10
0.0
 20
0.0
 30
0.0
1001
AVE_RENDER
1002
{
1070
     0
1000
Quick Opt
1070
     0
1070
     1
1070
     1
1070
     1
1070
     0
1070
     0
1070
     1
1002
}
  0
INSERT
  5
7DE1B343D9E1604
330
7DE1B343D9E15E6
100
AcDbEntity
  8
ASHADE
 62
     5
100
AcDbBlockReference
  2
AVE_RENDER
 10
0.0
 20
0.0
 30
0.0
1001
AVE_RENDER
1002
{
1070
     1
1000
Scanl Opt
1070
     2
1070
     0
1070
     2
1040
2.0
1040
4.0
1070
     0
1070
     1
1070
     0
1040
0.03
1002
}
  0
INSERT
  5
7DE1B343D9E1605
330
7DE1B343D9E15E6
100
AcDbEntity
  8
ASHADE
 62
     6
100
AcDbBlockReference
  2
AVE_RENDER
 10
0.0
 20
0.0
 30
0.0
1001
AVE_RENDER
1002
{
1070
     2
1000
Raytr Opt
1070
     2
1070
     0
1070
     2
1040
2.0
1040
4.0
1070
     0
1070
     1
1070
     1
1040
0.03
1070
     3
1040
0.03
1002
}
  0
INSERT
  5
7DE1B343D9E1606
330
7DE1B343D9E15E6
100
AcDbEntity
  8
ASHADE
 62
     7
100
AcDbBlockReference
  2
AVE_RENDER
 10
0.0
 20
0.0
 30
0.0
1001
AVE_RENDER
1002
{
1070
     0
1000
RFile Opt
1070
     5
1070
   640
1070
   480
1070
 10000
1070
     3
1070
    32
1070
    24
1070
     0
1070
     0
1070
     0
1070
     1
1070
     0
1070
     0
1070
     0
1002
}
  0
INSERT
  5
7DE1B343D9E1607
330
7DE1B343D9E15E6
100
AcDbEntity
  8
ASHADE
 62
     8
100
AcDbBlockReference
  2
AVE_RENDER
 10
0.0
 20
0.0
 30
0.0
1001
AVE_RENDER
1002
{
1070
     0
1000
Fog Opt
1070
     0
1070
     0
1040
0.0
1040
1.0
1040
0.0
1040
1.0
1010
0.5
1020
0.5
1030
0.5
1002
}
  0
INSERT
  5
7DE1B343D9E1608
330
7DE1B343D9E15E6
100
AcDbEntity
  8
ASHADE
 62
     9
100
AcDbBlockReference
  2
AVE_RENDER
 10
0.0
 20
0.0
 30
0.0
1001
AVE_RENDER
1002
{
1070
     0
1000
BG Opt
1070
     0
1070
     1
1010
0.0
1020
0.0
1030
0.0
1010
1.0
1020
0.0
1030
0.0
1010
0.0
1020
1.0
1030
0.0
1010
0.0
1020
0.0
1030
1.0
1040
0.5
1040
0.33
1040
0.0
1000

1070
     1
1000

1070
     1
1070
     1
1040
1.0
1040
1.0
1040
0.0
1040
0.0
1070
     0
1002
}
  0
INSERT
  5
7DE1B343D9E160F
330
7DE1B343D9E15E6
100
AcDbEntity
  8
ASHADE
 62
     1
100
AcDbBlockReference
  2
AVE_GLOBAL
 10
0.0
 20
0.0
 30
0.0
1001
AVE_MATERIAL
1002
{
1000
*GLOBAL*
1000
1
1000
Global finish.
1002
{
1002
}
1002
{
1070
    63
1002
{
1002
{
1010
-1.0
1020
-1.0
1030
-1.0
1002
}
1040
0.1000000014901161
1000

1040
0.0
1002
{
1002
}
1040
0.0
1002
{
1002
}
1040
0.0
1002
}
1002
{
1002
{
1010
-1.0
1020
-1.0
1030
-1.0
1002
}
1040
0.6999999880790711
1000

1040
0.0
1002
{
1002
}
1040
0.0
1002
{
1002
}
1040
0.0
1002
}
1002
{
1002
{
1010
-1.0
1020
-1.0
1030
-1.0
1002
}
1040
0.2000000029802322
1000

1040
0.0
1002
{
1002
}
1040
0.0
1002
{
1002
}
1040
0.0
1002
}
1002
{
1070
     0
1002
{
1070
     1
1002
{
1040
1.0
1040
1.0
1000

1040
0.0
1002
{
1002
}
1040
0.0
1002
{
1002
}
1040
0.0
1002
}
1002
}
1040
1.0
1040
0.0
1040
0.0
1002
}
1002
{
1040
1.0
1040
1.0
1000

1040
0.0
1002
{
1002
}
1040
0.0
1002
{
1002
}
1040
0.0
1002
}
1002
{
1040
0.5
1040
1.0
1000

1040
0.0
1002
{
1002
}
1040
0.0
1002
{
1002
}
1040
0.0
1002
}
1002
{
1070
     0
1040
0.0
1002
{
1002
}
1040
1.0
1002
{
1002
}
1040
0.0
1002
}
1002
{
1040
0.0
1002
{
1002
{
1010
0.0
1020
0.0
1030
0.0
1002
}
1040
1.0
1000

1040
0.0
1002
{
1002
}
1040
0.0
1002
{
1002
}
1040
0.0
1002
}
1002
}
1002
{
1002
{
1070
     1
1002
{
1040
0.0
1040
1.0
1000

1040
0.0
1002
{
1002
}
1040
0.0
1002
{
1002
}
1040
0.0
1002
}
1002
}
1040
0.0
1002
{
1002
}
1010
1.0
1020
0.0
1030
0.0
1010
0.0
1020
1.0
1030
0.0
1010
0.0
1020
0.0
1030
1.0
1070
     0
1002
}
1002
{
1002
{
1040
1.0
1040
1.0
1002
{
1070
     1
1002
{
1040
1.0
1040
1.0
1000

1040
0.0
1002
{
1002
}
1040
0.0
1002
{
1002
}
1040
0.0
1002
}
1002
}
1002
}
1070
     0
1040
0.0
1002
{
1002
}
1002
}
1002
{
1002
}
1002
}
1002
{
1071
        3
1070
     3
1070
     0
1002
{
1070
     2
1070
     0
1070
     0
1040
0.0
1002
}
1070
     0
1070
     2
1002
{
1002
}
1002
}
1002
{
1040
8030.0
1040
190.3000030517578
1040
0.3050000071525574
1040
228.0
1040
545.0
1040
14.0
1040
17.39999961853027
1040
0.4560000002384186
1002
}
1002
}
  0
ENDSEC
  0
SECTION
  2
OBJECTS
  0
DICTIONARY
  5
7DE1B343D9E15DA
330
0
100
AcDbDictionary
  3
ACAD_GROUP
350
7DE1B343D9E15DB
  3
ACAD_LAYOUT
350
7DE1B343D9E161B
  3
ACAD_MLINESTYLE
350
7DE1B343D9E15DC
  3
ACAD_PLOTSETTINGS
350
7DE1B343D9E161C
  3
ACAD_PLOTSTYLENAME
350
7DE1B343D9E1619
  3
ACDBHEADERROUNDTRIPXREC
350
7DE1B343D9E1626
  3
ACDBVARIABLEDICTIONARY
350
7DE1B343D9E1623
  0
DICTIONARY
  5
7DE1B343D9E1648
330
7DE1B343D9E15E6
100
AcDbDictionary
280
     1
  3
ACAD_LAYOUTSELFREF
360
7DE1B343D9E1649
  0
DICTIONARY
  5
7DE1B343D9E1646
330
7DE1B343D9E15E3
100
AcDbDictionary
280
     1
  3
ACAD_LAYOUTSELFREF
360
7DE1B343D9E1647
  0
DICTIONARY
  5
7DE1B343D9E15DB
102
{ACAD_REACTORS
330
7DE1B343D9E15DA
102
}
330
7DE1B343D9E15DA
100
AcDbDictionary
  0
DICTIONARY
  5
7DE1B343D9E161B
102
{ACAD_REACTORS
330
7DE1B343D9E15DA
102
}
330
7DE1B343D9E15DA
100
AcDbDictionary
  0
DICTIONARY
  5
7DE1B343D9E15DC
102
{ACAD_REACTORS
330
7DE1B343D9E15DA
102
}
330
7DE1B343D9E15DA
100
AcDbDictionary
  3
STANDARD
350
7DE1B343D9E15E9
  0
DICTIONARY
  5
7DE1B343D9E161C
102
{ACAD_REACTORS
330
7DE1B343D9E15DA
102
}
330
7DE1B343D9E15DA
100
AcDbDictionary
  0
ACDBDICTIONARYWDFLT
  5
7DE1B343D9E1619
102
{ACAD_REACTORS
330
7DE1B343D9E15DA
102
}
330
7DE1B343D9E15DA
100
AcDbDictionary
281
     1
  3
Normal
350
7DE1B343D9E161A
100
AcDbDictionaryWithDefault
340
7DE1B343D9E161A
  0
DICTIONARY
  5
7DE1B343D9E1626
102
{ACAD_REACTORS
330
7DE1B343D9E15DA
102
}
330
7DE1B343D9E15DA
100
AcDbDictionary
  3
CEPSNTYPE
350
7DE1B343D9E1630
  3
FINGERPRINTGUID
350
7DE1B343D9E1631
  3
HYPERLINKBASE
350
7DE1B343D9E1629
  3
INSUNITS
350
7DE1B343D9E162F
  3
LAYOUTDICT
350
7DE1B343D9E162B
  3
LWETCUNION
350
7DE1B343D9E162E
  3
PLOTSETDICT
350
7DE1B343D9E162C
  3
PLOTSTYLNAMDICT
350
7DE1B343D9E162D
  3
PSVPSCALE
350
7DE1B343D9E1633
  3
PUCSBASE
350
7DE1B343D9E1636
  3
PUCSORGBACK
350
7DE1B343D9E163C
  3
PUCSORGBOTTOM
350
7DE1B343D9E1638
  3
PUCSORGFRONT
350
7DE1B343D9E163B
  3
PUCSORGLEFT
350
7DE1B343D9E1639
  3
PUCSORGRIGHT
350
7DE1B343D9E163A
  3
PUCSORGTOP
350
7DE1B343D9E1637
  3
PUCSORTHOREF
350
7DE1B343D9E1634
  3
PUCSORTHOVIEW
350
7DE1B343D9E1635
  3
STYLESHEET
350
7DE1B343D9E162A
  3
TSTACKALIGN
350
7DE1B343D9E1627
  3
TSTACKSIZE
350
7DE1B343D9E1628
  3
UCSBASE
350
7DE1B343D9E163F
  3
UCSORGBACK
350
7DE1B343D9E1645
  3
UCSORGBOTTOM
350
7DE1B343D9E1641
  3
UCSORGFRONT
350
7DE1B343D9E1644
  3
UCSORGLEFT
350
7DE1B343D9E1642
  3
UCSORGRIGHT
350
7DE1B343D9E1643
  3
UCSORGTOP
350
7DE1B343D9E1640
  3
UCSORTHOREF
350
7DE1B343D9E163D
  3
UCSORTHOVIEW
350
7DE1B343D9E163E
  3
VERSIONGUID
350
7DE1B343D9E1632
  0
DICTIONARY
  5
7DE1B343D9E1623
102
{ACAD_REACTORS
330
7DE1B343D9E15DA
102
}
330
7DE1B343D9E15DA
100
AcDbDictionary
  3
DIMASSOC
350
7DE1B343D9E1624
  0
XRECORD
  5
7DE1B343D9E1649
102
{ACAD_REACTORS
330
7DE1B343D9E1648
102
}
330
7DE1B343D9E1648
100
AcDbXrecord
340
7DE1B343D9E15E6
  0
XRECORD
  5
7DE1B343D9E1647
102
{ACAD_REACTORS
330
7DE1B343D9E1646
102
}
330
7DE1B343D9E1646
100
AcDbXrecord
340
7DE1B343D9E15E3
  0
MLINESTYLE
  5
7DE1B343D9E15E9
102
{ACAD_REACTORS
330
7DE1B343D9E15DC
102
}
330
7DE1B343D9E15DC
100
AcDbMlineStyle
  2
STANDARD
 70
     0
  3

 62
     0
 51
90.0
 52
90.0
 71
     2
 49
0.5
 62
   256
  6
BYLAYER
 49
-0.5
 62
   256
  6
BYLAYER
  0
ACDBPLACEHOLDER
  5
7DE1B343D9E161A
102
{ACAD_REACTORS
330
7DE1B343D9E1619
102
}
330
7DE1B343D9E1619
100
AcDbPlaceHolder
280
     0
  0
XRECORD
  5
7DE1B343D9E1630
102
{ACAD_REACTORS
330
7DE1B343D9E1626
102
}
330
7DE1B343D9E1626
100
AcDbXrecord
 90
        0
  0
XRECORD
  5
7DE1B343D9E1631
102
{ACAD_REACTORS
330
7DE1B343D9E1626
102
}
330
7DE1B343D9E1626
100
AcDbXrecord
  1
{2B043CB0-8DB6-11D6-88E6-0090279574E7}
  0
XRECORD
  5
7DE1B343D9E1629
102
{ACAD_REACTORS
330
7DE1B343D9E1626
102
}
330
7DE1B343D9E1626
100
AcDbXrecord
  1

  0
XRECORD
  5
7DE1B343D9E162F
102
{ACAD_REACTORS
330
7DE1B343D9E1626
102
}
330
7DE1B343D9E1626
100
AcDbXrecord
 90
        0
  0
XRECORD
  5
7DE1B343D9E162B
102
{ACAD_REACTORS
330
7DE1B343D9E1626
102
}
330
7DE1B343D9E1626
100
AcDbXrecord
340
7DE1B343D9E161B
  0
XRECORD
  5
7DE1B343D9E162E
102
{ACAD_REACTORS
330
7DE1B343D9E1626
102
}
330
7DE1B343D9E1626
100
AcDbXrecord
 90
    14877
  0
XRECORD
  5
7DE1B343D9E162C
102
{ACAD_REACTORS
330
7DE1B343D9E1626
102
}
330
7DE1B343D9E1626
100
AcDbXrecord
340
7DE1B343D9E161C
  0
XRECORD
  5
7DE1B343D9E162D
102
{ACAD_REACTORS
330
7DE1B343D9E1626
102
}
330
7DE1B343D9E1626
100
AcDbXrecord
340
7DE1B343D9E1619
  0
XRECORD
  5
7DE1B343D9E1633
102
{ACAD_REACTORS
330
7DE1B343D9E1626
102
}
330
7DE1B343D9E1626
100
AcDbXrecord
 40
0.0
  0
XRECORD
  5
7DE1B343D9E1636
102
{ACAD_REACTORS
330
7DE1B343D9E1626
102
}
330
7DE1B343D9E1626
100
AcDbXrecord
340
0
  0
XRECORD
  5
7DE1B343D9E163C
102
{ACAD_REACTORS
330
7DE1B343D9E1626
102
}
330
7DE1B343D9E1626
100
AcDbXrecord
 10
0.0
 20
0.0
 30
0.0
  0
XRECORD
  5
7DE1B343D9E1638
102
{ACAD_REACTORS
330
7DE1B343D9E1626
102
}
330
7DE1B343D9E1626
100
AcDbXrecord
 10
0.0
 20
0.0
 30
0.0
  0
XRECORD
  5
7DE1B343D9E163B
102
{ACAD_REACTORS
330
7DE1B343D9E1626
102
}
330
7DE1B343D9E1626
100
AcDbXrecord
 10
0.0
 20
0.0
 30
0.0
  0
XRECORD
  5
7DE1B343D9E1639
102
{ACAD_REACTORS
330
7DE1B343D9E1626
102
}
330
7DE1B343D9E1626
100
AcDbXrecord
 10
0.0
 20
0.0
 30
0.0
  0
XRECORD
  5
7DE1B343D9E163A
102
{ACAD_REACTORS
330
7DE1B343D9E1626
102
}
330
7DE1B343D9E1626
100
AcDbXrecord
 10
0.0
 20
0.0
 30
0.0
  0
XRECORD
  5
7DE1B343D9E1637
102
{ACAD_REACTORS
330
7DE1B343D9E1626
102
}
330
7DE1B343D9E1626
100
AcDbXrecord
 10
0.0
 20
0.0
 30
0.0
  0
XRECORD
  5
7DE1B343D9E1634
102
{ACAD_REACTORS
330
7DE1B343D9E1626
102
}
330
7DE1B343D9E1626
100
AcDbXrecord
340
0
  0
XRECORD
  5
7DE1B343D9E1635
102
{ACAD_REACTORS
330
7DE1B343D9E1626
102
}
330
7DE1B343D9E1626
100
AcDbXrecord
 70
     0
  0
XRECORD
  5
7DE1B343D9E162A
102
{ACAD_REACTORS
330
7DE1B343D9E1626
102
}
330
7DE1B343D9E1626
100
AcDbXrecord
  1

  0
XRECORD
  5
7DE1B343D9E1627
102
{ACAD_REACTORS
330
7DE1B343D9E1626
102
}
330
7DE1B343D9E1626
100
AcDbXrecord
 90
        1
  0
XRECORD
  5
7DE1B343D9E1628
102
{ACAD_REACTORS
330
7DE1B343D9E1626
102
}
330
7DE1B343D9E1626
100
AcDbXrecord
 90
       70
  0
XRECORD
  5
7DE1B343D9E163F
102
{ACAD_REACTORS
330
7DE1B343D9E1626
102
}
330
7DE1B343D9E1626
100
AcDbXrecord
340
0
  0
XRECORD
  5
7DE1B343D9E1645
102
{ACAD_REACTORS
330
7DE1B343D9E1626
102
}
330
7DE1B343D9E1626
100
AcDbXrecord
 10
0.0
 20
0.0
 30
0.0
  0
XRECORD
  5
7DE1B343D9E1641
102
{ACAD_REACTORS
330
7DE1B343D9E1626
102
}
330
7DE1B343D9E1626
100
AcDbXrecord
 10
0.0
 20
0.0
 30
0.0
  0
XRECORD
  5
7DE1B343D9E1644
102
{ACAD_REACTORS
330
7DE1B343D9E1626
102
}
330
7DE1B343D9E1626
100
AcDbXrecord
 10
0.0
 20
0.0
 30
0.0
  0
XRECORD
  5
7DE1B343D9E1642
102
{ACAD_REACTORS
330
7DE1B343D9E1626
102
}
330
7DE1B343D9E1626
100
AcDbXrecord
 10
0.0
 20
0.0
 30
0.0
  0
XRECORD
  5
7DE1B343D9E1643
102
{ACAD_REACTORS
330
7DE1B343D9E1626
102
}
330
7DE1B343D9E1626
100
AcDbXrecord
 10
0.0
 20
0.0
 30
0.0
  0
XRECORD
  5
7DE1B343D9E1640
102
{ACAD_REACTORS
330
7DE1B343D9E1626
102
}
330
7DE1B343D9E1626
100
AcDbXrecord
 10
0.0
 20
0.0
 30
0.0
  0
XRECORD
  5
7DE1B343D9E163D
102
{ACAD_REACTORS
330
7DE1B343D9E1626
102
}
330
7DE1B343D9E1626
100
AcDbXrecord
340
0
  0
XRECORD
  5
7DE1B343D9E163E
102
{ACAD_REACTORS
330
7DE1B343D9E1626
102
}
330
7DE1B343D9E1626
100
AcDbXrecord
 70
     0
  0
XRECORD
  5
7DE1B343D9E1632
102
{ACAD_REACTORS
330
7DE1B343D9E1626
102
}
330
7DE1B343D9E1626
100
AcDbXrecord
  1
{2B043CB2-8DB6-11D6-88E6-0090279574E7}
  0
DICTIONARYVAR
  5
7DE1B343D9E1624
102
{ACAD_REACTORS
330
7DE1B343D9E1623
102
}
330
7DE1B343D9E1623
100
DictionaryVariables
280
     0
  1
1
  0
ENDSEC
  0
EOF
